  0
SECTION
  2
HEADER
  9
$ACADVER
  1
AC1015
  9
$ACADMAINTVER
 70
    18
  9
$DWGCODEPAGE
  3
ANSI_1252
  9
$INSBASE
 10
0.0
 20
0.0
 30
0.0
  9
$EXTMIN
 10
-311.5713494824843
 20
-583.0102386346672
 30
-0.0015258207003583
  9
$EXTMAX
 10
375.8569345202495
 20
663.0700847358327
 30
0.0000000349246037
  9
$LIMMIN
 10
0.0
 20
0.0
  9
$LIMMAX
 10
420.0
 20
297.0
  9
$ORTHOMODE
 70
     0
  9
$REGENMODE
 70
     1
  9
$FILLMODE
 70
     1
  9
$QTEXTMODE
 70
     0
  9
$MIRRTEXT
 70
     0
  9
$LTSCALE
 40
1.0
  9
$ATTMODE
 70
     1
  9
$TEXTSIZE
 40
2.5
  9
$TRACEWID
 40
1.0
  9
$TEXTSTYLE
  7
Standard
  9
$CLAYER
  8
0
  9
$CELTYPE
  6
ByLayer
  9
$CECOLOR
 62
   256
  9
$CELTSCALE
 40
1.0
  9
$DISPSILH
 70
     0
  9
$DIMSCALE
 40
1.0
  9
$DIMASZ
 40
2.5
  9
$DIMEXO
 40
0.625
  9
$DIMDLI
 40
3.75
  9
$DIMRND
 40
0.0
  9
$DIMDLE
 40
0.0
  9
$DIMEXE
 40
1.25
  9
$DIMTP
 40
0.0
  9
$DIMTM
 40
0.0
  9
$DIMTXT
 40
2.5
  9
$DIMCEN
 40
2.5
  9
$DIMTSZ
 40
0.0
  9
$DIMTOL
 70
     0
  9
$DIMLIM
 70
     0
  9
$DIMTIH
 70
     0
  9
$DIMTOH
 70
     0
  9
$DIMSE1
 70
     0
  9
$DIMSE2
 70
     0
  9
$DIMTAD
 70
     1
  9
$DIMZIN
 70
     8
  9
$DIMBLK
  1

  9
$DIMASO
 70
     1
  9
$DIMSHO
 70
     1
  9
$DIMPOST
  1

  9
$DIMAPOST
  1

  9
$DIMALT
 70
     0
  9
$DIMALTD
 70
     3
  9
$DIMALTF
 40
0.03937007874016
  9
$DIMLFAC
 40
1.0
  9
$DIMTOFL
 70
     1
  9
$DIMTVP
 40
0.0
  9
$DIMTIX
 70
     0
  9
$DIMSOXD
 70
     0
  9
$DIMSAH
 70
     0
  9
$DIMBLK1
  1

  9
$DIMBLK2
  1

  9
$DIMSTYLE
  2
ISO-25
  9
$DIMCLRD
 70
     0
  9
$DIMCLRE
 70
     0
  9
$DIMCLRT
 70
     0
  9
$DIMTFAC
 40
1.0
  9
$DIMGAP
 40
0.625
  9
$DIMJUST
 70
     0
  9
$DIMSD1
 70
     0
  9
$DIMSD2
 70
     0
  9
$DIMTOLJ
 70
     0
  9
$DIMTZIN
 70
     8
  9
$DIMALTZ
 70
     0
  9
$DIMALTTZ
 70
     0
  9
$DIMUPT
 70
     0
  9
$DIMDEC
 70
     2
  9
$DIMTDEC
 70
     2
  9
$DIMALTU
 70
     2
  9
$DIMALTTD
 70
     3
  9
$DIMTXSTY
  7
Standard
  9
$DIMAUNIT
 70
     0
  9
$DIMADEC
 70
     0
  9
$DIMALTRND
 40
0.0
  9
$DIMAZIN
 70
     0
  9
$DIMDSEP
 70
    44
  9
$DIMATFIT
 70
     3
  9
$DIMFRAC
 70
     0
  9
$DIMLDRBLK
  1

  9
$DIMLUNIT
 70
     2
  9
$DIMLWD
 70
    -2
  9
$DIMLWE
 70
    -2
  9
$DIMTMOVE
 70
     0
  9
$LUNITS
 70
     2
  9
$LUPREC
 70
     4
  9
$SKETCHINC
 40
1.0
  9
$FILLETRAD
 40
0.0
  9
$AUNITS
 70
     0
  9
$AUPREC
 70
     0
  9
$MENU
  1
.
  9
$ELEVATION
 40
0.0
  9
$PELEVATION
 40
0.0
  9
$THICKNESS
 40
0.0
  9
$LIMCHECK
 70
     0
  9
$CHAMFERA
 40
0.0
  9
$CHAMFERB
 40
0.0
  9
$CHAMFERC
 40
0.0
  9
$CHAMFERD
 40
0.0
  9
$SKPOLY
 70
     0
  9
$TDCREATE
 40
2460390.451562500
  9
$TDUCREATE
 40
2460390.159895833
  9
$TDUPDATE
 40
2460390.463368055
  9
$TDUUPDATE
 40
2460390.171701389
  9
$TDINDWG
 40
0.0013310185
  9
$TDUSRTIMER
 40
0.0013310185
  9
$USRTIMER
 70
     1
  9
$ANGBASE
 50
0.0
  9
$ANGDIR
 70
     0
  9
$PDMODE
 70
     0
  9
$PDSIZE
 40
0.0
  9
$PLINEWID
 40
0.0
  9
$SPLFRAME
 70
     0
  9
$SPLINETYPE
 70
     6
  9
$SPLINESEGS
 70
     8
  9
$HANDSEED
  5
1170F
  9
$SURFTAB1
 70
     6
  9
$SURFTAB2
 70
     6
  9
$SURFTYPE
 70
     6
  9
$SURFU
 70
     6
  9
$SURFV
 70
     6
  9
$UCSBASE
  2

  9
$UCSNAME
  2

  9
$UCSORG
 10
0.0
 20
0.0
 30
0.0
  9
$UCSXDIR
 10
1.0
 20
0.0
 30
0.0
  9
$UCSYDIR
 10
0.0
 20
1.0
 30
0.0
  9
$UCSORTHOREF
  2

  9
$UCSORTHOVIEW
 70
     0
  9
$UCSORGTOP
 10
0.0
 20
0.0
 30
0.0
  9
$UCSORGBOTTOM
 10
0.0
 20
0.0
 30
0.0
  9
$UCSORGLEFT
 10
0.0
 20
0.0
 30
0.0
  9
$UCSORGRIGHT
 10
0.0
 20
0.0
 30
0.0
  9
$UCSORGFRONT
 10
0.0
 20
0.0
 30
0.0
  9
$UCSORGBACK
 10
0.0
 20
0.0
 30
0.0
  9
$PUCSBASE
  2

  9
$PUCSNAME
  2

  9
$PUCSORG
 10
0.0
 20
0.0
 30
0.0
  9
$PUCSXDIR
 10
1.0
 20
0.0
 30
0.0
  9
$PUCSYDIR
 10
0.0
 20
1.0
 30
0.0
  9
$PUCSORTHOREF
  2

  9
$PUCSORTHOVIEW
 70
     0
  9
$PUCSORGTOP
 10
0.0
 20
0.0
 30
0.0
  9
$PUCSORGBOTTOM
 10
0.0
 20
0.0
 30
0.0
  9
$PUCSORGLEFT
 10
0.0
 20
0.0
 30
0.0
  9
$PUCSORGRIGHT
 10
0.0
 20
0.0
 30
0.0
  9
$PUCSORGFRONT
 10
0.0
 20
0.0
 30
0.0
  9
$PUCSORGBACK
 10
0.0
 20
0.0
 30
0.0
  9
$USERI1
 70
     0
  9
$USERI2
 70
     0
  9
$USERI3
 70
     0
  9
$USERI4
 70
     0
  9
$USERI5
 70
     0
  9
$USERR1
 40
0.0
  9
$USERR2
 40
0.0
  9
$USERR3
 40
0.0
  9
$USERR4
 40
0.0
  9
$USERR5
 40
0.0
  9
$WORLDVIEW
 70
     1
  9
$SHADEDGE
 70
     3
  9
$SHADEDIF
 70
    70
  9
$TILEMODE
 70
     1
  9
$MAXACTVP
 70
    48
  9
$PINSBASE
 10
0.0
 20
0.0
 30
0.0
  9
$PLIMCHECK
 70
     0
  9
$PEXTMIN
 10
0.0
 20
0.0
 30
0.0
  9
$PEXTMAX
 10
0.0
 20
0.0
 30
0.0
  9
$PLIMMIN
 10
0.0
 20
0.0
  9
$PLIMMAX
 10
12.0
 20
9.0
  9
$UNITMODE
 70
     0
  9
$VISRETAIN
 70
     1
  9
$PLINEGEN
 70
     0
  9
$PSLTSCALE
 70
     1
  9
$TREEDEPTH
 70
  3020
  9
$CMLSTYLE
  2
Standard
  9
$CMLJUST
 70
     0
  9
$CMLSCALE
 40
20.0
  9
$PROXYGRAPHICS
 70
     1
  9
$MEASUREMENT
 70
     1
  9
$CELWEIGHT
370
    -1
  9
$ENDCAPS
280
     0
  9
$JOINSTYLE
280
     0
  9
$LWDISPLAY
290
     0
  9
$INSUNITS
 70
     4
  9
$HYPERLINKBASE
  1

  9
$STYLESHEET
  1

  9
$XEDIT
290
     1
  9
$CEPSNTYPE
380
     0
  9
$PSTYLEMODE
290
     1
  9
$FINGERPRINTGUID
  2
{709B2736-C135-B74B-A3E1-BFC6D185390E}
  9
$VERSIONGUID
  2
{BAE5E258-EB58-7749-9285-8A6528DF8FEE}
  9
$EXTNAMES
290
     1
  9
$PSVPSCALE
 40
0.0
  9
$OLESTARTUP
290
     0
  0
ENDSEC
  0
SECTION
  2
CLASSES
  0
CLASS
  1
ACDBDICTIONARYWDFLT
  2
AcDbDictionaryWithDefault
  3
ObjectDBX Classes
 90
        0
280
     0
281
     0
  0
CLASS
  1
ACDBPLACEHOLDER
  2
AcDbPlaceHolder
  3
ObjectDBX Classes
 90
        0
280
     0
281
     0
  0
CLASS
  1
LAYOUT
  2
AcDbLayout
  3
ObjectDBX Classes
 90
        0
280
     0
281
     0
  0
CLASS
  1
DICTIONARYVAR
  2
AcDbDictionaryVar
  3
ObjectDBX Classes
 90
        0
280
     0
281
     0
  0
CLASS
  1
TABLESTYLE
  2
AcDbTableStyle
  3
ObjectDBX Classes
 90
     4095
280
     0
281
     0
  0
CLASS
  1
MATERIAL
  2
AcDbMaterial
  3
ObjectDBX Classes
 90
     1153
280
     0
281
     0
  0
CLASS
  1
VISUALSTYLE
  2
AcDbVisualStyle
  3
ObjectDBX Classes
 90
     4095
280
     0
281
     0
  0
CLASS
  1
SCALE
  2
AcDbScale
  3
ObjectDBX Classes
 90
     1153
280
     0
281
     0
  0
CLASS
  1
MLEADERSTYLE
  2
AcDbMLeaderStyle
  3
ACDB_MLEADERSTYLE_CLASS
 90
     4095
280
     0
281
     0
  0
CLASS
  1
CELLSTYLEMAP
  2
AcDbCellStyleMap
  3
ObjectDBX Classes
 90
     1152
280
     0
281
     0
  0
CLASS
  1
EXACXREFPANELOBJECT
  2
ExAcXREFPanelObject
  3
EXAC_ESW
 90
    33793
280
     0
281
     0
  0
CLASS
  1
NPOCOLLECTION
  2
AcDbImpNonPersistentObjectsCollection
  3
ObjectDBX Classes
 90
    33921
280
     0
281
     0
  0
CLASS
  1
LAYER_INDEX
  2
AcDbLayerIndex
  3
ObjectDBX Classes
 90
    32768
280
     0
281
     0
  0
CLASS
  1
SPATIAL_INDEX
  2
AcDbSpatialIndex
  3
ObjectDBX Classes
 90
    32768
280
     0
281
     0
  0
CLASS
  1
IDBUFFER
  2
AcDbIdBuffer
  3
ObjectDBX Classes
 90
    32768
280
     0
281
     0
  0
CLASS
  1
ACDBSECTIONVIEWSTYLE
  2
AcDbSectionViewStyle
  3
ObjectDBX Classes
 90
     1025
280
     0
281
     0
  0
CLASS
  1
ACDBDETAILVIEWSTYLE
  2
AcDbDetailViewStyle
  3
ObjectDBX Classes
 90
     1025
280
     0
281
     0
  0
CLASS
  1
XRECORD
  2
AcDbXrecord
  3
ObjectDBX Classes
 90
        0
280
     0
281
     0
  0
ENDSEC
  0
SECTION
  2
TABLES
  0
TABLE
  2
VPORT
  5
8
102
{ACAD_XDICTIONARY
360
1161D
102
}
330
0
100
AcDbSymbolTable
 70
     1
  0
VPORT
  5
EA
330
8
100
AcDbSymbolTableRecord
100
AcDbViewportTableRecord
  2
*Active
 70
     0
 10
0.0
 20
0.0
 11
1.0
 21
1.0
 12
32.14279251888263
 22
40.02992305058273
 13
0.0
 23
0.0
 14
10.0
 24
10.0
 15
10.0
 25
10.0
 16
0.0
 26
0.0
 36
1.0
 17
0.0
 27
0.0
 37
0.0
 40
1325.093499973659
 41
0.9846153846153844
 42
50.0
 43
0.0
 44
0.0
 50
0.0
 51
0.0
 71
     0
 72
  1000
 73
     1
 74
     3
 75
     0
 76
     1
 77
     0
 78
     0
281
     0
 65
     1
110
0.0
120
0.0
130
0.0
111
1.0
121
0.0
131
0.0
112
0.0
122
1.0
132
0.0
 79
     0
146
0.0
1001
ACAD_NAV_VCDISPLAY
1070
     3
  0
ENDTAB
  0
TABLE
  2
LTYPE
  5
5
330
0
100
AcDbSymbolTable
 70
     1
  0
LTYPE
  5
14
330
5
100
AcDbSymbolTableRecord
100
AcDbLinetypeTableRecord
  2
ByBlock
 70
     0
  3

 72
    65
 73
     0
 40
0.0
  0
LTYPE
  5
15
330
5
100
AcDbSymbolTableRecord
100
AcDbLinetypeTableRecord
  2
ByLayer
 70
     0
  3

 72
    65
 73
     0
 40
0.0
  0
LTYPE
  5
16
330
5
100
AcDbSymbolTableRecord
100
AcDbLinetypeTableRecord
  2
Continuous
 70
     0
  3
Solid line
 72
    65
 73
     0
 40
0.0
  0
ENDTAB
  0
TABLE
  2
LAYER
  5
2
102
{ACAD_XDICTIONARY
360
1FF
102
}
330
0
100
AcDbSymbolTable
 70
     1
  0
LAYER
  5
10
102
{ACAD_XDICTIONARY
360
13C
102
}
330
2
100
AcDbSymbolTableRecord
100
AcDbLayerTableRecord
  2
0
 70
     0
 62
     7
  6
Continuous
370
    -3
390
F
  0
ENDTAB
  0
TABLE
  2
STYLE
  5
3
330
0
100
AcDbSymbolTable
 70
     1
  0
STYLE
  5
11
330
3
100
AcDbSymbolTableRecord
100
AcDbTextStyleTableRecord
  2
Standard
 70
     0
 40
0.0
 41
1.0
 50
0.0
 71
     0
 42
2.5
  3
arial.ttf
  4

1001
ACAD
1000
Arial
1071
       34
  0
ENDTAB
  0
TABLE
  2
VIEW
  5
6
330
0
100
AcDbSymbolTable
 70
     0
  0
ENDTAB
  0
TABLE
  2
UCS
  5
7
330
0
100
AcDbSymbolTable
 70
     0
  0
ENDTAB
  0
TABLE
  2
APPID
  5
9
330
0
100
AcDbSymbolTable
 70
     8
  0
APPID
  5
12
330
9
100
AcDbSymbolTableRecord
100
AcDbRegAppTableRecord
  2
ACAD
 70
     0
  0
APPID
  5
9E
330
9
100
AcDbSymbolTableRecord
100
AcDbRegAppTableRecord
  2
ACAD_PSEXT
 70
     0
  0
APPID
  5
133
330
9
100
AcDbSymbolTableRecord
100
AcDbRegAppTableRecord
  2
AcadAnnoPO
 70
     0
  0
APPID
  5
134
330
9
100
AcDbSymbolTableRecord
100
AcDbRegAppTableRecord
  2
AcadAnnotative
 70
     0
  0
APPID
  5
135
330
9
100
AcDbSymbolTableRecord
100
AcDbRegAppTableRecord
  2
ACAD_DSTYLE_DIMJAG
 70
     0
  0
APPID
  5
136
330
9
100
AcDbSymbolTableRecord
100
AcDbRegAppTableRecord
  2
ACAD_DSTYLE_DIMTALN
 70
     0
  0
APPID
  5
165
330
9
100
AcDbSymbolTableRecord
100
AcDbRegAppTableRecord
  2
ACAD_MLEADERVER
 70
     0
  0
APPID
  5
217
330
9
100
AcDbSymbolTableRecord
100
AcDbRegAppTableRecord
  2
ACAD_NAV_VCDISPLAY
 70
     0
  0
ENDTAB
  0
TABLE
  2
DIMSTYLE
  5
A
330
0
100
AcDbSymbolTable
 70
     1
100
AcDbDimStyleTable
 71
     0
  0
DIMSTYLE
105
27
330
A
100
AcDbSymbolTableRecord
100
AcDbDimStyleTableRecord
  2
ISO-25
 70
     0
 41
2.5
 42
0.625
 43
3.75
 44
1.25
 73
     0
 74
     0
 77
     1
 78
     8
140
2.5
141
2.5
143
0.03937007874016
147
0.625
171
     3
172
     1
271
     2
272
     2
274
     3
278
    44
283
     0
284
     8
340
11
  0
ENDTAB
  0
TABLE
  2
BLOCK_RECORD
  5
1
330
0
100
AcDbSymbolTable
 70
     7
  0
BLOCK_RECORD
  5
1F
102
{ACAD_XDICTIONARY
360
1CE
102
}
330
1
100
AcDbSymbolTableRecord
100
AcDbBlockTableRecord
  2
*Model_Space
340
22
  0
BLOCK_RECORD
  5
D2
102
{ACAD_XDICTIONARY
360
115CE
102
}
330
1
100
AcDbSymbolTableRecord
100
AcDbBlockTableRecord
  2
*Paper_Space
340
D3
  0
BLOCK_RECORD
  5
D6
102
{ACAD_XDICTIONARY
360
115D0
102
}
330
1
100
AcDbSymbolTableRecord
100
AcDbBlockTableRecord
  2
*Paper_Space0
340
D7
  0
BLOCK_RECORD
  5
113B9
330
1
100
AcDbSymbolTableRecord
100
AcDbBlockTableRecord
  2
GLE960_90_2.5-Front
340
0
102
{BLKREFS
331
115C4
102
}
  0
BLOCK_RECORD
  5
1142E
330
1
100
AcDbSymbolTableRecord
100
AcDbBlockTableRecord
  2
GLE960_90_2.5-Left
340
0
102
{BLKREFS
331
115C5
102
}
  0
BLOCK_RECORD
  5
1145C
330
1
100
AcDbSymbolTableRecord
100
AcDbBlockTableRecord
  2
GLE960_90_2.5-Right
340
0
102
{BLKREFS
331
115C6
102
}
  0
BLOCK_RECORD
  5
1148A
330
1
100
AcDbSymbolTableRecord
100
AcDbBlockTableRecord
  2
GLE960_90_2.5-Top
340
0
102
{BLKREFS
331
115C7
102
}
  0
BLOCK_RECORD
  5
114B1
330
1
100
AcDbSymbolTableRecord
100
AcDbBlockTableRecord
  2
GLE960_90_2.5-Bottom
340
0
102
{BLKREFS
331
115C8
102
}
  0
BLOCK_RECORD
  5
114DA
330
1
100
AcDbSymbolTableRecord
100
AcDbBlockTableRecord
  2
GLE960_90_2.5-ISO
340
0
102
{BLKREFS
331
115C9
102
}
  0
ENDTAB
  0
ENDSEC
  0
SECTION
  2
BLOCKS
  0
BLOCK
  5
20
330
1F
100
AcDbEntity
  8
0
100
AcDbBlockBegin
  2
*Model_Space
 70
     0
 10
0.0
 20
0.0
 30
0.0
  3
*Model_Space
  1

  0
ENDBLK
  5
21
330
1F
100
AcDbEntity
  8
0
100
AcDbBlockEnd
  0
BLOCK
  5
D4
330
D2
100
AcDbEntity
 67
     1
  8
0
100
AcDbBlockBegin
  2
*Paper_Space
 70
     0
 10
0.0
 20
0.0
 30
0.0
  3
*Paper_Space
  1

  0
ENDBLK
  5
D5
330
D2
100
AcDbEntity
 67
     1
  8
0
100
AcDbBlockEnd
  0
BLOCK
  5
D8
330
D6
100
AcDbEntity
 67
     1
  8
0
100
AcDbBlockBegin
  2
*Paper_Space0
 70
     0
 10
0.0
 20
0.0
 30
0.0
  3
*Paper_Space0
  1

  0
ENDBLK
  5
D9
330
D6
100
AcDbEntity
 67
     1
  8
0
100
AcDbBlockEnd
  0
BLOCK
  5
113BA
330
113B9
100
AcDbEntity
  8
0
100
AcDbBlockBegin
  2
GLE960_90_2.5-Front
 70
     0
 10
0.0
 20
0.0
 30
0.0
  3
GLE960_90_2.5-Front
  1

  0
ARC
  5
113BC
330
113B9
100
AcDbEntity
  8
0
100
AcDbCircle
 10
-44.39999999999998
 20
0.5999999999999339
 30
0.0
 40
3.1
100
AcDbArc
 50
180.0
 51
270.0
  0
ARC
  5
113BD
330
113B9
100
AcDbEntity
  8
0
100
AcDbCircle
 10
-44.39999999999998
 20
0.5999999999999339
 30
0.0
 40
0.6000000000000001
100
AcDbArc
 50
180.0
 51
270.0
  0
LINE
  5
113BE
330
113B9
100
AcDbEntity
  8
0
100
AcDbLine
 10
44.40000000000003
 20
0.0
 30
0.0
 11
-44.39999999999998
 21
0.0
 31
0.0
  0
LINE
  5
113BF
330
113B9
100
AcDbEntity
  8
0
100
AcDbLine
 10
44.40000000000003
 20
-2.500000000000062
 30
0.0
 11
-44.39999999999998
 21
-2.500000000000066
 31
0.0
  0
LINE
  5
113C0
330
113B9
100
AcDbEntity
  8
0
100
AcDbLine
 10
45.00000000000003
 20
45.30641096082078
 30
0.0
 11
45.00000000000004
 21
0.5999999999999162
 31
0.0
  0
LINE
  5
113C1
330
113B9
100
AcDbEntity
  8
0
100
AcDbLine
 10
47.50000000000003
 20
45.30641096082078
 30
0.0
 11
47.50000000000004
 21
0.5999999999999162
 31
0.0
  0
LINE
  5
113C2
330
113B9
100
AcDbEntity
  8
0
100
AcDbLine
 10
-67.00898635919748
 20
55.75999999999993
 30
0.0
 11
-48.10000000000001
 21
51.18543475871644
 31
0.0
  0
LINE
  5
113C3
330
113B9
100
AcDbEntity
  8
0
100
AcDbLine
 10
-48.09999999999995
 20
435.0
 30
0.0
 11
-83.50000000000003
 21
435.0
 31
0.0
  0
LINE
  5
113C4
330
113B9
100
AcDbEntity
  8
0
100
AcDbLine
 10
-83.50000000000003
 20
435.0
 30
0.0
 11
-83.50000000000008
 21
66.4693894778609
 31
0.0
  0
LINE
  5
113C5
330
113B9
100
AcDbEntity
  8
0
100
AcDbLine
 10
-83.50000000000008
 20
66.46938947786087
 30
0.0
 11
-67.00898635919748
 21
55.75999999999993
 31
0.0
  0
LINE
  5
113C6
330
113B9
100
AcDbEntity
  8
0
100
AcDbLine
 10
-44.99999999999999
 20
63.99999999999991
 30
0.0
 11
-44.99999999999992
 21
435.0
 31
0.0
  0
LINE
  5
113C7
330
113B9
100
AcDbEntity
  8
0
100
AcDbLine
 10
-47.49999999999992
 20
435.0
 30
0.0
 11
-44.99999999999992
 21
435.0
 31
0.0
  0
LINE
  5
113C8
330
113B9
100
AcDbEntity
  8
0
100
AcDbLine
 10
-47.49999999999999
 20
63.99999999999991
 30
0.0
 11
-47.49999999999992
 21
435.0
 31
0.0
  0
LINE
  5
113C9
330
113B9
100
AcDbEntity
  8
0
100
AcDbLine
 10
-47.49999999999999
 20
63.99999999999991
 30
0.0
 11
-44.99999999999999
 21
63.99999999999991
 31
0.0
  0
LINE
  5
113CA
330
113B9
100
AcDbEntity
  8
0
100
AcDbLine
 10
-44.99999999999999
 20
50.16999999999992
 30
0.0
 11
-44.99999999999999
 21
63.99999999999991
 31
0.0
  0
LINE
  5
113CB
330
113B9
100
AcDbEntity
  8
0
100
AcDbLine
 10
-47.49999999999999
 20
50.16999999999992
 30
0.0
 11
-47.49999999999999
 21
63.99999999999991
 31
0.0
  0
LINE
  5
113CC
330
113B9
100
AcDbEntity
  8
0
100
AcDbLine
 10
-47.49999999999999
 20
50.16999999999992
 30
0.0
 11
-44.99999999999999
 21
50.16999999999992
 31
0.0
  0
LINE
  5
113CD
330
113B9
100
AcDbEntity
  8
0
100
AcDbLine
 10
-44.99999999999999
 20
45.30641096082078
 30
0.0
 11
-44.99999999999999
 21
50.16999999999992
 31
0.0
  0
LINE
  5
113CE
330
113B9
100
AcDbEntity
  8
0
100
AcDbLine
 10
-47.49999999999999
 20
45.30641096082078
 30
0.0
 11
-47.49999999999999
 21
50.16999999999992
 31
0.0
  0
LINE
  5
113CF
330
113B9
100
AcDbEntity
  8
0
100
AcDbLine
 10
-47.49999999999999
 20
45.30641096082078
 30
0.0
 11
-44.99999999999999
 21
45.30641096082078
 31
0.0
  0
LINE
  5
113D0
330
113B9
100
AcDbEntity
  8
0
100
AcDbLine
 10
-44.99999999999999
 20
0.5999999999999122
 30
0.0
 11
-44.99999999999999
 21
45.30641096082078
 31
0.0
  0
LINE
  5
113D1
330
113B9
100
AcDbEntity
  8
0
100
AcDbLine
 10
-47.49999999999999
 20
0.5999999999999119
 30
0.0
 11
-47.49999999999999
 21
45.30641096082078
 31
0.0
  0
ARC
  5
113D2
330
113B9
100
AcDbEntity
  8
0
100
AcDbCircle
 10
44.40000000000003
 20
0.5999999999999388
 30
0.0
 40
3.1
100
AcDbArc
 50
270.0000000000009
 51
0.0
  0
ARC
  5
113D3
330
113B9
100
AcDbEntity
  8
0
100
AcDbCircle
 10
44.40000000000003
 20
0.5999999999999388
 30
0.0
 40
0.6000000000000001
100
AcDbArc
 50
270.0000000000068
 51
0.0
  0
CIRCLE
  5
113D4
330
113B9
100
AcDbEntity
  8
0
100
AcDbCircle
 10
76.00000000000003
 20
87.49999999999992
 30
0.0
 40
2.5
  0
CIRCLE
  5
113D5
330
113B9
100
AcDbEntity
  8
0
100
AcDbCircle
 10
76.00000000000001
 20
107.4999999999999
 30
0.0
 40
2.5
  0
CIRCLE
  5
113D6
330
113B9
100
AcDbEntity
  8
0
100
AcDbCircle
 10
76.0
 20
127.4999999999999
 30
0.0
 40
2.5
  0
CIRCLE
  5
113D7
330
113B9
100
AcDbEntity
  8
0
100
AcDbCircle
 10
76.0
 20
147.4999999999999
 30
0.0
 40
2.5
  0
CIRCLE
  5
113D8
330
113B9
100
AcDbEntity
  8
0
100
AcDbCircle
 10
75.99999999999998
 20
167.5
 30
0.0
 40
2.5
  0
CIRCLE
  5
113D9
330
113B9
100
AcDbEntity
  8
0
100
AcDbCircle
 10
75.99999999999997
 20
187.5
 30
0.0
 40
2.5
  0
CIRCLE
  5
113DA
330
113B9
100
AcDbEntity
  8
0
100
AcDbCircle
 10
75.99999999999996
 20
207.5
 30
0.0
 40
2.5
  0
CIRCLE
  5
113DB
330
113B9
100
AcDbEntity
  8
0
100
AcDbCircle
 10
75.99999999999996
 20
227.5
 30
0.0
 40
2.5
  0
CIRCLE
  5
113DC
330
113B9
100
AcDbEntity
  8
0
100
AcDbCircle
 10
75.99999999999993
 20
247.5
 30
0.0
 40
2.5
  0
CIRCLE
  5
113DD
330
113B9
100
AcDbEntity
  8
0
100
AcDbCircle
 10
75.99999999999993
 20
267.5
 30
0.0
 40
2.5
  0
CIRCLE
  5
113DE
330
113B9
100
AcDbEntity
  8
0
100
AcDbCircle
 10
75.99999999999991
 20
287.5
 30
0.0
 40
2.5
  0
CIRCLE
  5
113DF
330
113B9
100
AcDbEntity
  8
0
100
AcDbCircle
 10
75.99999999999991
 20
307.5
 30
0.0
 40
2.5
  0
CIRCLE
  5
113E0
330
113B9
100
AcDbEntity
  8
0
100
AcDbCircle
 10
75.99999999999988
 20
327.5
 30
0.0
 40
2.5
  0
CIRCLE
  5
113E1
330
113B9
100
AcDbEntity
  8
0
100
AcDbCircle
 10
75.99999999999988
 20
347.5
 30
0.0
 40
2.5
  0
CIRCLE
  5
113E2
330
113B9
100
AcDbEntity
  8
0
100
AcDbCircle
 10
75.99999999999987
 20
367.5
 30
0.0
 40
2.5
  0
CIRCLE
  5
113E3
330
113B9
100
AcDbEntity
  8
0
100
AcDbCircle
 10
75.99999999999987
 20
387.5
 30
0.0
 40
2.5
  0
CIRCLE
  5
113E4
330
113B9
100
AcDbEntity
  8
0
100
AcDbCircle
 10
75.99999999999984
 20
407.5
 30
0.0
 40
2.5
  0
CIRCLE
  5
113E5
330
113B9
100
AcDbEntity
  8
0
100
AcDbCircle
 10
62.99999999999998
 20
77.49999999999992
 30
0.0
 40
7.000000000000001
  0
CIRCLE
  5
113E6
330
113B9
100
AcDbEntity
  8
0
100
AcDbCircle
 10
62.99999999999994
 20
197.5
 30
0.0
 40
7.000000000000001
  0
CIRCLE
  5
113E7
330
113B9
100
AcDbEntity
  8
0
100
AcDbCircle
 10
62.9999999999999
 20
297.5
 30
0.0
 40
7.000000000000001
  0
CIRCLE
  5
113E8
330
113B9
100
AcDbEntity
  8
0
100
AcDbCircle
 10
62.99999999999984
 20
397.5
 30
0.0
 40
7.000000000000001
  0
CIRCLE
  5
113E9
330
113B9
100
AcDbEntity
  8
0
100
AcDbCircle
 10
75.99999999999983
 20
427.5
 30
0.0
 40
2.5
  0
CIRCLE
  5
113EA
330
113B9
100
AcDbEntity
  8
0
100
AcDbCircle
 10
57.99999999999982
 20
417.4999999999999
 30
0.0
 40
2.5
  0
LINE
  5
113EB
330
113B9
100
AcDbEntity
  8
0
100
AcDbLine
 10
48.09999999999984
 20
435.0
 30
0.0
 11
83.49999999999983
 21
435.0
 31
0.0
  0
LINE
  5
113EC
330
113B9
100
AcDbEntity
  8
0
100
AcDbLine
 10
83.49999999999983
 20
435.0
 30
0.0
 11
83.50000000000006
 21
66.4693894778609
 31
0.0
  0
LINE
  5
113ED
330
113B9
100
AcDbEntity
  8
0
100
AcDbLine
 10
83.50000000000006
 20
66.46938947786089
 30
0.0
 11
67.00898635919743
 21
55.75999999999993
 31
0.0
  0
LINE
  5
113EE
330
113B9
100
AcDbEntity
  8
0
100
AcDbLine
 10
67.00898635919743
 20
55.75999999999993
 30
0.0
 11
48.09999999999996
 21
51.18543475871643
 31
0.0
  0
LINE
  5
113EF
330
113B9
100
AcDbEntity
  8
0
100
AcDbLine
 10
45.00000000000001
 20
63.99999999999992
 30
0.0
 11
44.99999999999992
 21
435.0
 31
0.0
  0
LINE
  5
113F0
330
113B9
100
AcDbEntity
  8
0
100
AcDbLine
 10
47.50000000000001
 20
63.99999999999992
 30
0.0
 11
45.00000000000001
 21
63.99999999999992
 31
0.0
  0
LINE
  5
113F1
330
113B9
100
AcDbEntity
  8
0
100
AcDbLine
 10
47.50000000000001
 20
63.99999999999992
 30
0.0
 11
47.49999999999992
 21
435.0
 31
0.0
  0
LINE
  5
113F2
330
113B9
100
AcDbEntity
  8
0
100
AcDbLine
 10
47.49999999999992
 20
435.0
 30
0.0
 11
44.99999999999992
 21
435.0
 31
0.0
  0
LINE
  5
113F3
330
113B9
100
AcDbEntity
  8
0
100
AcDbLine
 10
45.00000000000003
 20
50.16999999999992
 30
0.0
 11
45.00000000000001
 21
63.99999999999992
 31
0.0
  0
LINE
  5
113F4
330
113B9
100
AcDbEntity
  8
0
100
AcDbLine
 10
47.50000000000003
 20
50.16999999999992
 30
0.0
 11
45.00000000000003
 21
50.16999999999992
 31
0.0
  0
LINE
  5
113F5
330
113B9
100
AcDbEntity
  8
0
100
AcDbLine
 10
47.50000000000003
 20
50.16999999999992
 30
0.0
 11
47.50000000000001
 21
63.99999999999992
 31
0.0
  0
LINE
  5
113F6
330
113B9
100
AcDbEntity
  8
0
100
AcDbLine
 10
45.00000000000003
 20
45.30641096082078
 30
0.0
 11
45.00000000000003
 21
50.16999999999992
 31
0.0
  0
LINE
  5
113F7
330
113B9
100
AcDbEntity
  8
0
100
AcDbLine
 10
47.50000000000003
 20
45.30641096082078
 30
0.0
 11
45.00000000000003
 21
45.30641096082078
 31
0.0
  0
LINE
  5
113F8
330
113B9
100
AcDbEntity
  8
0
100
AcDbLine
 10
47.50000000000003
 20
45.30641096082078
 30
0.0
 11
47.50000000000003
 21
50.16999999999992
 31
0.0
  0
CIRCLE
  5
113F9
330
113B9
100
AcDbEntity
  8
0
100
AcDbCircle
 10
57.99999999999998
 20
97.49999999999992
 30
0.0
 40
2.5
  0
CIRCLE
  5
113FA
330
113B9
100
AcDbEntity
  8
0
100
AcDbCircle
 10
57.99999999999997
 20
117.4999999999999
 30
0.0
 40
2.5
  0
CIRCLE
  5
113FB
330
113B9
100
AcDbEntity
  8
0
100
AcDbCircle
 10
57.99999999999997
 20
137.4999999999999
 30
0.0
 40
2.5
  0
CIRCLE
  5
113FC
330
113B9
100
AcDbEntity
  8
0
100
AcDbCircle
 10
57.99999999999996
 20
157.4999999999999
 30
0.0
 40
2.5
  0
CIRCLE
  5
113FD
330
113B9
100
AcDbEntity
  8
0
100
AcDbCircle
 10
-58.00000000000004
 20
157.4999999999999
 30
0.0
 40
2.5
  0
CIRCLE
  5
113FE
330
113B9
100
AcDbEntity
  8
0
100
AcDbCircle
 10
-58.00000000000004
 20
137.4999999999999
 30
0.0
 40
2.5
  0
CIRCLE
  5
113FF
330
113B9
100
AcDbEntity
  8
0
100
AcDbCircle
 10
-58.00000000000004
 20
117.4999999999999
 30
0.0
 40
2.5
  0
CIRCLE
  5
11400
330
113B9
100
AcDbEntity
  8
0
100
AcDbCircle
 10
-58.00000000000005
 20
97.49999999999992
 30
0.0
 40
2.5
  0
CIRCLE
  5
11401
330
113B9
100
AcDbEntity
  8
0
100
AcDbCircle
 10
57.99999999999993
 20
217.5
 30
0.0
 40
2.5
  0
CIRCLE
  5
11402
330
113B9
100
AcDbEntity
  8
0
100
AcDbCircle
 10
57.99999999999991
 20
237.5
 30
0.0
 40
2.5
  0
CIRCLE
  5
11403
330
113B9
100
AcDbEntity
  8
0
100
AcDbCircle
 10
57.9999999999999
 20
257.5
 30
0.0
 40
2.5
  0
CIRCLE
  5
11404
330
113B9
100
AcDbEntity
  8
0
100
AcDbCircle
 10
-58.00000000000004
 20
257.5
 30
0.0
 40
2.5
  0
CIRCLE
  5
11405
330
113B9
100
AcDbEntity
  8
0
100
AcDbCircle
 10
-58.00000000000004
 20
237.5
 30
0.0
 40
2.5
  0
CIRCLE
  5
11406
330
113B9
100
AcDbEntity
  8
0
100
AcDbCircle
 10
-58.00000000000004
 20
217.5
 30
0.0
 40
2.5
  0
CIRCLE
  5
11407
330
113B9
100
AcDbEntity
  8
0
100
AcDbCircle
 10
57.9999999999999
 20
317.5
 30
0.0
 40
2.5
  0
CIRCLE
  5
11408
330
113B9
100
AcDbEntity
  8
0
100
AcDbCircle
 10
57.99999999999987
 20
337.5
 30
0.0
 40
2.5
  0
CIRCLE
  5
11409
330
113B9
100
AcDbEntity
  8
0
100
AcDbCircle
 10
57.99999999999986
 20
357.5
 30
0.0
 40
2.5
  0
CIRCLE
  5
1140A
330
113B9
100
AcDbEntity
  8
0
100
AcDbCircle
 10
-58.00000000000004
 20
357.5
 30
0.0
 40
2.5
  0
CIRCLE
  5
1140B
330
113B9
100
AcDbEntity
  8
0
100
AcDbCircle
 10
-58.00000000000004
 20
337.5
 30
0.0
 40
2.5
  0
CIRCLE
  5
1140C
330
113B9
100
AcDbEntity
  8
0
100
AcDbCircle
 10
-58.00000000000004
 20
317.5
 30
0.0
 40
2.5
  0
CIRCLE
  5
1140D
330
113B9
100
AcDbEntity
  8
0
100
AcDbCircle
 10
57.99999999999994
 20
177.4999999999999
 30
0.0
 40
2.5
  0
CIRCLE
  5
1140E
330
113B9
100
AcDbEntity
  8
0
100
AcDbCircle
 10
-58.00000000000004
 20
177.4999999999999
 30
0.0
 40
2.5
  0
CIRCLE
  5
1140F
330
113B9
100
AcDbEntity
  8
0
100
AcDbCircle
 10
57.9999999999999
 20
277.5
 30
0.0
 40
2.5
  0
CIRCLE
  5
11410
330
113B9
100
AcDbEntity
  8
0
100
AcDbCircle
 10
-58.00000000000004
 20
277.5
 30
0.0
 40
2.5
  0
CIRCLE
  5
11411
330
113B9
100
AcDbEntity
  8
0
100
AcDbCircle
 10
57.99999999999986
 20
377.5
 30
0.0
 40
2.5
  0
CIRCLE
  5
11412
330
113B9
100
AcDbEntity
  8
0
100
AcDbCircle
 10
-58.00000000000004
 20
377.5
 30
0.0
 40
2.5
  0
SPLINE
  5
11413
330
113B9
100
AcDbEntity
  8
0
100
AcDbSpline
210
0.0
220
0.0
230
1.0
 70
     8
 71
     3
 72
    14
 73
    10
 74
     0
 42
0.000000001
 43
0.0000000001
 40
0.0
 40
0.0
 40
0.0
 40
0.0
 40
0.025682106935171
 40
0.025682106935171
 40
0.0513523519076737
 40
0.0513523519076737
 40
0.0751435263771696
 40
0.0751435263771696
 40
0.0989346991639892
 40
0.0989346991639892
 40
0.0989346991639892
 40
0.0989346991639892
 10
47.5
 20
50.8951242055614
 30
0.0
 10
47.5
 20
50.92032459017624
 30
0.0
 10
47.51673375850161
 20
50.94526636569742
 30
0.0
 10
47.58159120294926
 20
50.99565668935895
 30
0.0
 10
47.62902095349694
 20
51.02058651765198
 30
0.0
 10
47.74370043831411
 20
51.06912133343169
 30
0.0
 10
47.80821341691125
 20
51.09225981261322
 30
0.0
 10
47.94910182813874
 20
51.13895073718215
 30
0.0
 10
48.0242099955911
 20
51.16208983981462
 30
0.0
 10
48.10000000000001
 20
51.1854347587164
 30
0.0
  0
LINE
  5
11414
330
113B9
100
AcDbEntity
  8
0
100
AcDbLine
 10
48.09999999999988
 20
435.0000000000005
 30
0.0
 11
47.49999999999989
 21
435.0000000000004
 31
0.0
  0
LINE
  5
11415
330
113B9
100
AcDbEntity
  8
0
100
AcDbLine
 10
-47.49999999999994
 20
435.0000000000005
 30
0.0
 11
-48.09999999999941
 21
435.0000000000006
 31
0.0
  0
SPLINE
  5
11416
330
113B9
100
AcDbEntity
  8
0
100
AcDbSpline
210
0.0
220
0.0
230
1.0
 70
     8
 71
     3
 72
    14
 73
    10
 74
     0
 42
0.000000001
 43
0.0000000001
 40
0.0
 40
0.0
 40
0.0
 40
0.0
 40
0.0256821069351712
 40
0.0256821069351712
 40
0.0513523519076607
 40
0.0513523519076607
 40
0.0751435263771423
 40
0.0751435263771423
 40
0.0989346991639524
 40
0.0989346991639524
 40
0.0989346991639524
 40
0.0989346991639524
 10
-48.10000000000004
 20
51.18543475871646
 30
0.0
 10
-48.01818616851504
 20
51.16023437410156
 30
0.0
 10
-47.93723032674374
 20
51.13529259858034
 30
0.0
 10
-47.787046948483
 20
51.08490227491888
 30
0.0
 10
-47.71938729518275
 20
51.05997244662578
 30
0.0
 10
-47.6113337295266
 20
51.01143763084607
 30
0.0
 10
-47.57027866572822
 20
50.98829915166455
 30
0.0
 10
-47.51436031301688
 20
50.94160822709568
 30
0.0
 10
-47.50000000000001
 20
50.91846912446321
 30
0.0
 10
-47.5
 20
50.8951242055614
 30
0.0
  0
CIRCLE
  5
11417
330
113B9
100
AcDbEntity
  8
0
100
AcDbCircle
 10
-58.00000000000004
 20
417.4999999999999
 30
0.0
 40
2.5
  0
CIRCLE
  5
11418
330
113B9
100
AcDbEntity
  8
0
100
AcDbCircle
 10
-76.00000000000004
 20
427.5
 30
0.0
 40
2.5
  0
CIRCLE
  5
11419
330
113B9
100
AcDbEntity
  8
0
100
AcDbCircle
 10
-63.00000000000004
 20
397.5
 30
0.0
 40
7.000000000000001
  0
CIRCLE
  5
1141A
330
113B9
100
AcDbEntity
  8
0
100
AcDbCircle
 10
-63.00000000000004
 20
297.5
 30
0.0
 40
7.000000000000001
  0
CIRCLE
  5
1141B
330
113B9
100
AcDbEntity
  8
0
100
AcDbCircle
 10
-63.00000000000004
 20
197.5
 30
0.0
 40
7.000000000000001
  0
CIRCLE
  5
1141C
330
113B9
100
AcDbEntity
  8
0
100
AcDbCircle
 10
-63.00000000000004
 20
77.49999999999992
 30
0.0
 40
7.000000000000001
  0
CIRCLE
  5
1141D
330
113B9
100
AcDbEntity
  8
0
100
AcDbCircle
 10
-76.00000000000005
 20
407.5
 30
0.0
 40
2.5
  0
CIRCLE
  5
1141E
330
113B9
100
AcDbEntity
  8
0
100
AcDbCircle
 10
-76.00000000000005
 20
387.5
 30
0.0
 40
2.5
  0
CIRCLE
  5
1141F
330
113B9
100
AcDbEntity
  8
0
100
AcDbCircle
 10
-76.00000000000005
 20
367.5
 30
0.0
 40
2.5
  0
CIRCLE
  5
11420
330
113B9
100
AcDbEntity
  8
0
100
AcDbCircle
 10
-76.00000000000005
 20
347.5
 30
0.0
 40
2.5
  0
CIRCLE
  5
11421
330
113B9
100
AcDbEntity
  8
0
100
AcDbCircle
 10
-76.00000000000005
 20
327.5
 30
0.0
 40
2.5
  0
CIRCLE
  5
11422
330
113B9
100
AcDbEntity
  8
0
100
AcDbCircle
 10
-76.00000000000005
 20
307.5
 30
0.0
 40
2.5
  0
CIRCLE
  5
11423
330
113B9
100
AcDbEntity
  8
0
100
AcDbCircle
 10
-76.00000000000007
 20
287.5
 30
0.0
 40
2.5
  0
CIRCLE
  5
11424
330
113B9
100
AcDbEntity
  8
0
100
AcDbCircle
 10
-76.00000000000007
 20
267.5
 30
0.0
 40
2.5
  0
CIRCLE
  5
11425
330
113B9
100
AcDbEntity
  8
0
100
AcDbCircle
 10
-76.00000000000007
 20
247.5
 30
0.0
 40
2.5
  0
CIRCLE
  5
11426
330
113B9
100
AcDbEntity
  8
0
100
AcDbCircle
 10
-76.00000000000005
 20
227.5
 30
0.0
 40
2.5
  0
CIRCLE
  5
11427
330
113B9
100
AcDbEntity
  8
0
100
AcDbCircle
 10
-76.00000000000007
 20
207.5
 30
0.0
 40
2.5
  0
CIRCLE
  5
11428
330
113B9
100
AcDbEntity
  8
0
100
AcDbCircle
 10
-76.00000000000007
 20
187.5
 30
0.0
 40
2.5
  0
CIRCLE
  5
11429
330
113B9
100
AcDbEntity
  8
0
100
AcDbCircle
 10
-76.00000000000007
 20
167.5
 30
0.0
 40
2.5
  0
CIRCLE
  5
1142A
330
113B9
100
AcDbEntity
  8
0
100
AcDbCircle
 10
-76.00000000000007
 20
147.4999999999999
 30
0.0
 40
2.5
  0
CIRCLE
  5
1142B
330
113B9
100
AcDbEntity
  8
0
100
AcDbCircle
 10
-76.00000000000008
 20
127.4999999999999
 30
0.0
 40
2.5
  0
CIRCLE
  5
1142C
330
113B9
100
AcDbEntity
  8
0
100
AcDbCircle
 10
-76.00000000000008
 20
107.4999999999999
 30
0.0
 40
2.5
  0
CIRCLE
  5
1142D
330
113B9
100
AcDbEntity
  8
0
100
AcDbCircle
 10
-76.0000000000001
 20
87.49999999999992
 30
0.0
 40
2.5
  0
ENDBLK
  5
113BB
330
113B9
100
AcDbEntity
  8
0
100
AcDbBlockEnd
  0
BLOCK
  5
1142F
330
1142E
100
AcDbEntity
  8
0
100
AcDbBlockBegin
  2
GLE960_90_2.5-Left
 70
     0
 10
0.0
 20
0.0
 30
0.0
  3
GLE960_90_2.5-Left
  1

  0
LINE
  5
11431
330
1142E
100
AcDbEntity
  8
0
100
AcDbLine
 10
6.800000000000033
 20
-2.500000000000072
 30
0.0
 11
6.799999999999611
 21
0.5999999999998396
 31
0.0
  0
LINE
  5
11432
330
1142E
100
AcDbEntity
  8
0
100
AcDbLine
 10
96.79999999999999
 20
0.5999999999996836
 30
0.0
 11
96.80000000000006
 21
-2.500000000000066
 31
0.0
  0
LINE
  5
11433
330
1142E
100
AcDbEntity
  8
0
100
AcDbLine
 10
96.80000000000006
 20
-2.500000000000066
 30
0.0
 11
6.800000000000032
 21
-2.500000000000072
 31
0.0
  0
LINE
  5
11434
330
1142E
100
AcDbEntity
  8
0
100
AcDbLine
 10
0.0
 20
51.18543475871644
 30
0.0
 11
2.336069266135244
 21
51.18543475871644
 31
0.0
  0
LINE
  5
11435
330
1142E
100
AcDbEntity
  8
0
100
AcDbLine
 10
2.336069266135244
 20
51.18543475871644
 30
0.0
 11
2.500000000000048
 21
51.18543475871644
 31
0.0
  0
SPLINE
  5
11436
330
1142E
100
AcDbEntity
  8
0
100
AcDbSpline
210
0.0
220
0.0
230
1.0
 70
     8
 71
     3
 72
    16
 73
    12
 74
     0
 42
0.000000001
 43
0.0000000001
 40
0.0
 40
0.0
 40
0.0
 40
0.0
 40
0.1215949558307291
 40
0.1215949558307291
 40
0.2431265849515118
 40
0.2431265849515118
 40
0.3646581810008124
 40
0.3646581810008124
 40
0.4268607865374383
 40
0.4268607865374383
 40
0.4890641182006876
 40
0.4890641182006876
 40
0.4890641182006876
 40
0.4890641182006876
 10
3.100000000000161
 20
50.89512420556151
 30
0.0
 10
2.69540187097205
 20
50.91924545997486
 30
0.0
 10
2.294689857216126
 20
50.94313913361713
 30
0.0
 10
1.54654782409589
 20
50.99136963201016
 30
0.0
 10
1.20626846286218
 20
51.01525079450336
 30
0.0
 10
0.6315396619382252
 20
51.0634687904312
 30
0.0
 10
0.4026046152278662
 20
51.0873499434576
 30
0.0
 10
0.1643802001158191
 20
51.123798422054
 30
0.0
 10
0.1030223435982737
 20
51.13610707022203
 30
0.0
 10
0.0207287675224424
 20
51.16078634767853
 30
0.0
 10
0.0000000000001402
 20
51.17309524695368
 30
0.0
 10
0.0000000000001558
 20
51.1854347587165
 30
0.0
  0
LINE
  5
11437
330
1142E
100
AcDbEntity
  8
0
100
AcDbLine
 10
3.100000000000085
 20
435.0000000000005
 30
0.0
 11
2.500000000000191
 21
435.0000000000006
 31
0.0
  0
SPLINE
  5
11438
330
1142E
100
AcDbEntity
  8
0
100
AcDbSpline
210
0.0
220
0.0
230
1.0
 70
     8
 71
     3
 72
    14
 73
    10
 74
     0
 42
0.000000001
 43
0.0000000001
 40
0.0
 40
0.0
 40
0.0
 40
0.0
 40
0.0256821069351712
 40
0.0256821069351712
 40
0.0513523519076607
 40
0.0513523519076607
 40
0.0751435263771423
 40
0.0751435263771423
 40
0.0989346991639524
 40
0.0989346991639524
 40
0.0989346991639524
 40
0.0989346991639524
 10
2.500000000000155
 20
51.18543475871646
 30
0.0
 10
2.500000000000153
 20
51.16023437410156
 30
0.0
 10
2.51673375850176
 20
51.13529259858034
 30
0.0
 10
2.581591202949423
 20
51.08490227491888
 30
0.0
 10
2.6290209534971
 20
51.05997244662578
 30
0.0
 10
2.743700438314251
 20
51.01143763084607
 30
0.0
 10
2.808213416911382
 20
50.98829915166455
 30
0.0
 10
2.949101828138851
 20
50.94160822709568
 30
0.0
 10
3.024209995591209
 20
50.91846912446321
 30
0.0
 10
3.100000000000092
 20
50.8951242055614
 30
0.0
  0
LINE
  5
11439
330
1142E
100
AcDbEntity
  8
0
100
AcDbLine
 10
2.50000000000006
 20
55.75999999999993
 30
0.0
 11
2.500000000000048
 21
51.18543475871644
 31
0.0
  0
LINE
  5
1143A
330
1142E
100
AcDbEntity
  8
0
100
AcDbLine
 10
2.50000000000006
 20
55.75999999999993
 30
0.0
 11
0.0
 21
55.75999999999993
 31
0.0
  0
LINE
  5
1143B
330
1142E
100
AcDbEntity
  8
0
100
AcDbLine
 10
0.0
 20
55.75999999999993
 30
0.0
 11
0.0
 21
51.18543475871644
 31
0.0
  0
LINE
  5
1143C
330
1142E
100
AcDbEntity
  8
0
100
AcDbLine
 10
2.500000000000105
 20
435.0
 30
0.0
 11
0.0
 21
435.0
 31
0.0
  0
LINE
  5
1143D
330
1142E
100
AcDbEntity
  8
0
100
AcDbLine
 10
2.500000000000105
 20
435.0
 30
0.0
 11
2.500000000000071
 21
66.4693894778609
 31
0.0
  0
LINE
  5
1143E
330
1142E
100
AcDbEntity
  8
0
100
AcDbLine
 10
2.500000000000071
 20
66.46938947786089
 30
0.0
 11
2.50000000000006
 21
55.75999999999993
 31
0.0
  0
LINE
  5
1143F
330
1142E
100
AcDbEntity
  8
0
100
AcDbLine
 10
0.0
 20
66.46938947786089
 30
0.0
 11
0.0
 21
55.75999999999993
 31
0.0
  0
LINE
  5
11440
330
1142E
100
AcDbEntity
  8
0
100
AcDbLine
 10
0.0
 20
435.0
 30
0.0
 11
0.0
 21
66.4693894778609
 31
0.0
  0
LINE
  5
11441
330
1142E
100
AcDbEntity
  8
0
100
AcDbLine
 10
2.500000000000071
 20
66.46938947786089
 30
0.0
 11
0.0
 21
66.46938947786089
 31
0.0
  0
LINE
  5
11442
330
1142E
100
AcDbEntity
  8
0
100
AcDbLine
 10
55.40000000000005
 20
63.99999999999991
 30
0.0
 11
55.4
 21
435.0
 31
0.0
  0
LINE
  5
11443
330
1142E
100
AcDbEntity
  8
0
100
AcDbLine
 10
76.69633244955573
 20
50.16999999999992
 30
0.0
 11
55.40000000000005
 21
63.99999999999991
 31
0.0
  0
LINE
  5
11444
330
1142E
100
AcDbEntity
  8
0
100
AcDbLine
 10
96.80000000000006
 20
45.30641096082078
 30
0.0
 11
76.69633244955573
 21
50.16999999999992
 31
0.0
  0
LINE
  5
11445
330
1142E
100
AcDbEntity
  8
0
100
AcDbLine
 10
55.4
 20
435.0
 30
0.0
 11
3.100000000000084
 21
435.0
 31
0.0
  0
LINE
  5
11446
330
1142E
100
AcDbEntity
  8
0
100
AcDbLine
 10
3.100000000000051
 20
50.89512420556137
 30
0.0
 11
6.800000000000045
 21
49.99999999999992
 31
0.0
  0
LINE
  5
11447
330
1142E
100
AcDbEntity
  8
0
100
AcDbLine
 10
96.80000000000006
 20
0.5999999999999127
 30
0.0
 11
96.80000000000006
 21
45.30641096082078
 31
0.0
  0
LINE
  5
11448
330
1142E
100
AcDbEntity
  8
0
100
AcDbLine
 10
6.800000000000045
 20
49.99999999999992
 30
0.0
 11
6.800000000000028
 21
0.5999999999998984
 31
0.0
  0
CIRCLE
  5
11449
330
1142E
100
AcDbEntity
  8
0
100
AcDbCircle
 10
47.40000000000001
 20
427.5
 30
0.0
 40
2.5
  0
CIRCLE
  5
1144A
330
1142E
100
AcDbEntity
  8
0
100
AcDbCircle
 10
47.40000000000001
 20
407.5
 30
0.0
 40
2.5
  0
CIRCLE
  5
1144B
330
1142E
100
AcDbEntity
  8
0
100
AcDbCircle
 10
47.40000000000001
 20
387.5
 30
0.0
 40
2.5
  0
CIRCLE
  5
1144C
330
1142E
100
AcDbEntity
  8
0
100
AcDbCircle
 10
47.40000000000001
 20
367.5
 30
0.0
 40
2.5
  0
CIRCLE
  5
1144D
330
1142E
100
AcDbEntity
  8
0
100
AcDbCircle
 10
47.40000000000001
 20
347.5
 30
0.0
 40
2.5
  0
CIRCLE
  5
1144E
330
1142E
100
AcDbEntity
  8
0
100
AcDbCircle
 10
47.40000000000001
 20
327.5
 30
0.0
 40
2.5
  0
CIRCLE
  5
1144F
330
1142E
100
AcDbEntity
  8
0
100
AcDbCircle
 10
47.40000000000001
 20
307.5
 30
0.0
 40
2.5
  0
CIRCLE
  5
11450
330
1142E
100
AcDbEntity
  8
0
100
AcDbCircle
 10
47.40000000000001
 20
287.5
 30
0.0
 40
2.5
  0
CIRCLE
  5
11451
330
1142E
100
AcDbEntity
  8
0
100
AcDbCircle
 10
47.40000000000002
 20
267.5
 30
0.0
 40
2.5
  0
CIRCLE
  5
11452
330
1142E
100
AcDbEntity
  8
0
100
AcDbCircle
 10
47.40000000000002
 20
247.5
 30
0.0
 40
2.5
  0
CIRCLE
  5
11453
330
1142E
100
AcDbEntity
  8
0
100
AcDbCircle
 10
47.40000000000002
 20
227.5
 30
0.0
 40
2.5
  0
CIRCLE
  5
11454
330
1142E
100
AcDbEntity
  8
0
100
AcDbCircle
 10
47.40000000000002
 20
207.5
 30
0.0
 40
2.5
  0
CIRCLE
  5
11455
330
1142E
100
AcDbEntity
  8
0
100
AcDbCircle
 10
47.40000000000002
 20
187.5
 30
0.0
 40
2.5
  0
CIRCLE
  5
11456
330
1142E
100
AcDbEntity
  8
0
100
AcDbCircle
 10
47.40000000000003
 20
167.5
 30
0.0
 40
2.5
  0
CIRCLE
  5
11457
330
1142E
100
AcDbEntity
  8
0
100
AcDbCircle
 10
47.40000000000003
 20
147.4999999999999
 30
0.0
 40
2.5
  0
CIRCLE
  5
11458
330
1142E
100
AcDbEntity
  8
0
100
AcDbCircle
 10
47.40000000000003
 20
127.4999999999999
 30
0.0
 40
2.5
  0
CIRCLE
  5
11459
330
1142E
100
AcDbEntity
  8
0
100
AcDbCircle
 10
47.40000000000003
 20
107.4999999999999
 30
0.0
 40
2.5
  0
CIRCLE
  5
1145A
330
1142E
100
AcDbEntity
  8
0
100
AcDbCircle
 10
47.40000000000003
 20
87.49999999999992
 30
0.0
 40
2.5
  0
CIRCLE
  5
1145B
330
1142E
100
AcDbEntity
  8
0
100
AcDbCircle
 10
47.40000000000004
 20
67.49999999999992
 30
0.0
 40
2.5
  0
ENDBLK
  5
11430
330
1142E
100
AcDbEntity
  8
0
100
AcDbBlockEnd
  0
BLOCK
  5
1145D
330
1145C
100
AcDbEntity
  8
0
100
AcDbBlockBegin
  2
GLE960_90_2.5-Right
 70
     0
 10
0.0
 20
0.0
 30
0.0
  3
GLE960_90_2.5-Right
  1

  0
LINE
  5
1145F
330
1145C
100
AcDbEntity
  8
0
100
AcDbLine
 10
-96.80000000000006
 20
-2.500000000000062
 30
0.0
 11
-96.80000000000005
 21
0.5999999999999201
 31
0.0
  0
LINE
  5
11460
330
1145C
100
AcDbEntity
  8
0
100
AcDbLine
 10
-6.800000000000062
 20
0.5999999999999134
 30
0.0
 11
-6.800000000000046
 21
-2.500000000000069
 31
0.0
  0
LINE
  5
11461
330
1145C
100
AcDbEntity
  8
0
100
AcDbLine
 10
-6.800000000000007
 20
-2.500000000000069
 30
0.0
 11
-96.80000000000005
 21
-2.500000000000063
 31
0.0
  0
LINE
  5
11462
330
1145C
100
AcDbEntity
  8
0
100
AcDbLine
 10
0.0
 20
435.0
 30
0.0
 11
0.0
 21
66.4693894778609
 31
0.0
  0
LINE
  5
11463
330
1145C
100
AcDbEntity
  8
0
100
AcDbLine
 10
0.0
 20
66.46938947786089
 30
0.0
 11
0.0
 21
55.75999999999993
 31
0.0
  0
LINE
  5
11464
330
1145C
100
AcDbEntity
  8
0
100
AcDbLine
 10
0.0
 20
55.75999999999993
 30
0.0
 11
0.0
 21
51.18543475871643
 31
0.0
  0
LINE
  5
11465
330
1145C
100
AcDbEntity
  8
0
100
AcDbLine
 10
-2.499999999999887
 20
435.0
 30
0.0
 11
0.0
 21
435.0
 31
0.0
  0
LINE
  5
11466
330
1145C
100
AcDbEntity
  8
0
100
AcDbLine
 10
-2.499999999999887
 20
435.0
 30
0.0
 11
-2.499999999999976
 21
66.4693894778609
 31
0.0
  0
LINE
  5
11467
330
1145C
100
AcDbEntity
  8
0
100
AcDbLine
 10
-2.499999999999976
 20
66.46938947786089
 30
0.0
 11
0.0
 21
66.46938947786089
 31
0.0
  0
LINE
  5
11468
330
1145C
100
AcDbEntity
  8
0
100
AcDbLine
 10
-2.499999999999976
 20
66.46938947786089
 30
0.0
 11
-2.49999999999998
 21
55.75999999999993
 31
0.0
  0
LINE
  5
11469
330
1145C
100
AcDbEntity
  8
0
100
AcDbLine
 10
-2.49999999999998
 20
55.75999999999993
 30
0.0
 11
0.0
 21
55.75999999999993
 31
0.0
  0
LINE
  5
1146A
330
1145C
100
AcDbEntity
  8
0
100
AcDbLine
 10
-2.49999999999998
 20
55.75999999999993
 30
0.0
 11
-2.499999999999984
 21
51.18543475871643
 31
0.0
  0
LINE
  5
1146B
330
1145C
100
AcDbEntity
  8
0
100
AcDbLine
 10
-55.4
 20
63.99999999999992
 30
0.0
 11
-55.39999999999996
 21
435.0
 31
0.0
  0
LINE
  5
1146C
330
1145C
100
AcDbEntity
  8
0
100
AcDbLine
 10
-76.69633244955568
 20
50.16999999999992
 30
0.0
 11
-55.4
 21
63.99999999999992
 31
0.0
  0
LINE
  5
1146D
330
1145C
100
AcDbEntity
  8
0
100
AcDbLine
 10
-96.80000000000005
 20
45.30641096082078
 30
0.0
 11
-76.69633244955568
 21
50.16999999999992
 31
0.0
  0
LINE
  5
1146E
330
1145C
100
AcDbEntity
  8
0
100
AcDbLine
 10
-55.39999999999996
 20
435.0
 30
0.0
 11
-3.099999999999942
 21
435.0
 31
0.0
  0
LINE
  5
1146F
330
1145C
100
AcDbEntity
  8
0
100
AcDbLine
 10
-3.100000000000027
 20
50.89512420556136
 30
0.0
 11
-6.800000000000011
 21
49.99999999999992
 31
0.0
  0
LINE
  5
11470
330
1145C
100
AcDbEntity
  8
0
100
AcDbLine
 10
-2.499999999999984
 20
51.18543475871643
 30
0.0
 11
-2.336069266139316
 21
51.18543475871639
 31
0.0
  0
LINE
  5
11471
330
1145C
100
AcDbEntity
  8
0
100
AcDbLine
 10
-2.336069266139316
 20
51.18543475871639
 30
0.0
 11
0.0
 21
51.18543475871643
 31
0.0
  0
SPLINE
  5
11472
330
1145C
100
AcDbEntity
  8
0
100
AcDbSpline
210
0.0
220
0.0
230
1.0
 70
     8
 71
     3
 72
    16
 73
    12
 74
     0
 42
0.000000001
 43
0.0000000001
 40
0.0
 40
0.0
 40
0.0
 40
0.0
 40
0.1215949558307277
 40
0.1215949558307277
 40
0.2431265849515041
 40
0.2431265849515041
 40
0.3646581810008186
 40
0.3646581810008186
 40
0.4268607865374409
 40
0.4268607865374409
 40
0.4890641182006857
 40
0.4890641182006857
 40
0.4890641182006857
 40
0.4890641182006857
 10
-0.0000000000000277
 20
51.18543475871658
 30
0.0
 10
-0.0000000000000278
 20
51.16131350430311
 30
0.0
 10
-0.0792095062062716
 20
51.13741983066028
 30
0.0
 10
-0.387009858965032
 20
51.08918933226807
 30
0.0
 10
-0.6125695925585269
 20
51.06530816977497
 30
0.0
 10
-1.181606756415461
 20
51.0170901738466
 30
0.0
 10
-1.519624343038224
 20
50.9932090208207
 30
0.0
 10
-2.082662868172482
 20
50.95676054222391
 30
0.0
 10
-2.280876459284701
 20
50.94445189405615
 30
0.0
 10
-2.686565452674072
 20
50.91977261659931
 30
0.0
 10
-2.893023062291032
 20
50.9074637173238
 30
0.0
 10
-3.100000000000027
 20
50.89512420556151
 30
0.0
  0
SPLINE
  5
11473
330
1145C
100
AcDbEntity
  8
0
100
AcDbSpline
210
0.0
220
0.0
230
1.0
 70
     8
 71
     3
 72
    14
 73
    10
 74
     0
 42
0.000000001
 43
0.0000000001
 40
0.0
 40
0.0
 40
0.0
 40
0.0
 40
0.025682106935171
 40
0.025682106935171
 40
0.0513523519076737
 40
0.0513523519076737
 40
0.0751435263771696
 40
0.0751435263771696
 40
0.0989346991639892
 40
0.0989346991639892
 40
0.0989346991639892
 40
0.0989346991639892
 10
-3.100000000000029
 20
50.8951242055614
 30
0.0
 10
-3.018186168515011
 20
50.92032459017624
 30
0.0
 10
-2.937230326743743
 20
50.94526636569742
 30
0.0
 10
-2.787046948483038
 20
50.99565668935895
 30
0.0
 10
-2.719387295182784
 20
51.02058651765198
 30
0.0
 10
-2.611333729526624
 20
51.06912133343169
 30
0.0
 10
-2.570278665728232
 20
51.09225981261322
 30
0.0
 10
-2.514360313016894
 20
51.13895073718215
 30
0.0
 10
-2.50000000000003
 20
51.16208983981462
 30
0.0
 10
-2.50000000000003
 20
51.1854347587164
 30
0.0
  0
LINE
  5
11474
330
1145C
100
AcDbEntity
  8
0
100
AcDbLine
 10
-2.499999999999937
 20
435.0000000000005
 30
0.0
 11
-3.099999999999931
 21
435.0000000000004
 31
0.0
  0
CIRCLE
  5
11475
330
1145C
100
AcDbEntity
  8
0
100
AcDbCircle
 10
-47.39999999999998
 20
417.4999999999999
 30
0.0
 40
2.5
  0
CIRCLE
  5
11476
330
1145C
100
AcDbEntity
  8
0
100
AcDbCircle
 10
-47.39999999999998
 20
397.5
 30
0.0
 40
2.5
  0
CIRCLE
  5
11477
330
1145C
100
AcDbEntity
  8
0
100
AcDbCircle
 10
-47.39999999999998
 20
377.5
 30
0.0
 40
2.5
  0
CIRCLE
  5
11478
330
1145C
100
AcDbEntity
  8
0
100
AcDbCircle
 10
-47.39999999999998
 20
357.5
 30
0.0
 40
2.5
  0
CIRCLE
  5
11479
330
1145C
100
AcDbEntity
  8
0
100
AcDbCircle
 10
-47.39999999999998
 20
337.5
 30
0.0
 40
2.5
  0
CIRCLE
  5
1147A
330
1145C
100
AcDbEntity
  8
0
100
AcDbCircle
 10
-47.39999999999998
 20
317.5
 30
0.0
 40
2.5
  0
CIRCLE
  5
1147B
330
1145C
100
AcDbEntity
  8
0
100
AcDbCircle
 10
-47.39999999999999
 20
297.5
 30
0.0
 40
2.5
  0
CIRCLE
  5
1147C
330
1145C
100
AcDbEntity
  8
0
100
AcDbCircle
 10
-47.39999999999999
 20
277.5
 30
0.0
 40
2.5
  0
CIRCLE
  5
1147D
330
1145C
100
AcDbEntity
  8
0
100
AcDbCircle
 10
-47.40000000000001
 20
257.5
 30
0.0
 40
2.5
  0
CIRCLE
  5
1147E
330
1145C
100
AcDbEntity
  8
0
100
AcDbCircle
 10
-47.40000000000001
 20
237.5
 30
0.0
 40
2.5
  0
CIRCLE
  5
1147F
330
1145C
100
AcDbEntity
  8
0
100
AcDbCircle
 10
-47.40000000000001
 20
217.5
 30
0.0
 40
2.5
  0
CIRCLE
  5
11480
330
1145C
100
AcDbEntity
  8
0
100
AcDbCircle
 10
-47.40000000000001
 20
197.5
 30
0.0
 40
2.5
  0
CIRCLE
  5
11481
330
1145C
100
AcDbEntity
  8
0
100
AcDbCircle
 10
-47.40000000000001
 20
177.4999999999999
 30
0.0
 40
2.5
  0
CIRCLE
  5
11482
330
1145C
100
AcDbEntity
  8
0
100
AcDbCircle
 10
-47.40000000000001
 20
157.4999999999999
 30
0.0
 40
2.5
  0
CIRCLE
  5
11483
330
1145C
100
AcDbEntity
  8
0
100
AcDbCircle
 10
-47.40000000000001
 20
137.4999999999999
 30
0.0
 40
2.5
  0
CIRCLE
  5
11484
330
1145C
100
AcDbEntity
  8
0
100
AcDbCircle
 10
-47.40000000000001
 20
117.4999999999999
 30
0.0
 40
2.5
  0
CIRCLE
  5
11485
330
1145C
100
AcDbEntity
  8
0
100
AcDbCircle
 10
-47.40000000000001
 20
97.49999999999992
 30
0.0
 40
2.5
  0
CIRCLE
  5
11486
330
1145C
100
AcDbEntity
  8
0
100
AcDbCircle
 10
-47.40000000000001
 20
77.49999999999994
 30
0.0
 40
2.5
  0
CIRCLE
  5
11487
330
1145C
100
AcDbEntity
  8
0
100
AcDbCircle
 10
-47.40000000000002
 20
57.49999999999992
 30
0.0
 40
2.5
  0
LINE
  5
11488
330
1145C
100
AcDbEntity
  8
0
100
AcDbLine
 10
-6.800000000000007
 20
0.5999999999999098
 30
0.0
 11
-6.800000000000011
 21
49.99999999999992
 31
0.0
  0
LINE
  5
11489
330
1145C
100
AcDbEntity
  8
0
100
AcDbLine
 10
-96.80000000000005
 20
45.30641096082078
 30
0.0
 11
-96.80000000000005
 21
0.5999999999999162
 31
0.0
  0
ENDBLK
  5
1145E
330
1145C
100
AcDbEntity
  8
0
100
AcDbBlockEnd
  0
BLOCK
  5
1148B
330
1148A
100
AcDbEntity
  8
0
100
AcDbBlockBegin
  2
GLE960_90_2.5-Top
 70
     0
 10
0.0
 20
0.0
 30
0.0
  3
GLE960_90_2.5-Top
  1

  0
LINE
  5
1148D
330
1148A
100
AcDbEntity
  8
0
100
AcDbLine
 10
-44.40000000000008
 20
-6.800000000000033
 30
0.0
 11
-45.0
 21
-6.799999999999951
 31
0.0
  0
LINE
  5
1148E
330
1148A
100
AcDbEntity
  8
0
100
AcDbLine
 10
-44.99999999999999
 20
-96.80000000000006
 30
0.0
 11
-44.39999999999998
 21
-96.80000000000006
 31
0.0
  0
LINE
  5
1148F
330
1148A
100
AcDbEntity
  8
0
100
AcDbLine
 10
44.40000000000001
 20
-6.800000000000007
 30
0.0
 11
-44.40000000000003
 21
-6.800000000000028
 31
0.0
  0
LINE
  5
11490
330
1148A
100
AcDbEntity
  8
0
100
AcDbLine
 10
44.40000000000003
 20
-96.80000000000005
 30
0.0
 11
-44.39999999999998
 21
-96.80000000000006
 31
0.0
  0
LINE
  5
11491
330
1148A
100
AcDbEntity
  8
0
100
AcDbLine
 10
-48.09999999999995
 20
0.0
 30
0.0
 11
-83.50000000000003
 21
0.0
 31
0.0
  0
LINE
  5
11492
330
1148A
100
AcDbEntity
  8
0
100
AcDbLine
 10
-83.50000000000003
 20
-2.500000000000104
 30
0.0
 11
-83.50000000000003
 21
0.0
 31
0.0
  0
LINE
  5
11493
330
1148A
100
AcDbEntity
  8
0
100
AcDbLine
 10
-48.09999999999995
 20
-2.500000000000084
 30
0.0
 11
-83.50000000000003
 21
-2.500000000000104
 31
0.0
  0
LINE
  5
11494
330
1148A
100
AcDbEntity
  8
0
100
AcDbLine
 10
-47.49999999999992
 20
-55.4
 30
0.0
 11
-44.99999999999992
 21
-55.4
 31
0.0
  0
LINE
  5
11495
330
1148A
100
AcDbEntity
  8
0
100
AcDbLine
 10
-44.99999999999999
 20
-76.69633244955573
 30
0.0
 11
-44.99999999999999
 21
-55.40000000000005
 31
0.0
  0
LINE
  5
11496
330
1148A
100
AcDbEntity
  8
0
100
AcDbLine
 10
-47.49999999999999
 20
-76.69633244955573
 30
0.0
 11
-47.49999999999999
 21
-55.40000000000005
 31
0.0
  0
LINE
  5
11497
330
1148A
100
AcDbEntity
  8
0
100
AcDbLine
 10
-47.49999999999999
 20
-76.69633244955573
 30
0.0
 11
-44.99999999999999
 21
-76.69633244955573
 31
0.0
  0
LINE
  5
11498
330
1148A
100
AcDbEntity
  8
0
100
AcDbLine
 10
-44.99999999999999
 20
-96.80000000000006
 30
0.0
 11
-44.99999999999999
 21
-76.69633244955573
 31
0.0
  0
LINE
  5
11499
330
1148A
100
AcDbEntity
  8
0
100
AcDbLine
 10
-47.49999999999999
 20
-96.80000000000006
 30
0.0
 11
-47.49999999999999
 21
-76.69633244955573
 31
0.0
  0
LINE
  5
1149A
330
1148A
100
AcDbEntity
  8
0
100
AcDbLine
 10
-47.49999999999999
 20
-96.80000000000006
 30
0.0
 11
-44.99999999999999
 21
-96.80000000000006
 31
0.0
  0
LINE
  5
1149B
330
1148A
100
AcDbEntity
  8
0
100
AcDbLine
 10
-47.49999999999992
 20
-55.4
 30
0.0
 11
-47.49999999999994
 21
-3.100000000000084
 31
0.0
  0
LINE
  5
1149C
330
1148A
100
AcDbEntity
  8
0
100
AcDbLine
 10
-44.99999999999992
 20
-55.4
 30
0.0
 11
-44.99999999999994
 21
-3.100000000000084
 31
0.0
  0
CIRCLE
  5
1149D
330
1148A
100
AcDbEntity
  8
0
100
AcDbCircle
 10
0.0000000000000126
 20
-36.80000000000003
 30
0.0
 40
2.5
  0
CIRCLE
  5
1149E
330
1148A
100
AcDbEntity
  8
0
100
AcDbCircle
 10
0.0000000000000264
 20
-76.80000000000004
 30
0.0
 40
2.5
  0
LINE
  5
1149F
330
1148A
100
AcDbEntity
  8
0
100
AcDbLine
 10
44.40000000000011
 20
-96.80000000000005
 30
0.0
 11
45.00000000000003
 21
-96.80000000000005
 31
0.0
  0
LINE
  5
114A0
330
1148A
100
AcDbEntity
  8
0
100
AcDbLine
 10
45.0
 20
-6.80000000000005
 30
0.0
 11
44.40000000000001
 21
-6.800000000000049
 31
0.0
  0
LINE
  5
114A1
330
1148A
100
AcDbEntity
  8
0
100
AcDbLine
 10
48.09999999999984
 20
0.0
 30
0.0
 11
83.49999999999983
 21
0.0
 31
0.0
  0
LINE
  5
114A2
330
1148A
100
AcDbEntity
  8
0
100
AcDbLine
 10
48.09999999999984
 20
-2.499999999999891
 30
0.0
 11
83.49999999999983
 21
-2.499999999999886
 31
0.0
  0
LINE
  5
114A3
330
1148A
100
AcDbEntity
  8
0
100
AcDbLine
 10
83.49999999999983
 20
-2.499999999999886
 30
0.0
 11
83.49999999999983
 21
0.0
 31
0.0
  0
LINE
  5
114A4
330
1148A
100
AcDbEntity
  8
0
100
AcDbLine
 10
47.49999999999992
 20
-55.39999999999996
 30
0.0
 11
44.99999999999992
 21
-55.39999999999996
 31
0.0
  0
LINE
  5
114A5
330
1148A
100
AcDbEntity
  8
0
100
AcDbLine
 10
45.00000000000003
 20
-76.69633244955568
 30
0.0
 11
45.00000000000001
 21
-55.4
 31
0.0
  0
LINE
  5
114A6
330
1148A
100
AcDbEntity
  8
0
100
AcDbLine
 10
47.50000000000003
 20
-76.69633244955568
 30
0.0
 11
45.00000000000003
 21
-76.69633244955568
 31
0.0
  0
LINE
  5
114A7
330
1148A
100
AcDbEntity
  8
0
100
AcDbLine
 10
47.50000000000003
 20
-76.69633244955568
 30
0.0
 11
47.50000000000001
 21
-55.4
 31
0.0
  0
LINE
  5
114A8
330
1148A
100
AcDbEntity
  8
0
100
AcDbLine
 10
45.00000000000003
 20
-96.80000000000005
 30
0.0
 11
45.00000000000003
 21
-76.69633244955568
 31
0.0
  0
LINE
  5
114A9
330
1148A
100
AcDbEntity
  8
0
100
AcDbLine
 10
47.50000000000003
 20
-96.80000000000005
 30
0.0
 11
45.00000000000003
 21
-96.80000000000005
 31
0.0
  0
LINE
  5
114AA
330
1148A
100
AcDbEntity
  8
0
100
AcDbLine
 10
47.50000000000003
 20
-96.80000000000005
 30
0.0
 11
47.50000000000003
 21
-76.69633244955568
 31
0.0
  0
LINE
  5
114AB
330
1148A
100
AcDbEntity
  8
0
100
AcDbLine
 10
44.99999999999992
 20
-55.39999999999996
 30
0.0
 11
44.99999999999989
 21
-3.099999999999942
 31
0.0
  0
LINE
  5
114AC
330
1148A
100
AcDbEntity
  8
0
100
AcDbLine
 10
47.49999999999992
 20
-55.39999999999996
 30
0.0
 11
47.49999999999989
 21
-3.099999999999942
 31
0.0
  0
ARC
  5
114AD
330
1148A
100
AcDbEntity
  8
0
100
AcDbCircle
 10
48.09999999999988
 20
-3.099999999999937
 30
0.0
 40
3.1
100
AcDbArc
 50
89.99999999999952
 51
180.0
  0
ARC
  5
114AE
330
1148A
100
AcDbEntity
  8
0
100
AcDbCircle
 10
48.09999999999988
 20
-3.099999999999937
 30
0.0
 40
0.6000000000000001
100
AcDbArc
 50
90.0
 51
180.0
  0
ARC
  5
114AF
330
1148A
100
AcDbEntity
  8
0
100
AcDbCircle
 10
-48.09999999999995
 20
-3.100000000000191
 30
0.0
 40
3.1
100
AcDbArc
 50
0.0
 51
89.9999999999936
  0
ARC
  5
114B0
330
1148A
100
AcDbEntity
  8
0
100
AcDbCircle
 10
-48.09999999999995
 20
-3.100000000000191
 30
0.0
 40
0.6000000000000001
100
AcDbArc
 50
0.0
 51
89.99999999994996
  0
ENDBLK
  5
1148C
330
1148A
100
AcDbEntity
  8
0
100
AcDbBlockEnd
  0
BLOCK
  5
114B2
330
114B1
100
AcDbEntity
  8
0
100
AcDbBlockBegin
  2
GLE960_90_2.5-Bottom
 70
     0
 10
0.0
 20
0.0
 30
0.0
  3
GLE960_90_2.5-Bottom
  1

  0
LINE
  5
114B4
330
114B1
100
AcDbEntity
  8
0
100
AcDbLine
 10
-44.40000000000006
 20
6.800000000000033
 30
0.0
 11
-47.50000000000001
 21
6.799999999999611
 31
0.0
  0
LINE
  5
114B5
330
114B1
100
AcDbEntity
  8
0
100
AcDbLine
 10
-47.49999999999999
 20
96.79999999999999
 30
0.0
 11
-44.39999999999998
 21
96.80000000000006
 31
0.0
  0
LINE
  5
114B6
330
114B1
100
AcDbEntity
  8
0
100
AcDbLine
 10
-47.50000000000001
 20
6.800000000000028
 30
0.0
 11
-47.49999999999999
 21
96.80000000000006
 31
0.0
  0
LINE
  5
114B7
330
114B1
100
AcDbEntity
  8
0
100
AcDbLine
 10
-44.40000000000002
 20
6.800000000000028
 30
0.0
 11
44.40000000000002
 21
6.800000000000007
 31
0.0
  0
LINE
  5
114B8
330
114B1
100
AcDbEntity
  8
0
100
AcDbLine
 10
44.40000000000003
 20
96.80000000000005
 30
0.0
 11
-44.39999999999998
 21
96.80000000000006
 31
0.0
  0
LINE
  5
114B9
330
114B1
100
AcDbEntity
  8
0
100
AcDbLine
 10
-67.00898635919748
 20
2.50000000000006
 30
0.0
 11
-48.10000000000001
 21
2.500000000000048
 31
0.0
  0
LINE
  5
114BA
330
114B1
100
AcDbEntity
  8
0
100
AcDbLine
 10
-67.00898635919748
 20
2.50000000000006
 30
0.0
 11
-67.00898635919748
 21
0.0
 31
0.0
  0
LINE
  5
114BB
330
114B1
100
AcDbEntity
  8
0
100
AcDbLine
 10
-67.00898635919748
 20
0.0
 30
0.0
 11
-48.10000000000001
 21
0.0
 31
0.0
  0
LINE
  5
114BC
330
114B1
100
AcDbEntity
  8
0
100
AcDbLine
 10
-83.50000000000008
 20
2.50000000000007
 30
0.0
 11
-67.00898635919748
 21
2.50000000000006
 31
0.0
  0
LINE
  5
114BD
330
114B1
100
AcDbEntity
  8
0
100
AcDbLine
 10
-83.50000000000008
 20
0.0
 30
0.0
 11
-67.00898635919748
 21
0.0
 31
0.0
  0
LINE
  5
114BE
330
114B1
100
AcDbEntity
  8
0
100
AcDbLine
 10
-83.50000000000008
 20
2.50000000000007
 30
0.0
 11
-83.50000000000008
 21
0.0
 31
0.0
  0
LINE
  5
114BF
330
114B1
100
AcDbEntity
  8
0
100
AcDbLine
 10
-45.0
 20
3.10000000000005
 30
0.0
 11
-45.0
 21
6.800000000000043
 31
0.0
  0
LINE
  5
114C0
330
114B1
100
AcDbEntity
  8
0
100
AcDbLine
 10
-47.5
 20
3.100000000000051
 30
0.0
 11
-47.5
 21
6.800000000000045
 31
0.0
  0
LINE
  5
114C1
330
114B1
100
AcDbEntity
  8
0
100
AcDbLine
 10
44.40000000000009
 20
96.80000000000006
 30
0.0
 11
47.50000000000003
 21
96.80000000000005
 31
0.0
  0
LINE
  5
114C2
330
114B1
100
AcDbEntity
  8
0
100
AcDbLine
 10
47.50000000000001
 20
6.800000000000062
 30
0.0
 11
44.40000000000001
 21
6.800000000000046
 31
0.0
  0
LINE
  5
114C3
330
114B1
100
AcDbEntity
  8
0
100
AcDbLine
 10
47.50000000000004
 20
96.80000000000005
 30
0.0
 11
47.50000000000001
 21
6.800000000000014
 31
0.0
  0
CIRCLE
  5
114C4
330
114B1
100
AcDbEntity
  8
0
100
AcDbCircle
 10
0.0000000000000127
 20
36.80000000000003
 30
0.0
 40
2.5
  0
CIRCLE
  5
114C5
330
114B1
100
AcDbEntity
  8
0
100
AcDbCircle
 10
0.0000000000000265
 20
76.80000000000004
 30
0.0
 40
2.5
  0
LINE
  5
114C6
330
114B1
100
AcDbEntity
  8
0
100
AcDbLine
 10
83.50000000000006
 20
0.0
 30
0.0
 11
67.00898635919743
 21
0.0
 31
0.0
  0
LINE
  5
114C7
330
114B1
100
AcDbEntity
  8
0
100
AcDbLine
 10
67.00898635919743
 20
0.0
 30
0.0
 11
48.09999999999996
 21
0.0
 31
0.0
  0
LINE
  5
114C8
330
114B1
100
AcDbEntity
  8
0
100
AcDbLine
 10
83.50000000000006
 20
2.499999999999976
 30
0.0
 11
83.50000000000006
 21
0.0
 31
0.0
  0
LINE
  5
114C9
330
114B1
100
AcDbEntity
  8
0
100
AcDbLine
 10
83.50000000000006
 20
2.499999999999976
 30
0.0
 11
67.00898635919743
 21
2.49999999999998
 31
0.0
  0
LINE
  5
114CA
330
114B1
100
AcDbEntity
  8
0
100
AcDbLine
 10
67.00898635919743
 20
2.49999999999998
 30
0.0
 11
67.00898635919743
 21
0.0
 31
0.0
  0
LINE
  5
114CB
330
114B1
100
AcDbEntity
  8
0
100
AcDbLine
 10
67.00898635919743
 20
2.49999999999998
 30
0.0
 11
48.09999999999996
 21
2.499999999999984
 31
0.0
  0
LINE
  5
114CC
330
114B1
100
AcDbEntity
  8
0
100
AcDbLine
 10
47.5
 20
3.100000000000027
 30
0.0
 11
47.5
 21
6.800000000000011
 31
0.0
  0
LINE
  5
114CD
330
114B1
100
AcDbEntity
  8
0
100
AcDbLine
 10
45.0
 20
3.100000000000028
 30
0.0
 11
45.0
 21
6.800000000000013
 31
0.0
  0
LINE
  5
114CE
330
114B1
100
AcDbEntity
  8
0
100
AcDbLine
 10
48.09999999999996
 20
2.499999999999984
 30
0.0
 11
48.09999999999996
 21
2.336069266139316
 31
0.0
  0
LINE
  5
114CF
330
114B1
100
AcDbEntity
  8
0
100
AcDbLine
 10
48.09999999999996
 20
2.336069266139316
 30
0.0
 11
48.09999999999996
 21
0.0
 31
0.0
  0
LINE
  5
114D0
330
114B1
100
AcDbEntity
  8
0
100
AcDbLine
 10
45.0
 20
3.100000000000028
 30
0.0
 11
47.33606926613912
 21
3.100000000000027
 31
0.0
  0
LINE
  5
114D1
330
114B1
100
AcDbEntity
  8
0
100
AcDbLine
 10
47.33606926613912
 20
3.100000000000027
 30
0.0
 11
47.5
 21
3.100000000000027
 31
0.0
  0
SPLINE
  5
114D2
330
114B1
100
AcDbEntity
  8
0
100
AcDbSpline
210
0.0
220
0.0
230
1.0
 70
     8
 71
     3
 72
    16
 73
    12
 74
     0
 42
0.000000001
 43
0.0000000001
 40
0.0
 40
0.0
 40
0.0
 40
0.0
 40
0.1215949558307277
 40
0.1215949558307277
 40
0.2431265849515041
 40
0.2431265849515041
 40
0.3646581810008186
 40
0.3646581810008186
 40
0.4268607865374409
 40
0.4268607865374409
 40
0.4890641182006857
 40
0.4890641182006857
 40
0.4890641182006857
 40
0.4890641182006857
 10
48.10000000000002
 20
0.0000000000000277
 30
0.0
 10
47.69540187097191
 20
0.0000000000000278
 30
0.0
 10
47.294689857216
 20
0.0792095062062716
 30
0.0
 10
46.54654782409576
 20
0.387009858965032
 30
0.0
 10
46.20626846286207
 20
0.6125695925585266
 30
0.0
 10
45.6315396619381
 20
1.181606756415461
 30
0.0
 10
45.40260461522773
 20
1.519624343038224
 30
0.0
 10
45.16438020011569
 20
2.082662868172482
 30
0.0
 10
45.10302234359815
 20
2.280876459284701
 30
0.0
 10
45.02072876752231
 20
2.686565452674072
 30
0.0
 10
45.0
 20
2.893023062291032
 30
0.0
 10
45.0
 20
3.100000000000027
 30
0.0
  0
SPLINE
  5
114D3
330
114B1
100
AcDbEntity
  8
0
100
AcDbSpline
210
0.0
220
0.0
230
1.0
 70
     8
 71
     3
 72
    14
 73
    10
 74
     0
 42
0.000000001
 43
0.0000000001
 40
0.0
 40
0.0
 40
0.0
 40
0.0
 40
0.025682106935171
 40
0.025682106935171
 40
0.0513523519076737
 40
0.0513523519076737
 40
0.0751435263771696
 40
0.0751435263771696
 40
0.0989346991639892
 40
0.0989346991639892
 40
0.0989346991639892
 40
0.0989346991639892
 10
47.5
 20
3.100000000000029
 30
0.0
 10
47.5
 20
3.018186168515011
 30
0.0
 10
47.51673375850161
 20
2.937230326743743
 30
0.0
 10
47.58159120294926
 20
2.787046948483038
 30
0.0
 10
47.62902095349694
 20
2.719387295182784
 30
0.0
 10
47.74370043831411
 20
2.611333729526624
 30
0.0
 10
47.80821341691125
 20
2.570278665728232
 30
0.0
 10
47.94910182813874
 20
2.514360313016894
 30
0.0
 10
48.0242099955911
 20
2.50000000000003
 30
0.0
 10
48.10000000000001
 20
2.50000000000003
 30
0.0
  0
LINE
  5
114D4
330
114B1
100
AcDbEntity
  8
0
100
AcDbLine
 10
-48.10000000000001
 20
0.0
 30
0.0
 11
-48.10000000000001
 21
2.336069266135243
 31
0.0
  0
LINE
  5
114D5
330
114B1
100
AcDbEntity
  8
0
100
AcDbLine
 10
-48.10000000000001
 20
2.336069266135243
 30
0.0
 11
-48.10000000000001
 21
2.500000000000048
 31
0.0
  0
LINE
  5
114D6
330
114B1
100
AcDbEntity
  8
0
100
AcDbLine
 10
-47.5
 20
3.100000000000051
 30
0.0
 11
-47.33606926613754
 21
3.100000000000045
 31
0.0
  0
LINE
  5
114D7
330
114B1
100
AcDbEntity
  8
0
100
AcDbLine
 10
-47.33606926613754
 20
3.100000000000045
 30
0.0
 11
-45.0
 21
3.10000000000005
 31
0.0
  0
SPLINE
  5
114D8
330
114B1
100
AcDbEntity
  8
0
100
AcDbSpline
210
0.0
220
0.0
230
1.0
 70
     8
 71
     3
 72
    16
 73
    12
 74
     0
 42
0.000000001
 43
0.0000000001
 40
0.0
 40
0.0
 40
0.0
 40
0.0
 40
0.1215949558307291
 40
0.1215949558307291
 40
0.2431265849515118
 40
0.2431265849515118
 40
0.3646581810008124
 40
0.3646581810008124
 40
0.4268607865374383
 40
0.4268607865374383
 40
0.4890641182006876
 40
0.4890641182006876
 40
0.4890641182006876
 40
0.4890641182006876
 10
-45.0
 20
3.100000000000161
 30
0.0
 10
-45.0
 20
2.69540187097205
 30
0.0
 10
-45.07920950620625
 20
2.294689857216126
 30
0.0
 10
-45.38700985896501
 20
1.54654782409589
 30
0.0
 10
-45.61256959255852
 20
1.20626846286218
 30
0.0
 10
-46.18160675641549
 20
0.6315396619382252
 30
0.0
 10
-46.51962434303825
 20
0.4026046152278661
 30
0.0
 10
-47.08266286817251
 20
0.164380200115819
 30
0.0
 10
-47.28087645928476
 20
0.1030223435982736
 30
0.0
 10
-47.68656545267423
 20
0.0207287675224423
 30
0.0
 10
-47.89302306229122
 20
0.0000000000001401
 30
0.0
 10
-48.10000000000023
 20
0.0000000000001556
 30
0.0
  0
SPLINE
  5
114D9
330
114B1
100
AcDbEntity
  8
0
100
AcDbSpline
210
0.0
220
0.0
230
1.0
 70
     8
 71
     3
 72
    14
 73
    10
 74
     0
 42
0.000000001
 43
0.0000000001
 40
0.0
 40
0.0
 40
0.0
 40
0.0
 40
0.0256821069351712
 40
0.0256821069351712
 40
0.0513523519076607
 40
0.0513523519076607
 40
0.0751435263771423
 40
0.0751435263771423
 40
0.0989346991639524
 40
0.0989346991639524
 40
0.0989346991639524
 40
0.0989346991639524
 10
-48.10000000000004
 20
2.500000000000155
 30
0.0
 10
-48.01818616851504
 20
2.500000000000153
 30
0.0
 10
-47.93723032674374
 20
2.51673375850176
 30
0.0
 10
-47.787046948483
 20
2.581591202949423
 30
0.0
 10
-47.71938729518275
 20
2.6290209534971
 30
0.0
 10
-47.6113337295266
 20
2.743700438314251
 30
0.0
 10
-47.57027866572822
 20
2.808213416911382
 30
0.0
 10
-47.51436031301688
 20
2.949101828138851
 30
0.0
 10
-47.50000000000001
 20
3.024209995591209
 30
0.0
 10
-47.5
 20
3.100000000000092
 30
0.0
  0
ENDBLK
  5
114B3
330
114B1
100
AcDbEntity
  8
0
100
AcDbBlockEnd
  0
BLOCK
  5
114DB
330
114DA
100
AcDbEntity
  8
0
100
AcDbBlockBegin
  2
GLE960_90_2.5-ISO
 70
     0
 10
0.0
 20
0.0
 30
0.0
  3
GLE960_90_2.5-ISO
  1

  0
ELLIPSE
  5
114DD
330
114DA
100
AcDbEntity
  8
0
100
AcDbEllipse
 10
-1.979916722307963
 20
-140.968144936471
 30
0.0
 11
-0.2999999999999077
 21
0.5196152422707167
 31
0.0
210
0.0
220
0.0
230
0.9999999999999998
 40
0.5773502691895471
 41
0.7853981633977832
 42
2.356194490192535
  0
ELLIPSE
  5
114DE
330
114DA
100
AcDbEntity
  8
0
100
AcDbEllipse
 10
-65.61952702909721
 20
-177.7104910782187
 30
0.0
 11
-1.549999999999786
 21
2.684678751731884
 31
0.0
210
0.0
220
0.0
230
0.9999999999999998
 40
0.5773502691896128
 41
0.7853981633977849
 42
2.356194490192597
  0
LINE
  5
114DF
330
114DA
100
AcDbEntity
  8
0
100
AcDbLine
 10
-65.61952702909721
 20
-178.2003890267753
 30
0.0
 11
-65.61952702909721
 21
-180.2416304790946
 31
0.0
  0
ELLIPSE
  5
114E0
330
114DA
100
AcDbEntity
  8
0
100
AcDbEllipse
 10
-65.61952702909721
 20
-177.7104910782187
 30
0.0
 11
0.3000000000000177
 21
-0.5196152422706532
 31
0.0
210
0.0
220
0.0
230
0.9999999999999998
 40
0.5773502691896089
 41
3.926990816987306
 42
5.497787143781897
  0
LINE
  5
114E1
330
114DA
100
AcDbEntity
  8
0
100
AcDbLine
 10
-67.81155805077552
 20
-176.4449213777807
 30
0.0
 11
-66.04379109780914
 21
-177.4655421039404
 31
0.0
  0
LINE
  5
114E2
330
114DA
100
AcDbEntity
  8
0
100
AcDbLine
 10
-1.979916722307963
 20
-141.4580428850276
 30
0.0
 11
-65.61952702909721
 21
-178.2003890267753
 31
0.0
  0
LINE
  5
114E3
330
114DA
100
AcDbEntity
  8
0
100
AcDbLine
 10
-66.04379109780914
 20
-177.4655421039404
 30
0.0
 11
-2.404180791019889
 21
-140.7231959621927
 31
0.0
  0
LINE
  5
114E4
330
114DA
100
AcDbEntity
  8
0
100
AcDbLine
 10
20.26800630166901
 20
-154.3028872318308
 30
0.0
 11
-1.979916722307963
 21
-141.4580428850276
 31
0.0
  0
LINE
  5
114E5
330
114DA
100
AcDbEntity
  8
0
100
AcDbLine
 10
-2.82844485973178
 20
-214.4528372199663
 30
0.0
 11
-65.61952702909721
 21
-178.2003890267753
 31
0.0
  0
LINE
  5
114E6
330
114DA
100
AcDbEntity
  8
0
100
AcDbLine
 10
-2.82844485973178
 20
-216.4940786722857
 30
0.0
 11
-65.61952702909721
 21
-180.2416304790946
 31
0.0
  0
LINE
  5
114E7
330
114DA
100
AcDbEntity
  8
0
100
AcDbLine
 10
-2.404180791019854
 20
-177.705256550628
 30
0.0
 11
-2.404180791019845
 21
-214.2078882456881
 31
0.0
  0
LINE
  5
114E8
330
114DA
100
AcDbEntity
  8
0
100
AcDbLine
 10
63.00319646873578
 20
-178.4861628301
 30
0.0
 11
63.00319646873576
 21
-138.1512317322703
 31
0.0
  0
LINE
  5
114E9
330
114DA
100
AcDbEntity
  8
0
100
AcDbLine
 10
-0.6364138380534845
 20
-178.7258772767876
 30
0.0
 11
-0.6364138380534801
 21
-215.2285089718477
 31
0.0
  0
LINE
  5
114EA
330
114DA
100
AcDbEntity
  8
0
100
AcDbLine
 10
0.2121142993703273
 20
218.0045768684038
 30
0.0
 11
-24.81946575463353
 21
232.4565663508246
 31
0.0
  0
LINE
  5
114EB
330
114DA
100
AcDbEntity
  8
0
100
AcDbLine
 10
-26.58723270759989
 20
231.4359456246649
 30
0.0
 11
-24.81946575463353
 21
232.4565663508246
 31
0.0
  0
LINE
  5
114EC
330
114DA
100
AcDbEntity
  8
0
100
AcDbLine
 10
-1.555652653596037
 20
216.9839561422442
 30
0.0
 11
-26.58723270759989
 21
231.4359456246649
 31
0.0
  0
LINE
  5
114ED
330
114DA
100
AcDbEntity
  8
0
100
AcDbLine
 10
-26.58723270759989
 20
231.4359456246649
 30
0.0
 11
-26.58723270759989
 21
202.0420687112667
 31
0.0
  0
LINE
  5
114EE
330
114DA
100
AcDbEntity
  8
0
100
AcDbLine
 10
-36.76957035668609
 20
-108.7981796479186
 30
0.0
 11
-36.76957035668602
 21
194.1220518762678
 31
0.0
  0
LINE
  5
114EF
330
114DA
100
AcDbEntity
  8
0
100
AcDbLine
 10
-38.5373373096524
 20
195.1426726024275
 30
0.0
 11
-36.76957035668602
 21
194.1220518762678
 31
0.0
  0
LINE
  5
114F0
330
114DA
100
AcDbEntity
  8
0
100
AcDbLine
 10
-38.53733730965247
 20
-107.7775589217589
 30
0.0
 11
-38.5373373096524
 21
195.1426726024275
 31
0.0
  0
LINE
  5
114F1
330
114DA
100
AcDbEntity
  8
0
100
AcDbLine
 10
-38.53733730965247
 20
-107.7775589217589
 30
0.0
 11
-36.76957035668609
 21
-108.7981796479186
 31
0.0
  0
LINE
  5
114F2
330
114DA
100
AcDbEntity
  8
0
100
AcDbLine
 10
-51.82835144617001
 20
-128.7845186778302
 30
0.0
 11
-36.76957035668609
 21
-108.7981796479186
 31
0.0
  0
LINE
  5
114F3
330
114DA
100
AcDbEntity
  8
0
100
AcDbLine
 10
-53.59611839913639
 20
-127.7638979516706
 30
0.0
 11
-38.53733730965247
 21
-107.7775589217589
 31
0.0
  0
LINE
  5
114F4
330
114DA
100
AcDbEntity
  8
0
100
AcDbLine
 10
-53.59611839913639
 20
-127.7638979516706
 30
0.0
 11
-51.82835144617001
 21
-128.7845186778302
 31
0.0
  0
LINE
  5
114F5
330
114DA
100
AcDbEntity
  8
0
100
AcDbLine
 10
-66.04379109780914
 20
-140.9629104088803
 30
0.0
 11
-51.82835144617001
 21
-128.7845186778302
 31
0.0
  0
LINE
  5
114F6
330
114DA
100
AcDbEntity
  8
0
100
AcDbLine
 10
-67.81155805077552
 20
-139.9422896827206
 30
0.0
 11
-53.59611839913639
 21
-127.7638979516706
 31
0.0
  0
LINE
  5
114F7
330
114DA
100
AcDbEntity
  8
0
100
AcDbLine
 10
-67.81155805077552
 20
-139.9422896827206
 30
0.0
 11
-66.04379109780914
 21
-140.9629104088803
 31
0.0
  0
LINE
  5
114F8
330
114DA
100
AcDbEntity
  8
0
100
AcDbLine
 10
-38.5373373096524
 20
195.1426726024275
 30
0.0
 11
-1.555652653596037
 21
216.4940581936876
 31
0.0
  0
LINE
  5
114F9
330
114DA
100
AcDbEntity
  8
0
100
AcDbLine
 10
-36.76957035668602
 20
194.1220518762678
 30
0.0
 11
0.2121142993703273
 21
215.4734374675279
 31
0.0
  0
LINE
  5
114FA
330
114DA
100
AcDbEntity
  8
0
100
AcDbLine
 10
0.2121142993703184
 20
-98.14688033630014
 30
0.0
 11
-2.404180791019898
 21
-100.388264864363
 31
0.0
  0
LINE
  5
114FB
330
114DA
100
AcDbEntity
  8
0
100
AcDbLine
 10
-2.404180791019889
 20
-140.7231959621927
 30
0.0
 11
-2.404180791019898
 21
-100.388264864363
 31
0.0
  0
LINE
  5
114FC
330
114DA
100
AcDbEntity
  8
0
100
AcDbLine
 10
-66.04379109780914
 20
-177.4655421039404
 30
0.0
 11
-66.04379109780914
 21
-140.9629104088803
 31
0.0
  0
LINE
  5
114FD
330
114DA
100
AcDbEntity
  8
0
100
AcDbLine
 10
-67.81155805077552
 20
-176.4449213777807
 30
0.0
 11
-67.81155805077552
 21
-139.9422896827206
 31
0.0
  0
LINE
  5
114FE
330
114DA
100
AcDbEntity
  8
0
100
AcDbLine
 10
-2.82844485973178
 20
-214.4528372199663
 30
0.0
 11
-2.404180791019872
 21
-214.207888245688
 31
0.0
  0
LINE
  5
114FF
330
114DA
100
AcDbEntity
  8
0
100
AcDbLine
 10
-2.82844485973178
 20
-216.4940786722857
 30
0.0
 11
-2.82844485973178
 21
-214.4528372199663
 31
0.0
  0
ELLIPSE
  5
11500
330
114DA
100
AcDbEntity
  8
0
100
AcDbEllipse
 10
-2.82844485973178
 20
-213.9629392714097
 30
0.0
 11
1.549999999999986
 21
-2.684678751731768
 31
0.0
210
0.0
220
0.0
230
0.9999999999999998
 40
0.5773502691896291
 41
5.497787143782151
 42
7.068583470577024
  0
LINE
  5
11501
330
114DA
100
AcDbEntity
  8
0
100
AcDbLine
 10
-2.404180791019845
 20
-214.2078882456881
 30
0.0
 11
-0.6364138380534801
 21
-215.2285089718477
 31
0.0
  0
ELLIPSE
  5
11502
330
114DA
100
AcDbEntity
  8
0
100
AcDbEllipse
 10
-2.82844485973178
 20
-213.9629392714097
 30
0.0
 11
0.3000000000000002
 21
-0.5196152422706632
 31
0.0
210
0.0
220
0.0
230
1.0
 40
0.5773502691896259
 41
5.497787143782256
 42
7.068583470577023
  0
ELLIPSE
  5
11503
330
114DA
100
AcDbEntity
  8
0
100
AcDbEllipse
 10
60.81116544705745
 20
-177.220593129662
 30
0.0
 11
1.549999999999994
 21
-2.684678751731764
 31
0.0
210
0.0
220
0.0
230
0.9999999999999998
 40
0.5773502691896251
 41
0.0
 42
0.7853981633974332
  0
LINE
  5
11504
330
114DA
100
AcDbEntity
  8
0
100
AcDbLine
 10
-0.6364138380534801
 20
-215.2285089718477
 30
0.0
 11
63.00319646873576
 21
-178.4861628301
 31
0.0
  0
LINE
  5
11505
330
114DA
100
AcDbEntity
  8
0
100
AcDbLine
 10
62.36116544705744
 20
-179.9052718813938
 30
0.0
 11
-1.278444859731786
 21
-216.6476180231415
 31
0.0
  0
ELLIPSE
  5
11506
330
114DA
100
AcDbEntity
  8
0
100
AcDbEllipse
 10
-20.08185032068355
 20
-188.1616473140935
 30
0.0
 11
2.5
 21
-0.0000000000001495
 31
0.0
210
0.0
220
0.0
230
1.0
 40
0.5773502691896259
 41
0.0
 42
6.283185307179586
  0
ELLIPSE
  5
11507
330
114DA
100
AcDbEntity
  8
0
100
AcDbEllipse
 10
-20.08185032068355
 20
-190.2028887664129
 30
0.0
 11
-2.5
 21
-0.0000000000001489
 31
0.0
210
0.0
220
0.0
230
1.0
 40
0.5773502691896259
 41
3.926990816986993
 42
5.497787143781899
  0
LINE
  5
11508
330
114DA
100
AcDbEntity
  8
0
100
AcDbLine
 10
68.23578664951617
 20
178.7310913257803
 30
0.0
 11
93.26736670351994
 21
164.2791018433596
 31
0.0
  0
LINE
  5
11509
330
114DA
100
AcDbEntity
  8
0
100
AcDbLine
 10
93.26736670351994
 20
164.2791018433596
 30
0.0
 11
93.26736670352005
 21
-136.6248816151745
 31
0.0
  0
ELLIPSE
  5
1150A
330
114DA
100
AcDbEntity
  8
0
100
AcDbEllipse
 10
75.23614378326299
 20
160.4007430839529
 30
0.0
 11
1.250000000000128
 21
-2.165063509461023
 31
0.0
210
0.0
220
0.0
230
1.0
 40
0.5773502691896259
 41
3.926990816987002
 42
5.4977871437819
  0
ELLIPSE
  5
1150B
330
114DA
100
AcDbEntity
  8
0
100
AcDbEllipse
 10
87.96406584462083
 20
161.2172396648806
 30
0.0
 11
1.250000000000128
 21
-2.165063509461023
 31
0.0
210
0.0
220
0.0
230
1.0
 40
0.5773502691896259
 41
3.926990816987002
 42
5.497787143781895
  0
ELLIPSE
  5
1150C
330
114DA
100
AcDbEntity
  8
0
100
AcDbEllipse
 10
78.77167768919571
 20
142.029570013079
 30
0.0
 11
-3.499999999999999
 21
6.062177826491072
 31
0.0
210
0.0
220
0.0
230
1.0
 40
0.5773502691896258
 41
0.2553025216024078
 42
2.886290131987383
  0
ELLIPSE
  5
1150D
330
114DA
100
AcDbEntity
  8
0
100
AcDbEllipse
 10
78.77167768919576
 20
60.37991192030641
 30
0.0
 11
-3.499999999999999
 21
6.062177826491072
 31
0.0
210
0.0
220
0.0
230
1.0
 40
0.5773502691896258
 41
0.2553025216024087
 42
2.886290131987382
  0
ELLIPSE
  5
1150E
330
114DA
100
AcDbEntity
  8
0
100
AcDbEllipse
 10
78.77167768919576
 20
-21.26974617246624
 30
0.0
 11
-3.499999999999999
 21
6.062177826491072
 31
0.0
210
0.0
220
0.0
230
1.0
 40
0.5773502691896258
 41
0.2553025216024087
 42
2.886290131987383
  0
ELLIPSE
  5
1150F
330
114DA
100
AcDbEntity
  8
0
100
AcDbEllipse
 10
78.77167768919578
 20
-119.2493358837934
 30
0.0
 11
-3.499999999999999
 21
6.062177826491072
 31
0.0
210
0.0
220
0.0
230
1.0
 40
0.5773502691896258
 41
0.2553025216024078
 42
2.886290131987383
  0
ELLIPSE
  5
11510
330
114DA
100
AcDbEntity
  8
0
100
AcDbEllipse
 10
87.96406584462085
 20
144.8873080463261
 30
0.0
 11
1.250000000000128
 21
-2.165063509461023
 31
0.0
210
0.0
220
0.0
230
1.0
 40
0.5773502691896259
 41
3.926990816987002
 42
5.497787143781895
  0
ELLIPSE
  5
11511
330
114DA
100
AcDbEntity
  8
0
100
AcDbEllipse
 10
87.96406584462085
 20
128.5573764277716
 30
0.0
 11
1.250000000000128
 21
-2.165063509461023
 31
0.0
210
0.0
220
0.0
230
1.0
 40
0.5773502691896259
 41
3.926990816987002
 42
5.497787143781895
  0
ELLIPSE
  5
11512
330
114DA
100
AcDbEntity
  8
0
100
AcDbEllipse
 10
87.96406584462085
 20
112.227444809217
 30
0.0
 11
1.250000000000128
 21
-2.165063509461023
 31
0.0
210
0.0
220
0.0
230
1.0
 40
0.5773502691896259
 41
3.926990816987002
 42
5.497787143781895
  0
ELLIPSE
  5
11513
330
114DA
100
AcDbEntity
  8
0
100
AcDbEllipse
 10
87.96406584462088
 20
95.8975131906625
 30
0.0
 11
1.250000000000128
 21
-2.165063509461023
 31
0.0
210
0.0
220
0.0
230
1.0
 40
0.5773502691896259
 41
3.926990816987002
 42
5.497787143781895
  0
ELLIPSE
  5
11514
330
114DA
100
AcDbEntity
  8
0
100
AcDbEllipse
 10
87.96406584462088
 20
79.56758157210797
 30
0.0
 11
1.250000000000128
 21
-2.165063509461023
 31
0.0
210
0.0
220
0.0
230
1.0
 40
0.5773502691896259
 41
3.926990816987002
 42
5.497787143781895
  0
ELLIPSE
  5
11515
330
114DA
100
AcDbEntity
  8
0
100
AcDbEllipse
 10
87.96406584462088
 20
63.23764995355343
 30
0.0
 11
1.250000000000128
 21
-2.165063509461023
 31
0.0
210
0.0
220
0.0
230
1.0
 40
0.5773502691896259
 41
3.926990816986993
 42
5.497787143781895
  0
ELLIPSE
  5
11516
330
114DA
100
AcDbEntity
  8
0
100
AcDbEllipse
 10
87.96406584462088
 20
46.90771833499891
 30
0.0
 11
1.250000000000128
 21
-2.165063509461023
 31
0.0
210
0.0
220
0.0
230
1.0
 40
0.5773502691896259
 41
3.926990816986993
 42
5.497787143781895
  0
ELLIPSE
  5
11517
330
114DA
100
AcDbEntity
  8
0
100
AcDbEllipse
 10
87.96406584462088
 20
30.57778671644439
 30
0.0
 11
1.250000000000128
 21
-2.165063509461023
 31
0.0
210
0.0
220
0.0
230
1.0
 40
0.5773502691896259
 41
3.926990816986998
 42
5.497787143781895
  0
ELLIPSE
  5
11518
330
114DA
100
AcDbEntity
  8
0
100
AcDbEllipse
 10
87.96406584462088
 20
14.24785509788986
 30
0.0
 11
1.250000000000128
 21
-2.165063509461023
 31
0.0
210
0.0
220
0.0
230
1.0
 40
0.5773502691896259
 41
3.926990816986997
 42
5.497787143781895
  0
ELLIPSE
  5
11519
330
114DA
100
AcDbEntity
  8
0
100
AcDbEllipse
 10
87.96406584462088
 20
-2.082076520664681
 30
0.0
 11
1.250000000000128
 21
-2.165063509461023
 31
0.0
210
0.0
220
0.0
230
1.0
 40
0.5773502691896259
 41
3.926990816986998
 42
5.497787143781895
  0
ELLIPSE
  5
1151A
330
114DA
100
AcDbEntity
  8
0
100
AcDbEllipse
 10
87.96406584462088
 20
-18.4120081392192
 30
0.0
 11
1.250000000000128
 21
-2.165063509461023
 31
0.0
210
0.0
220
0.0
230
1.0
 40
0.5773502691896259
 41
3.926990816986997
 42
5.497787143781895
  0
ELLIPSE
  5
1151B
330
114DA
100
AcDbEntity
  8
0
100
AcDbEllipse
 10
87.96406584462088
 20
-34.74193975777375
 30
0.0
 11
1.250000000000128
 21
-2.165063509461023
 31
0.0
210
0.0
220
0.0
230
1.0
 40
0.5773502691896259
 41
3.926990816986998
 42
5.497787143781895
  0
ELLIPSE
  5
1151C
330
114DA
100
AcDbEntity
  8
0
100
AcDbEllipse
 10
87.9640658446209
 20
-51.07187137632829
 30
0.0
 11
1.250000000000128
 21
-2.165063509461023
 31
0.0
210
0.0
220
0.0
230
1.0
 40
0.5773502691896259
 41
3.926990816986993
 42
5.497787143781895
  0
ELLIPSE
  5
1151D
330
114DA
100
AcDbEntity
  8
0
100
AcDbEllipse
 10
87.96406584462092
 20
-67.40180299488284
 30
0.0
 11
1.250000000000128
 21
-2.165063509461023
 31
0.0
210
0.0
220
0.0
230
1.0
 40
0.5773502691896259
 41
3.926990816986993
 42
5.497787143781895
  0
ELLIPSE
  5
1151E
330
114DA
100
AcDbEntity
  8
0
100
AcDbEllipse
 10
87.96406584462092
 20
-83.73173461343737
 30
0.0
 11
1.250000000000128
 21
-2.165063509461023
 31
0.0
210
0.0
220
0.0
230
1.0
 40
0.5773502691896259
 41
3.926990816987002
 42
5.497787143781895
  0
ELLIPSE
  5
1151F
330
114DA
100
AcDbEntity
  8
0
100
AcDbEllipse
 10
87.96406584462092
 20
-100.0616662319919
 30
0.0
 11
1.250000000000128
 21
-2.165063509461023
 31
0.0
210
0.0
220
0.0
230
1.0
 40
0.5773502691896259
 41
3.926990816987002
 42
5.497787143781895
  0
ELLIPSE
  5
11520
330
114DA
100
AcDbEntity
  8
0
100
AcDbEllipse
 10
87.96406584462092
 20
-116.3915978505464
 30
0.0
 11
1.250000000000128
 21
-2.165063509461023
 31
0.0
210
0.0
220
0.0
230
1.0
 40
0.5773502691896259
 41
3.926990816987002
 42
5.497787143781895
  0
ELLIPSE
  5
11521
330
114DA
100
AcDbEntity
  8
0
100
AcDbEllipse
 10
86.19629889165455
 20
-117.412218576706
 30
0.0
 11
1.24999999999987
 21
-2.165063509461171
 31
0.0
210
0.0
220
0.0
230
1.0
 40
0.5773502691896259
 41
0.0
 42
6.283185307179586
  0
ELLIPSE
  5
11522
330
114DA
100
AcDbEntity
  8
0
100
AcDbEllipse
 10
86.19629889165455
 20
-101.0822869581515
 30
0.0
 11
1.24999999999987
 21
-2.165063509461171
 31
0.0
210
0.0
220
0.0
230
1.0
 40
0.5773502691896259
 41
0.0
 42
6.283185307179586
  0
ELLIPSE
  5
11523
330
114DA
100
AcDbEntity
  8
0
100
AcDbEllipse
 10
86.19629889165455
 20
-84.75235533959702
 30
0.0
 11
1.24999999999987
 21
-2.165063509461171
 31
0.0
210
0.0
220
0.0
230
1.0
 40
0.5773502691896259
 41
0.0
 42
6.283185307179586
  0
ELLIPSE
  5
11524
330
114DA
100
AcDbEntity
  8
0
100
AcDbEllipse
 10
86.19629889165455
 20
-68.42242372104249
 30
0.0
 11
1.24999999999987
 21
-2.165063509461171
 31
0.0
210
0.0
220
0.0
230
1.0
 40
0.5773502691896259
 41
0.0
 42
6.283185307179586
  0
ELLIPSE
  5
11525
330
114DA
100
AcDbEntity
  8
0
100
AcDbEllipse
 10
86.19629889165453
 20
-52.09249210248794
 30
0.0
 11
1.24999999999987
 21
-2.165063509461171
 31
0.0
210
0.0
220
0.0
230
1.0
 40
0.5773502691896259
 41
0.0
 42
6.283185307179586
  0
ELLIPSE
  5
11526
330
114DA
100
AcDbEntity
  8
0
100
AcDbEllipse
 10
86.19629889165452
 20
-35.7625604839334
 30
0.0
 11
1.24999999999987
 21
-2.165063509461171
 31
0.0
210
0.0
220
0.0
230
1.0
 40
0.5773502691896259
 41
0.0
 42
6.283185307179586
  0
ELLIPSE
  5
11527
330
114DA
100
AcDbEntity
  8
0
100
AcDbEllipse
 10
86.19629889165452
 20
-19.43262886537885
 30
0.0
 11
1.24999999999987
 21
-2.165063509461171
 31
0.0
210
0.0
220
0.0
230
1.0
 40
0.5773502691896259
 41
0.0
 42
6.283185307179586
  0
ELLIPSE
  5
11528
330
114DA
100
AcDbEntity
  8
0
100
AcDbEllipse
 10
86.19629889165452
 20
-3.10269724682433
 30
0.0
 11
1.24999999999987
 21
-2.165063509461171
 31
0.0
210
0.0
220
0.0
230
1.0
 40
0.5773502691896259
 41
0.0
 42
6.283185307179586
  0
ELLIPSE
  5
11529
330
114DA
100
AcDbEntity
  8
0
100
AcDbEllipse
 10
86.19629889165452
 20
13.22723437173021
 30
0.0
 11
1.24999999999987
 21
-2.165063509461171
 31
0.0
210
0.0
220
0.0
230
1.0
 40
0.5773502691896259
 41
0.0
 42
6.283185307179586
  0
ELLIPSE
  5
1152A
330
114DA
100
AcDbEntity
  8
0
100
AcDbEllipse
 10
86.1962988916545
 20
29.55716599028474
 30
0.0
 11
1.24999999999987
 21
-2.165063509461171
 31
0.0
210
0.0
220
0.0
230
1.0
 40
0.5773502691896259
 41
0.0
 42
6.283185307179586
  0
ELLIPSE
  5
1152B
330
114DA
100
AcDbEntity
  8
0
100
AcDbEllipse
 10
86.1962988916545
 20
45.88709760883926
 30
0.0
 11
1.24999999999987
 21
-2.165063509461171
 31
0.0
210
0.0
220
0.0
230
1.0
 40
0.5773502691896259
 41
0.0
 42
6.283185307179586
  0
ELLIPSE
  5
1152C
330
114DA
100
AcDbEntity
  8
0
100
AcDbEllipse
 10
86.1962988916545
 20
62.21702922739378
 30
0.0
 11
1.24999999999987
 21
-2.165063509461171
 31
0.0
210
0.0
220
0.0
230
1.0
 40
0.5773502691896259
 41
0.0
 42
6.283185307179586
  0
ELLIPSE
  5
1152D
330
114DA
100
AcDbEntity
  8
0
100
AcDbEllipse
 10
86.1962988916545
 20
78.54696084594832
 30
0.0
 11
1.24999999999987
 21
-2.165063509461171
 31
0.0
210
0.0
220
0.0
230
1.0
 40
0.5773502691896259
 41
0.0
 42
6.283185307179586
  0
ELLIPSE
  5
1152E
330
114DA
100
AcDbEntity
  8
0
100
AcDbEllipse
 10
86.1962988916545
 20
94.87689246450285
 30
0.0
 11
1.24999999999987
 21
-2.165063509461171
 31
0.0
210
0.0
220
0.0
230
1.0
 40
0.5773502691896259
 41
0.0
 42
6.283185307179586
  0
ELLIPSE
  5
1152F
330
114DA
100
AcDbEntity
  8
0
100
AcDbEllipse
 10
86.1962988916545
 20
111.2068240830574
 30
0.0
 11
1.24999999999987
 21
-2.165063509461171
 31
0.0
210
0.0
220
0.0
230
1.0
 40
0.5773502691896259
 41
0.0
 42
6.283185307179586
  0
ELLIPSE
  5
11530
330
114DA
100
AcDbEntity
  8
0
100
AcDbEllipse
 10
86.1962988916545
 20
127.5367557016119
 30
0.0
 11
1.24999999999987
 21
-2.165063509461171
 31
0.0
210
0.0
220
0.0
230
1.0
 40
0.5773502691896259
 41
0.0
 42
6.283185307179586
  0
ELLIPSE
  5
11531
330
114DA
100
AcDbEntity
  8
0
100
AcDbEllipse
 10
86.1962988916545
 20
143.8666873201664
 30
0.0
 11
1.24999999999987
 21
-2.165063509461171
 31
0.0
210
0.0
220
0.0
230
1.0
 40
0.5773502691896259
 41
0.0
 42
6.283185307179586
  0
ELLIPSE
  5
11532
330
114DA
100
AcDbEntity
  8
0
100
AcDbEllipse
 10
77.00391073622942
 20
-120.2699566099531
 30
0.0
 11
3.499999999999638
 21
-6.062177826491281
 31
0.0
210
0.0
220
0.0
230
1.0
 40
0.577350269189626
 41
0.0
 42
6.283185307179586
  0
ELLIPSE
  5
11533
330
114DA
100
AcDbEntity
  8
0
100
AcDbEllipse
 10
77.00391073622938
 20
-22.29036689862589
 30
0.0
 11
3.499999999999638
 21
-6.062177826491281
 31
0.0
210
0.0
220
0.0
230
1.0
 40
0.577350269189626
 41
0.0
 42
6.283185307179586
  0
ELLIPSE
  5
11534
330
114DA
100
AcDbEntity
  8
0
100
AcDbEllipse
 10
77.00391073622938
 20
59.35929119414673
 30
0.0
 11
3.499999999999638
 21
-6.062177826491281
 31
0.0
210
0.0
220
0.0
230
1.0
 40
0.577350269189626
 41
0.0
 42
6.283185307179586
  0
ELLIPSE
  5
11535
330
114DA
100
AcDbEntity
  8
0
100
AcDbEllipse
 10
77.00391073622935
 20
141.0089492869194
 30
0.0
 11
3.499999999999638
 21
-6.062177826491281
 31
0.0
210
0.0
220
0.0
230
1.0
 40
0.577350269189626
 41
0.0
 42
6.283185307179586
  0
ELLIPSE
  5
11536
330
114DA
100
AcDbEntity
  8
0
100
AcDbEllipse
 10
86.19629889165446
 20
160.1966189387209
 30
0.0
 11
1.24999999999987
 21
-2.165063509461171
 31
0.0
210
0.0
220
0.0
230
1.0
 40
0.5773502691896259
 41
0.0
 42
6.283185307179586
  0
ELLIPSE
  5
11537
330
114DA
100
AcDbEntity
  8
0
100
AcDbEllipse
 10
73.46837683029662
 20
159.3801223577932
 30
0.0
 11
1.24999999999987
 21
-2.165063509461171
 31
0.0
210
0.0
220
0.0
230
1.0
 40
0.5773502691896259
 41
0.0
 42
6.283185307179586
  0
LINE
  5
11538
330
114DA
100
AcDbEntity
  8
0
100
AcDbLine
 10
66.4680196965498
 20
177.7104705996207
 30
0.0
 11
91.49959975055358
 21
163.2584811171999
 31
0.0
  0
LINE
  5
11539
330
114DA
100
AcDbEntity
  8
0
100
AcDbLine
 10
91.49959975055358
 20
163.2584811171999
 30
0.0
 11
93.26736670351994
 21
164.2791018433596
 31
0.0
  0
LINE
  5
1153A
330
114DA
100
AcDbEntity
  8
0
100
AcDbLine
 10
91.49959975055358
 20
163.2584811171999
 30
0.0
 11
91.49959975055367
 21
-137.6455023413342
 31
0.0
  0
LINE
  5
1153B
330
114DA
100
AcDbEntity
  8
0
100
AcDbLine
 10
91.49959975055367
 20
-137.6455023413342
 30
0.0
 11
93.26736670352005
 21
-136.6248816151746
 31
0.0
  0
LINE
  5
1153C
330
114DA
100
AcDbEntity
  8
0
100
AcDbLine
 10
91.49959975055367
 20
-137.6455023413342
 30
0.0
 11
79.83869217650229
 21
-139.6572541069571
 31
0.0
  0
LINE
  5
1153D
330
114DA
100
AcDbEntity
  8
0
100
AcDbLine
 10
79.83869217650229
 20
-139.6572541069571
 30
0.0
 11
66.46801969654984
 21
-135.6728096301491
 31
0.0
  0
LINE
  5
1153E
330
114DA
100
AcDbEntity
  8
0
100
AcDbLine
 10
26.8700399501032
 20
-145.5405257896662
 30
0.0
 11
26.87003995010315
 21
157.3797057345203
 31
0.0
  0
LINE
  5
1153F
330
114DA
100
AcDbEntity
  8
0
100
AcDbLine
 10
28.63780690306958
 20
-146.5611465158259
 30
0.0
 11
26.8700399501032
 21
-145.5405257896662
 31
0.0
  0
LINE
  5
11540
330
114DA
100
AcDbEntity
  8
0
100
AcDbLine
 10
28.63780690306958
 20
-146.5611465158259
 30
0.0
 11
28.63780690306952
 21
156.3590850083606
 31
0.0
  0
LINE
  5
11541
330
114DA
100
AcDbEntity
  8
0
100
AcDbLine
 10
28.63780690306952
 20
156.3590850083606
 30
0.0
 11
26.87003995010315
 21
157.3797057345203
 31
0.0
  0
LINE
  5
11542
330
114DA
100
AcDbEntity
  8
0
100
AcDbLine
 10
11.81125886061928
 20
-165.5268648195779
 30
0.0
 11
26.8700399501032
 21
-145.5405257896662
 31
0.0
  0
LINE
  5
11543
330
114DA
100
AcDbEntity
  8
0
100
AcDbLine
 10
13.57902581358565
 20
-166.5474855457375
 30
0.0
 11
11.81125886061928
 21
-165.5268648195779
 31
0.0
  0
LINE
  5
11544
330
114DA
100
AcDbEntity
  8
0
100
AcDbLine
 10
13.57902581358565
 20
-166.5474855457375
 30
0.0
 11
28.63780690306958
 21
-146.5611465158259
 31
0.0
  0
LINE
  5
11545
330
114DA
100
AcDbEntity
  8
0
100
AcDbLine
 10
-2.404180791019854
 20
-177.705256550628
 30
0.0
 11
11.81125886061928
 21
-165.5268648195779
 31
0.0
  0
LINE
  5
11546
330
114DA
100
AcDbEntity
  8
0
100
AcDbLine
 10
-0.6364138380534845
 20
-178.7258772767876
 30
0.0
 11
-2.404180791019854
 21
-177.705256550628
 31
0.0
  0
LINE
  5
11547
330
114DA
100
AcDbEntity
  8
0
100
AcDbLine
 10
-0.6364138380534845
 20
-178.7258772767876
 30
0.0
 11
13.57902581358565
 21
-166.5474855457375
 31
0.0
  0
LINE
  5
11548
330
114DA
100
AcDbEntity
  8
0
100
AcDbLine
 10
26.87003995010315
 20
157.3797057345203
 30
0.0
 11
63.85172460615958
 21
178.7310913257803
 31
0.0
  0
LINE
  5
11549
330
114DA
100
AcDbEntity
  8
0
100
AcDbLine
 10
28.63780690306952
 20
156.3590850083606
 30
0.0
 11
65.61949155912595
 21
177.7104705996207
 31
0.0
  0
LINE
  5
1154A
330
114DA
100
AcDbEntity
  8
0
100
AcDbLine
 10
65.61949155912599
 20
-135.9098472042075
 30
0.0
 11
63.00319646873576
 21
-138.1512317322703
 31
0.0
  0
ELLIPSE
  5
1154B
330
114DA
100
AcDbEntity
  8
0
100
AcDbEllipse
 10
75.23614378326299
 20
127.7408798468438
 30
0.0
 11
1.250000000000128
 21
-2.165063509461023
 31
0.0
210
0.0
220
0.0
230
1.0
 40
0.5773502691896259
 41
3.926990816987002
 42
5.4977871437819
  0
ELLIPSE
  5
1154C
330
114DA
100
AcDbEntity
  8
0
100
AcDbEllipse
 10
73.46837683029662
 20
126.7202591206842
 30
0.0
 11
1.24999999999987
 21
-2.165063509461171
 31
0.0
210
0.0
220
0.0
230
1.0
 40
0.5773502691896259
 41
0.0
 42
6.283185307179586
  0
ELLIPSE
  5
1154D
330
114DA
100
AcDbEntity
  8
0
100
AcDbEllipse
 10
75.236143783263
 20
46.09122175407119
 30
0.0
 11
1.250000000000128
 21
-2.165063509461023
 31
0.0
210
0.0
220
0.0
230
1.0
 40
0.5773502691896259
 41
3.926990816986997
 42
5.497787143781895
  0
ELLIPSE
  5
1154E
330
114DA
100
AcDbEntity
  8
0
100
AcDbEllipse
 10
73.46837683029663
 20
45.07060102791154
 30
0.0
 11
1.24999999999987
 21
-2.165063509461171
 31
0.0
210
0.0
220
0.0
230
1.0
 40
0.5773502691896259
 41
0.0
 42
6.283185307179586
  0
ELLIPSE
  5
1154F
330
114DA
100
AcDbEntity
  8
0
100
AcDbEllipse
 10
75.23614378326302
 20
-35.55843633870147
 30
0.0
 11
1.250000000000128
 21
-2.165063509461023
 31
0.0
210
0.0
220
0.0
230
1.0
 40
0.5773502691896259
 41
3.926990816987
 42
5.497787143781895
  0
ELLIPSE
  5
11550
330
114DA
100
AcDbEntity
  8
0
100
AcDbEllipse
 10
73.46837683029666
 20
-36.57905706486114
 30
0.0
 11
1.24999999999987
 21
-2.165063509461171
 31
0.0
210
0.0
220
0.0
230
1.0
 40
0.5773502691896259
 41
0.0
 42
6.283185307179586
  0
ELLIPSE
  5
11551
330
114DA
100
AcDbEntity
  8
0
100
AcDbEllipse
 10
75.236143783263
 20
111.4109482282893
 30
0.0
 11
1.250000000000128
 21
-2.165063509461023
 31
0.0
210
0.0
220
0.0
230
1.0
 40
0.5773502691896259
 41
3.926990816987002
 42
5.4977871437819
  0
ELLIPSE
  5
11552
330
114DA
100
AcDbEntity
  8
0
100
AcDbEllipse
 10
75.236143783263
 20
95.08101660973478
 30
0.0
 11
1.250000000000128
 21
-2.165063509461023
 31
0.0
210
0.0
220
0.0
230
1.0
 40
0.5773502691896259
 41
3.926990816987002
 42
5.4977871437819
  0
ELLIPSE
  5
11553
330
114DA
100
AcDbEntity
  8
0
100
AcDbEllipse
 10
75.236143783263
 20
78.75108499118025
 30
0.0
 11
1.250000000000128
 21
-2.165063509461023
 31
0.0
210
0.0
220
0.0
230
1.0
 40
0.5773502691896259
 41
3.926990816986997
 42
5.497787143781895
  0
ELLIPSE
  5
11554
330
114DA
100
AcDbEntity
  8
0
100
AcDbEllipse
 10
73.46837683029663
 20
77.7304642650206
 30
0.0
 11
1.24999999999987
 21
-2.165063509461171
 31
0.0
210
0.0
220
0.0
230
1.0
 40
0.5773502691896259
 41
0.0
 42
6.283185307179586
  0
ELLIPSE
  5
11555
330
114DA
100
AcDbEntity
  8
0
100
AcDbEllipse
 10
73.46837683029663
 20
94.06039588357513
 30
0.0
 11
1.24999999999987
 21
-2.165063509461171
 31
0.0
210
0.0
220
0.0
230
1.0
 40
0.5773502691896259
 41
0.0
 42
6.283185307179586
  0
ELLIPSE
  5
11556
330
114DA
100
AcDbEntity
  8
0
100
AcDbEllipse
 10
73.46837683029663
 20
110.3903275021296
 30
0.0
 11
1.24999999999987
 21
-2.165063509461171
 31
0.0
210
0.0
220
0.0
230
1.0
 40
0.5773502691896259
 41
0.0
 42
6.283185307179586
  0
ELLIPSE
  5
11557
330
114DA
100
AcDbEntity
  8
0
100
AcDbEllipse
 10
75.23614378326302
 20
29.76129013551667
 30
0.0
 11
1.250000000000128
 21
-2.165063509461023
 31
0.0
210
0.0
220
0.0
230
1.0
 40
0.5773502691896259
 41
3.926990816987
 42
5.497787143781895
  0
ELLIPSE
  5
11558
330
114DA
100
AcDbEntity
  8
0
100
AcDbEllipse
 10
75.23614378326302
 20
13.43135851696214
 30
0.0
 11
1.250000000000128
 21
-2.165063509461023
 31
0.0
210
0.0
220
0.0
230
1.0
 40
0.5773502691896259
 41
3.926990816987
 42
5.497787143781895
  0
ELLIPSE
  5
11559
330
114DA
100
AcDbEntity
  8
0
100
AcDbEllipse
 10
75.23614378326302
 20
-2.898573101592401
 30
0.0
 11
1.250000000000128
 21
-2.165063509461023
 31
0.0
210
0.0
220
0.0
230
1.0
 40
0.5773502691896259
 41
3.926990816987
 42
5.497787143781895
  0
ELLIPSE
  5
1155A
330
114DA
100
AcDbEntity
  8
0
100
AcDbEllipse
 10
73.46837683029665
 20
-3.919193827752067
 30
0.0
 11
1.24999999999987
 21
-2.165063509461171
 31
0.0
210
0.0
220
0.0
230
1.0
 40
0.5773502691896259
 41
0.0
 42
6.283185307179586
  0
ELLIPSE
  5
1155B
330
114DA
100
AcDbEntity
  8
0
100
AcDbEllipse
 10
73.46837683029665
 20
12.41073779080249
 30
0.0
 11
1.24999999999987
 21
-2.165063509461171
 31
0.0
210
0.0
220
0.0
230
1.0
 40
0.5773502691896259
 41
0.0
 42
6.283185307179586
  0
ELLIPSE
  5
1155C
330
114DA
100
AcDbEntity
  8
0
100
AcDbEllipse
 10
73.46837683029665
 20
28.74066940935702
 30
0.0
 11
1.24999999999987
 21
-2.165063509461171
 31
0.0
210
0.0
220
0.0
230
1.0
 40
0.5773502691896259
 41
0.0
 42
6.283185307179586
  0
ELLIPSE
  5
1155D
330
114DA
100
AcDbEntity
  8
0
100
AcDbEllipse
 10
75.23614378326303
 20
-51.88836795725602
 30
0.0
 11
1.250000000000128
 21
-2.165063509461023
 31
0.0
210
0.0
220
0.0
230
1.0
 40
0.5773502691896259
 41
3.926990816986997
 42
5.497787143781895
  0
ELLIPSE
  5
1155E
330
114DA
100
AcDbEntity
  8
0
100
AcDbEllipse
 10
75.23614378326303
 20
-68.21829957581056
 30
0.0
 11
1.250000000000128
 21
-2.165063509461023
 31
0.0
210
0.0
220
0.0
230
1.0
 40
0.5773502691896259
 41
3.926990816986997
 42
5.497787143781895
  0
ELLIPSE
  5
1155F
330
114DA
100
AcDbEntity
  8
0
100
AcDbEllipse
 10
75.23614378326306
 20
-84.54823119436509
 30
0.0
 11
1.250000000000128
 21
-2.165063509461023
 31
0.0
210
0.0
220
0.0
230
1.0
 40
0.5773502691896259
 41
3.926990816987002
 42
5.4977871437819
  0
ELLIPSE
  5
11560
330
114DA
100
AcDbEntity
  8
0
100
AcDbEllipse
 10
75.23614378326306
 20
-100.8781628129196
 30
0.0
 11
1.250000000000128
 21
-2.165063509461023
 31
0.0
210
0.0
220
0.0
230
1.0
 40
0.5773502691896259
 41
3.926990816987002
 42
5.4977871437819
  0
ELLIPSE
  5
11561
330
114DA
100
AcDbEntity
  8
0
100
AcDbEllipse
 10
73.46837683029668
 20
-101.8987835390793
 30
0.0
 11
1.24999999999987
 21
-2.165063509461171
 31
0.0
210
0.0
220
0.0
230
1.0
 40
0.5773502691896259
 41
0.0
 42
6.283185307179586
  0
ELLIPSE
  5
11562
330
114DA
100
AcDbEntity
  8
0
100
AcDbEllipse
 10
73.46837683029668
 20
-85.56885192052474
 30
0.0
 11
1.24999999999987
 21
-2.165063509461171
 31
0.0
210
0.0
220
0.0
230
1.0
 40
0.5773502691896259
 41
0.0
 42
6.283185307179586
  0
ELLIPSE
  5
11563
330
114DA
100
AcDbEntity
  8
0
100
AcDbEllipse
 10
73.46837683029668
 20
-69.23892030197021
 30
0.0
 11
1.24999999999987
 21
-2.165063509461171
 31
0.0
210
0.0
220
0.0
230
1.0
 40
0.5773502691896259
 41
0.0
 42
6.283185307179586
  0
ELLIPSE
  5
11564
330
114DA
100
AcDbEntity
  8
0
100
AcDbEllipse
 10
73.46837683029666
 20
-52.90898868341567
 30
0.0
 11
1.24999999999987
 21
-2.165063509461171
 31
0.0
210
0.0
220
0.0
230
1.0
 40
0.5773502691896259
 41
0.0
 42
6.283185307179586
  0
LINE
  5
11565
330
114DA
100
AcDbEntity
  8
0
100
AcDbLine
 10
68.23578664951617
 20
178.7310913257803
 30
0.0
 11
66.4680196965498
 21
177.7104705996207
 31
0.0
  0
LINE
  5
11566
330
114DA
100
AcDbEntity
  8
0
100
AcDbLine
 10
66.4680196965498
 20
177.7104705996207
 30
0.0
 11
66.46801969654984
 21
-135.6728096301491
 31
0.0
  0
LINE
  5
11567
330
114DA
100
AcDbEntity
  8
0
100
AcDbLine
 10
65.61949155912595
 20
177.7104705996207
 30
0.0
 11
63.85172460615958
 21
178.7310913257803
 31
0.0
  0
ELLIPSE
  5
11568
330
114DA
100
AcDbEntity
  8
0
100
AcDbEllipse
 10
66.04375562783786
 20
177.4655216253427
 30
0.0
 11
3.099999999999999
 21
-0.0000000000001042
 31
0.0
210
0.0
220
0.0
230
1.0
 40
0.5773502691896431
 41
0.7853981633976757
 42
2.356194490192564
  0
SPLINE
  5
11569
330
114DA
100
AcDbEntity
  8
0
100
AcDbSpline
210
0.0
220
0.0
230
1.0
 70
     8
 71
     3
 72
    14
 73
    10
 74
     0
 42
0.000000001
 43
0.0000000001
 40
0.0
 40
0.0
 40
0.0
 40
0.0
 40
0.025682106935171
 40
0.025682106935171
 40
0.0513523519076737
 40
0.0513523519076737
 40
0.0751435263771696
 40
0.0751435263771696
 40
0.0989346991639892
 40
0.0989346991639892
 40
0.0989346991639892
 40
0.0989346991639892
 10
65.61949155912599
 20
-135.9098472042074
 30
0.0
 10
65.6773426741639
 20
-135.8558708194913
 30
0.0
 10
65.74641965296826
 20
-135.8092873893511
 30
0.0
 10
65.89847647693726
 20
-135.7333096957582
 30
0.0
 10
65.97985697484084
 20
-135.7046957529789
 30
0.0
 10
66.13735302522491
 20
-135.667772262009
 30
0.0
 10
66.21200090387937
 20
-135.6584564264838
 30
0.0
 10
66.3511643012439
 20
-135.6550223273428
 30
0.0
 10
66.41442807048614
 20
-135.6609295368803
 30
0.0
 10
66.46801969654984
 20
-135.6728096301492
 30
0.0
  0
ELLIPSE
  5
1156A
330
114DA
100
AcDbEntity
  8
0
100
AcDbEllipse
 10
66.04375562783786
 20
177.4655216253427
 30
0.0
 11
-0.6
 21
-0.0000000000000774
 31
0.0
210
0.0
220
0.0
230
1.0
 40
0.5773502691895796
 41
3.926990816987011
 42
5.497787143781874
  0
LINE
  5
1156B
330
114DA
100
AcDbEntity
  8
0
100
AcDbLine
 10
65.61949155912599
 20
-135.9098472042075
 30
0.0
 11
65.61949155912595
 21
177.7104705996207
 31
0.0
  0
LINE
  5
1156C
330
114DA
100
AcDbEntity
  8
0
100
AcDbLine
 10
-1.555652653596037
 20
216.9839561422442
 30
0.0
 11
0.2121142993703273
 21
218.0045768684038
 31
0.0
  0
LINE
  5
1156D
330
114DA
100
AcDbEntity
  8
0
100
AcDbLine
 10
-1.555652653596037
 20
216.4940581936875
 30
0.0
 11
-1.555652653596037
 21
216.9839561422442
 31
0.0
  0
LINE
  5
1156E
330
114DA
100
AcDbEntity
  8
0
100
AcDbLine
 10
0.2121142993703273
 20
215.4734374675279
 30
0.0
 11
-1.555652653596037
 21
216.4940581936876
 31
0.0
  0
ELLIPSE
  5
1156F
330
114DA
100
AcDbEntity
  8
0
100
AcDbEllipse
 10
-1.979916722308043
 20
216.7390071679662
 30
0.0
 11
3.1
 21
0.0000000000001027
 31
0.0
210
0.0
220
0.0
230
1.0
 40
0.5773502691897362
 41
5.49778714378214
 42
7.068583470576897
  0
LINE
  5
11570
330
114DA
100
AcDbEntity
  8
0
100
AcDbLine
 10
0.2121142993703184
 20
-98.14688033630014
 30
0.0
 11
0.2121142993703273
 21
215.473437467528
 31
0.0
  0
SPLINE
  5
11571
330
114DA
100
AcDbEntity
  8
0
100
AcDbSpline
210
0.0
220
0.0
230
1.0
 70
     8
 71
     3
 72
    12
 73
     8
 74
     0
 42
0.000000001
 43
0.0000000001
 40
0.0
 40
0.0
 40
0.0
 40
0.0
 40
0.1215949558307291
 40
0.1215949558307291
 40
0.2431265849515118
 40
0.2431265849515118
 40
0.2446721279881471
 40
0.2446721279881471
 40
0.2446721279881471
 40
0.2446721279881471
 10
0.2121142993702429
 20
-98.14688033630007
 30
0.0
 10
0.498208380061409
 20
-97.96200892004328
 30
0.0
 10
0.725544983318267
 20
-97.74657267712719
 30
0.0
 10
1.036913571540942
 20
-97.27610596622941
 30
0.0
 10
1.118032598180525
 20
-97.02560423556432
 30
0.0
 10
1.120070486848288
 20
-96.76922960942381
 30
0.0
 10
1.120083277689611
 20
-96.76601053764882
 30
0.0
 10
1.120083277522203
 20
-96.7627918476054
 30
0.0
  0
ELLIPSE
  5
11572
330
114DA
100
AcDbEntity
  8
0
100
AcDbEllipse
 10
-1.979916722308043
 20
216.7390071679662
 30
0.0
 11
0.6
 21
0.0000000000000585
 31
0.0
210
0.0
220
0.0
230
1.0
 40
0.577350269189691
 41
5.497787143782218
 42
7.06858347057606
  0
LINE
  5
11573
330
114DA
100
AcDbEntity
  8
0
100
AcDbLine
 10
1.120083277691952
 20
-96.76279184883291
 30
0.0
 11
1.120083277691952
 21
216.7390071679662
 31
0.0
  0
ELLIPSE
  5
11574
330
114DA
100
AcDbEntity
  8
0
100
AcDbEllipse
 10
32.52689419959552
 20
146.3570018919959
 30
0.0
 11
1.249999999999869
 21
2.165063509461171
 31
0.0
210
0.0
220
0.0
230
1.0
 40
0.5773502691896255
 41
3.926990816987
 42
5.497787143781899
  0
ELLIPSE
  5
11575
330
114DA
100
AcDbEntity
  8
0
100
AcDbEllipse
 10
34.29466115256189
 20
145.3363811658363
 30
0.0
 11
-1.249999999999998
 21
-2.165063509461097
 31
0.0
210
0.0
220
0.0
230
1.0
 40
0.5773502691896258
 41
0.0
 42
6.283185307179586
  0
ELLIPSE
  5
11576
330
114DA
100
AcDbEntity
  8
0
100
AcDbEllipse
 10
32.52689419959553
 20
130.0270702734414
 30
0.0
 11
1.249999999999869
 21
2.165063509461171
 31
0.0
210
0.0
220
0.0
230
1.0
 40
0.5773502691896255
 41
3.926990816987
 42
5.497787143781899
  0
ELLIPSE
  5
11577
330
114DA
100
AcDbEntity
  8
0
100
AcDbEllipse
 10
34.2946611525619
 20
129.0064495472817
 30
0.0
 11
-1.249999999999998
 21
-2.165063509461097
 31
0.0
210
0.0
220
0.0
230
1.0
 40
0.5773502691896258
 41
0.0
 42
6.283185307179586
  0
ELLIPSE
  5
11578
330
114DA
100
AcDbEntity
  8
0
100
AcDbEllipse
 10
32.52689419959553
 20
113.6971386548869
 30
0.0
 11
1.249999999999869
 21
2.165063509461171
 31
0.0
210
0.0
220
0.0
230
1.0
 40
0.5773502691896255
 41
3.926990816987
 42
5.497787143781899
  0
ELLIPSE
  5
11579
330
114DA
100
AcDbEntity
  8
0
100
AcDbEllipse
 10
34.2946611525619
 20
112.6765179287272
 30
0.0
 11
-1.249999999999998
 21
-2.165063509461097
 31
0.0
210
0.0
220
0.0
230
1.0
 40
0.5773502691896258
 41
0.0
 42
6.283185307179586
  0
ELLIPSE
  5
1157A
330
114DA
100
AcDbEntity
  8
0
100
AcDbEllipse
 10
32.52689419959553
 20
97.36720703633237
 30
0.0
 11
1.249999999999869
 21
2.165063509461171
 31
0.0
210
0.0
220
0.0
230
1.0
 40
0.5773502691896255
 41
3.926990816987
 42
5.497787143781899
  0
ELLIPSE
  5
1157B
330
114DA
100
AcDbEntity
  8
0
100
AcDbEllipse
 10
34.29466115256191
 20
96.34658631017272
 30
0.0
 11
-1.249999999999998
 21
-2.165063509461097
 31
0.0
210
0.0
220
0.0
230
1.0
 40
0.5773502691896258
 41
0.0
 42
6.283185307179586
  0
ELLIPSE
  5
1157C
330
114DA
100
AcDbEntity
  8
0
100
AcDbEllipse
 10
32.52689419959553
 20
81.03727541777784
 30
0.0
 11
1.249999999999869
 21
2.165063509461171
 31
0.0
210
0.0
220
0.0
230
1.0
 40
0.5773502691896255
 41
3.926990816987
 42
5.497787143781899
  0
ELLIPSE
  5
1157D
330
114DA
100
AcDbEntity
  8
0
100
AcDbEllipse
 10
34.29466115256191
 20
80.01665469161819
 30
0.0
 11
-1.249999999999998
 21
-2.165063509461097
 31
0.0
210
0.0
220
0.0
230
1.0
 40
0.5773502691896258
 41
0.0
 42
6.283185307179586
  0
ELLIPSE
  5
1157E
330
114DA
100
AcDbEntity
  8
0
100
AcDbEllipse
 10
32.52689419959554
 20
64.70734379922331
 30
0.0
 11
1.249999999999869
 21
2.165063509461171
 31
0.0
210
0.0
220
0.0
230
1.0
 40
0.5773502691896255
 41
3.926990816987
 42
5.497787143781894
  0
ELLIPSE
  5
1157F
330
114DA
100
AcDbEntity
  8
0
100
AcDbEllipse
 10
34.29466115256191
 20
63.68672307306365
 30
0.0
 11
-1.249999999999998
 21
-2.165063509461097
 31
0.0
210
0.0
220
0.0
230
1.0
 40
0.5773502691896258
 41
0.0
 42
6.283185307179586
  0
ELLIPSE
  5
11580
330
114DA
100
AcDbEntity
  8
0
100
AcDbEllipse
 10
32.52689419959554
 20
48.37741218066877
 30
0.0
 11
1.249999999999869
 21
2.165063509461171
 31
0.0
210
0.0
220
0.0
230
1.0
 40
0.5773502691896255
 41
3.926990816987
 42
5.497787143781894
  0
ELLIPSE
  5
11581
330
114DA
100
AcDbEntity
  8
0
100
AcDbEllipse
 10
34.29466115256191
 20
47.35679145450912
 30
0.0
 11
-1.249999999999998
 21
-2.165063509461097
 31
0.0
210
0.0
220
0.0
230
1.0
 40
0.5773502691896258
 41
0.0
 42
6.283185307179586
  0
ELLIPSE
  5
11582
330
114DA
100
AcDbEntity
  8
0
100
AcDbEllipse
 10
32.52689419959555
 20
32.04748056211425
 30
0.0
 11
1.249999999999869
 21
2.165063509461171
 31
0.0
210
0.0
220
0.0
230
1.0
 40
0.5773502691896255
 41
3.926990816987
 42
5.497787143781894
  0
ELLIPSE
  5
11583
330
114DA
100
AcDbEntity
  8
0
100
AcDbEllipse
 10
34.29466115256192
 20
31.0268598359546
 30
0.0
 11
-1.249999999999998
 21
-2.165063509461097
 31
0.0
210
0.0
220
0.0
230
1.0
 40
0.5773502691896258
 41
0.0
 42
6.283185307179586
  0
ELLIPSE
  5
11584
330
114DA
100
AcDbEntity
  8
0
100
AcDbEllipse
 10
32.52689419959555
 20
15.71754894355972
 30
0.0
 11
1.249999999999869
 21
2.165063509461171
 31
0.0
210
0.0
220
0.0
230
1.0
 40
0.5773502691896255
 41
3.926990816987
 42
5.497787143781894
  0
ELLIPSE
  5
11585
330
114DA
100
AcDbEntity
  8
0
100
AcDbEllipse
 10
34.29466115256192
 20
14.69692821740007
 30
0.0
 11
-1.249999999999998
 21
-2.165063509461097
 31
0.0
210
0.0
220
0.0
230
1.0
 40
0.5773502691896258
 41
0.0
 42
6.283185307179586
  0
ELLIPSE
  5
11586
330
114DA
100
AcDbEntity
  8
0
100
AcDbEllipse
 10
32.52689419959555
 20
-0.6123826749947981
 30
0.0
 11
1.249999999999869
 21
2.165063509461171
 31
0.0
210
0.0
220
0.0
230
1.0
 40
0.5773502691896255
 41
3.926990816987
 42
5.497787143781894
  0
ELLIPSE
  5
11587
330
114DA
100
AcDbEntity
  8
0
100
AcDbEllipse
 10
34.29466115256192
 20
-1.633003401154446
 30
0.0
 11
-1.249999999999998
 21
-2.165063509461097
 31
0.0
210
0.0
220
0.0
230
1.0
 40
0.5773502691896258
 41
0.0
 42
6.283185307179586
  0
ELLIPSE
  5
11588
330
114DA
100
AcDbEntity
  8
0
100
AcDbEllipse
 10
32.52689419959555
 20
-16.94231429354932
 30
0.0
 11
1.249999999999869
 21
2.165063509461171
 31
0.0
210
0.0
220
0.0
230
1.0
 40
0.5773502691896255
 41
3.926990816987
 42
5.497787143781894
  0
ELLIPSE
  5
11589
330
114DA
100
AcDbEntity
  8
0
100
AcDbEllipse
 10
34.29466115256192
 20
-17.96293501970897
 30
0.0
 11
-1.249999999999998
 21
-2.165063509461097
 31
0.0
210
0.0
220
0.0
230
1.0
 40
0.5773502691896258
 41
0.0
 42
6.283185307179586
  0
ELLIPSE
  5
1158A
330
114DA
100
AcDbEntity
  8
0
100
AcDbEllipse
 10
32.52689419959556
 20
-33.27224591210385
 30
0.0
 11
1.249999999999869
 21
2.165063509461171
 31
0.0
210
0.0
220
0.0
230
1.0
 40
0.5773502691896255
 41
3.926990816987
 42
5.497787143781894
  0
ELLIPSE
  5
1158B
330
114DA
100
AcDbEntity
  8
0
100
AcDbEllipse
 10
34.29466115256193
 20
-34.29286663826352
 30
0.0
 11
-1.249999999999998
 21
-2.165063509461097
 31
0.0
210
0.0
220
0.0
230
1.0
 40
0.5773502691896258
 41
0.0
 42
6.283185307179586
  0
ELLIPSE
  5
1158C
330
114DA
100
AcDbEntity
  8
0
100
AcDbEllipse
 10
32.52689419959556
 20
-49.6021775306584
 30
0.0
 11
1.249999999999869
 21
2.165063509461171
 31
0.0
210
0.0
220
0.0
230
1.0
 40
0.5773502691896255
 41
3.926990816987
 42
5.497787143781894
  0
ELLIPSE
  5
1158D
330
114DA
100
AcDbEntity
  8
0
100
AcDbEllipse
 10
34.29466115256193
 20
-50.62279825681805
 30
0.0
 11
-1.249999999999998
 21
-2.165063509461097
 31
0.0
210
0.0
220
0.0
230
1.0
 40
0.5773502691896258
 41
0.0
 42
6.283185307179586
  0
ELLIPSE
  5
1158E
330
114DA
100
AcDbEntity
  8
0
100
AcDbEllipse
 10
32.52689419959557
 20
-65.93210914921293
 30
0.0
 11
1.249999999999869
 21
2.165063509461171
 31
0.0
210
0.0
220
0.0
230
1.0
 40
0.5773502691896255
 41
3.926990816987
 42
5.497787143781894
  0
ELLIPSE
  5
1158F
330
114DA
100
AcDbEntity
  8
0
100
AcDbEllipse
 10
34.29466115256194
 20
-66.9527298753726
 30
0.0
 11
-1.249999999999998
 21
-2.165063509461097
 31
0.0
210
0.0
220
0.0
230
1.0
 40
0.5773502691896258
 41
0.0
 42
6.283185307179586
  0
ELLIPSE
  5
11590
330
114DA
100
AcDbEntity
  8
0
100
AcDbEllipse
 10
32.52689419959557
 20
-82.26204076776745
 30
0.0
 11
1.249999999999869
 21
2.165063509461171
 31
0.0
210
0.0
220
0.0
230
1.0
 40
0.5773502691896255
 41
3.926990816987
 42
5.497787143781899
  0
ELLIPSE
  5
11591
330
114DA
100
AcDbEntity
  8
0
100
AcDbEllipse
 10
34.29466115256194
 20
-83.28266149392712
 30
0.0
 11
-1.249999999999998
 21
-2.165063509461097
 31
0.0
210
0.0
220
0.0
230
1.0
 40
0.5773502691896258
 41
0.0
 42
6.283185307179586
  0
ELLIPSE
  5
11592
330
114DA
100
AcDbEntity
  8
0
100
AcDbEllipse
 10
32.52689419959557
 20
-98.591972386322
 30
0.0
 11
1.249999999999869
 21
2.165063509461171
 31
0.0
210
0.0
220
0.0
230
1.0
 40
0.5773502691896255
 41
3.926990816987
 42
5.497787143781899
  0
ELLIPSE
  5
11593
330
114DA
100
AcDbEntity
  8
0
100
AcDbEllipse
 10
34.29466115256194
 20
-99.61259311248165
 30
0.0
 11
-1.249999999999998
 21
-2.165063509461097
 31
0.0
210
0.0
220
0.0
230
1.0
 40
0.5773502691896258
 41
0.0
 42
6.283185307179586
  0
ELLIPSE
  5
11594
330
114DA
100
AcDbEntity
  8
0
100
AcDbEllipse
 10
32.52689419959557
 20
-114.9219040048765
 30
0.0
 11
1.249999999999869
 21
2.165063509461171
 31
0.0
210
0.0
220
0.0
230
1.0
 40
0.5773502691896255
 41
3.926990816987
 42
5.497787143781899
  0
ELLIPSE
  5
11595
330
114DA
100
AcDbEntity
  8
0
100
AcDbEllipse
 10
34.29466115256194
 20
-115.9425247310361
 30
0.0
 11
-1.249999999999998
 21
-2.165063509461097
 31
0.0
210
0.0
220
0.0
230
1.0
 40
0.5773502691896258
 41
0.0
 42
6.283185307179586
  0
ELLIPSE
  5
11596
330
114DA
100
AcDbEntity
  8
0
100
AcDbEllipse
 10
32.52689419959558
 20
-131.251835623431
 30
0.0
 11
1.249999999999869
 21
2.165063509461171
 31
0.0
210
0.0
220
0.0
230
1.0
 40
0.5773502691896255
 41
3.926990816987
 42
5.497787143781899
  0
ELLIPSE
  5
11597
330
114DA
100
AcDbEntity
  8
0
100
AcDbEllipse
 10
34.29466115256196
 20
-132.2724563495907
 30
0.0
 11
-1.249999999999998
 21
-2.165063509461097
 31
0.0
210
0.0
220
0.0
230
1.0
 40
0.5773502691896258
 41
0.0
 42
6.283185307179586
  0
ELLIPSE
  5
11598
330
114DA
100
AcDbEntity
  8
0
100
AcDbEllipse
 10
32.52689419959557
 20
-147.5817672419855
 30
0.0
 11
1.249999999999869
 21
2.165063509461171
 31
0.0
210
0.0
220
0.0
230
1.0
 40
0.5773502691896255
 41
3.926990816987
 42
5.497787143781899
  0
ELLIPSE
  5
11599
330
114DA
100
AcDbEntity
  8
0
100
AcDbEllipse
 10
34.29466115256194
 20
-148.6023879681452
 30
0.0
 11
-1.249999999999998
 21
-2.165063509461097
 31
0.0
210
0.0
220
0.0
230
1.0
 40
0.5773502691896258
 41
0.0
 42
6.283185307179586
  0
ELLIPSE
  5
1159A
330
114DA
100
AcDbEntity
  8
0
100
AcDbEllipse
 10
-21.28393184870079
 20
222.250359089228
 30
0.0
 11
1.249999999999871
 21
-2.16506350946117
 31
0.0
210
0.0
220
0.0
230
1.0
 40
0.577350269189626
 41
0.0
 42
6.283185307179586
  0
ELLIPSE
  5
1159B
330
114DA
100
AcDbEntity
  8
0
100
AcDbEllipse
 10
-19.51616489573441
 20
223.2709798153877
 30
0.0
 11
1.250000000000131
 21
-2.165063509461022
 31
0.0
210
0.0
220
0.0
230
1.0
 40
0.5773502691896259
 41
3.926990816987002
 42
5.497787143781899
  0
ELLIPSE
  5
1159C
330
114DA
100
AcDbEntity
  8
0
100
AcDbEllipse
 10
-21.28393184870079
 20
205.9204274706735
 30
0.0
 11
-1.250000000000001
 21
2.165063509461096
 31
0.0
210
0.0
220
0.0
230
0.9999999999999998
 40
0.577350269189626
 41
4.425632428173106
 42
8.140738186186059
  0
ELLIPSE
  5
1159D
330
114DA
100
AcDbEntity
  8
0
100
AcDbEllipse
 10
-19.51616489573442
 20
206.9410481968331
 30
0.0
 11
1.250000000000131
 21
-2.165063509461022
 31
0.0
210
0.0
220
0.0
230
1.0
 40
0.5773502691896259
 41
3.926990816987002
 42
4.99914553259614
  0
ELLIPSE
  5
1159E
330
114DA
100
AcDbEntity
  8
0
100
AcDbEllipse
 10
-31.11271610719365
 20
191.2643138430208
 30
0.0
 11
1.249999999999999
 21
2.165063509461097
 31
0.0
210
0.0
220
0.0
230
1.0
 40
0.5773502691896255
 41
0.0
 42
6.283185307179586
  0
ELLIPSE
  5
1159F
330
114DA
100
AcDbEntity
  8
0
100
AcDbEllipse
 10
-32.88048306016001
 20
192.2849345691805
 30
0.0
 11
1.249999999999869
 21
2.165063509461171
 31
0.0
210
0.0
220
0.0
230
1.0
 40
0.5773502691896255
 41
3.926990816987
 42
5.49778714378189
  0
ELLIPSE
  5
115A0
330
114DA
100
AcDbEntity
  8
0
100
AcDbEllipse
 10
-31.11271610719366
 20
174.9343822244663
 30
0.0
 11
1.249999999999999
 21
2.165063509461097
 31
0.0
210
0.0
220
0.0
230
1.0
 40
0.5773502691896255
 41
0.0
 42
6.283185307179586
  0
ELLIPSE
  5
115A1
330
114DA
100
AcDbEntity
  8
0
100
AcDbEllipse
 10
-32.88048306016003
 20
175.9550029506259
 30
0.0
 11
1.249999999999869
 21
2.165063509461171
 31
0.0
210
0.0
220
0.0
230
1.0
 40
0.5773502691896255
 41
3.926990816987
 42
5.49778714378189
  0
ELLIPSE
  5
115A2
330
114DA
100
AcDbEntity
  8
0
100
AcDbEllipse
 10
-31.11271610719366
 20
158.6044506059117
 30
0.0
 11
1.249999999999999
 21
2.165063509461097
 31
0.0
210
0.0
220
0.0
230
1.0
 40
0.5773502691896255
 41
0.0
 42
6.283185307179586
  0
ELLIPSE
  5
115A3
330
114DA
100
AcDbEntity
  8
0
100
AcDbEllipse
 10
-32.88048306016003
 20
159.6250713320714
 30
0.0
 11
1.249999999999869
 21
2.165063509461171
 31
0.0
210
0.0
220
0.0
230
1.0
 40
0.5773502691896255
 41
3.926990816987
 42
5.49778714378189
  0
ELLIPSE
  5
115A4
330
114DA
100
AcDbEntity
  8
0
100
AcDbEllipse
 10
-31.11271610719367
 20
142.2745189873572
 30
0.0
 11
1.249999999999999
 21
2.165063509461097
 31
0.0
210
0.0
220
0.0
230
1.0
 40
0.5773502691896255
 41
0.0
 42
6.283185307179586
  0
ELLIPSE
  5
115A5
330
114DA
100
AcDbEntity
  8
0
100
AcDbEllipse
 10
-32.88048306016003
 20
143.2951397135169
 30
0.0
 11
1.249999999999869
 21
2.165063509461171
 31
0.0
210
0.0
220
0.0
230
1.0
 40
0.5773502691896255
 41
3.926990816987
 42
5.497787143781899
  0
ELLIPSE
  5
115A6
330
114DA
100
AcDbEntity
  8
0
100
AcDbEllipse
 10
-31.11271610719367
 20
125.9445873688027
 30
0.0
 11
1.249999999999999
 21
2.165063509461097
 31
0.0
210
0.0
220
0.0
230
1.0
 40
0.5773502691896255
 41
0.0
 42
6.283185307179586
  0
ELLIPSE
  5
115A7
330
114DA
100
AcDbEntity
  8
0
100
AcDbEllipse
 10
-32.88048306016003
 20
126.9652080949624
 30
0.0
 11
1.249999999999869
 21
2.165063509461171
 31
0.0
210
0.0
220
0.0
230
1.0
 40
0.5773502691896255
 41
3.926990816987
 42
5.497787143781899
  0
ELLIPSE
  5
115A8
330
114DA
100
AcDbEntity
  8
0
100
AcDbEllipse
 10
-31.11271610719367
 20
109.6146557502482
 30
0.0
 11
1.249999999999999
 21
2.165063509461097
 31
0.0
210
0.0
220
0.0
230
1.0
 40
0.5773502691896255
 41
0.0
 42
6.283185307179586
  0
ELLIPSE
  5
115A9
330
114DA
100
AcDbEntity
  8
0
100
AcDbEllipse
 10
-32.88048306016003
 20
110.6352764764078
 30
0.0
 11
1.249999999999869
 21
2.165063509461171
 31
0.0
210
0.0
220
0.0
230
1.0
 40
0.5773502691896255
 41
3.926990816987
 42
5.497787143781899
  0
ELLIPSE
  5
115AA
330
114DA
100
AcDbEntity
  8
0
100
AcDbEllipse
 10
-31.11271610719367
 20
93.28472413169365
 30
0.0
 11
1.249999999999999
 21
2.165063509461097
 31
0.0
210
0.0
220
0.0
230
1.0
 40
0.5773502691896255
 41
0.0
 42
6.283185307179586
  0
ELLIPSE
  5
115AB
330
114DA
100
AcDbEntity
  8
0
100
AcDbEllipse
 10
-32.88048306016003
 20
94.30534485785333
 30
0.0
 11
1.249999999999869
 21
2.165063509461171
 31
0.0
210
0.0
220
0.0
230
1.0
 40
0.5773502691896255
 41
3.926990816987
 42
5.497787143781899
  0
ELLIPSE
  5
115AC
330
114DA
100
AcDbEntity
  8
0
100
AcDbEllipse
 10
-31.11271610719367
 20
76.95479251313916
 30
0.0
 11
1.249999999999999
 21
2.165063509461097
 31
0.0
210
0.0
220
0.0
230
1.0
 40
0.5773502691896255
 41
0.0
 42
6.283185307179586
  0
ELLIPSE
  5
115AD
330
114DA
100
AcDbEntity
  8
0
100
AcDbEllipse
 10
-32.88048306016005
 20
77.9754132392988
 30
0.0
 11
1.249999999999869
 21
2.165063509461171
 31
0.0
210
0.0
220
0.0
230
1.0
 40
0.5773502691896255
 41
3.926990816987
 42
5.497787143781894
  0
ELLIPSE
  5
115AE
330
114DA
100
AcDbEntity
  8
0
100
AcDbEllipse
 10
-31.11271610719369
 20
60.6248608945846
 30
0.0
 11
1.249999999999999
 21
2.165063509461097
 31
0.0
210
0.0
220
0.0
230
1.0
 40
0.5773502691896255
 41
0.0
 42
6.283185307179586
  0
ELLIPSE
  5
115AF
330
114DA
100
AcDbEntity
  8
0
100
AcDbEllipse
 10
-32.88048306016005
 20
61.64548162074428
 30
0.0
 11
1.249999999999869
 21
2.165063509461171
 31
0.0
210
0.0
220
0.0
230
1.0
 40
0.5773502691896255
 41
3.926990816987
 42
5.497787143781894
  0
ELLIPSE
  5
115B0
330
114DA
100
AcDbEntity
  8
0
100
AcDbEllipse
 10
-31.11271610719369
 20
44.29492927603011
 30
0.0
 11
1.249999999999999
 21
2.165063509461097
 31
0.0
210
0.0
220
0.0
230
1.0
 40
0.5773502691896255
 41
0.0
 42
6.283185307179586
  0
ELLIPSE
  5
115B1
330
114DA
100
AcDbEntity
  8
0
100
AcDbEllipse
 10
-32.88048306016006
 20
45.31555000218975
 30
0.0
 11
1.249999999999869
 21
2.165063509461171
 31
0.0
210
0.0
220
0.0
230
1.0
 40
0.5773502691896255
 41
3.926990816987
 42
5.497787143781894
  0
ELLIPSE
  5
115B2
330
114DA
100
AcDbEntity
  8
0
100
AcDbEllipse
 10
-31.11271610719369
 20
27.96499765747558
 30
0.0
 11
1.249999999999999
 21
2.165063509461097
 31
0.0
210
0.0
220
0.0
230
1.0
 40
0.5773502691896255
 41
0.0
 42
6.283185307179586
  0
ELLIPSE
  5
115B3
330
114DA
100
AcDbEntity
  8
0
100
AcDbEllipse
 10
-32.88048306016006
 20
28.98561838363523
 30
0.0
 11
1.249999999999869
 21
2.165063509461171
 31
0.0
210
0.0
220
0.0
230
1.0
 40
0.5773502691896255
 41
3.926990816987
 42
5.497787143781894
  0
ELLIPSE
  5
115B4
330
114DA
100
AcDbEntity
  8
0
100
AcDbEllipse
 10
-31.1127161071937
 20
11.63506603892106
 30
0.0
 11
1.249999999999999
 21
2.165063509461097
 31
0.0
210
0.0
220
0.0
230
1.0
 40
0.5773502691896255
 41
0.0
 42
6.283185307179586
  0
ELLIPSE
  5
115B5
330
114DA
100
AcDbEntity
  8
0
100
AcDbEllipse
 10
-32.88048306016007
 20
12.65568676508071
 30
0.0
 11
1.249999999999869
 21
2.165063509461171
 31
0.0
210
0.0
220
0.0
230
1.0
 40
0.5773502691896255
 41
3.926990816987
 42
5.497787143781894
  0
ELLIPSE
  5
115B6
330
114DA
100
AcDbEntity
  8
0
100
AcDbEllipse
 10
-31.1127161071937
 20
-4.6948655796335
 30
0.0
 11
1.249999999999999
 21
2.165063509461097
 31
0.0
210
0.0
220
0.0
230
1.0
 40
0.5773502691896255
 41
0.0
 42
6.283185307179586
  0
ELLIPSE
  5
115B7
330
114DA
100
AcDbEntity
  8
0
100
AcDbEllipse
 10
-32.88048306016007
 20
-3.674244853473833
 30
0.0
 11
1.249999999999869
 21
2.165063509461171
 31
0.0
210
0.0
220
0.0
230
1.0
 40
0.5773502691896255
 41
3.926990816987
 42
5.497787143781894
  0
ELLIPSE
  5
115B8
330
114DA
100
AcDbEntity
  8
0
100
AcDbEllipse
 10
-31.1127161071937
 20
-21.02479719818802
 30
0.0
 11
1.249999999999999
 21
2.165063509461097
 31
0.0
210
0.0
220
0.0
230
1.0
 40
0.5773502691896255
 41
0.0
 42
6.283185307179586
  0
ELLIPSE
  5
115B9
330
114DA
100
AcDbEntity
  8
0
100
AcDbEllipse
 10
-32.88048306016007
 20
-20.00417647202836
 30
0.0
 11
1.249999999999869
 21
2.165063509461171
 31
0.0
210
0.0
220
0.0
230
1.0
 40
0.5773502691896255
 41
3.926990816987
 42
5.497787143781894
  0
ELLIPSE
  5
115BA
330
114DA
100
AcDbEntity
  8
0
100
AcDbEllipse
 10
-31.11271610719369
 20
-37.35472881674257
 30
0.0
 11
1.249999999999999
 21
2.165063509461097
 31
0.0
210
0.0
220
0.0
230
1.0
 40
0.5773502691896255
 41
0.0
 42
6.283185307179586
  0
ELLIPSE
  5
115BB
330
114DA
100
AcDbEntity
  8
0
100
AcDbEllipse
 10
-32.88048306016006
 20
-36.3341080905829
 30
0.0
 11
1.249999999999869
 21
2.165063509461171
 31
0.0
210
0.0
220
0.0
230
1.0
 40
0.5773502691896255
 41
3.926990816987
 42
5.497787143781894
  0
ELLIPSE
  5
115BC
330
114DA
100
AcDbEntity
  8
0
100
AcDbEllipse
 10
-31.1127161071937
 20
-53.68466043529707
 30
0.0
 11
1.249999999999999
 21
2.165063509461097
 31
0.0
210
0.0
220
0.0
230
1.0
 40
0.5773502691896255
 41
0.0
 42
6.283185307179586
  0
ELLIPSE
  5
115BD
330
114DA
100
AcDbEntity
  8
0
100
AcDbEllipse
 10
-32.88048306016007
 20
-52.66403970913742
 30
0.0
 11
1.249999999999869
 21
2.165063509461171
 31
0.0
210
0.0
220
0.0
230
1.0
 40
0.5773502691896255
 41
3.926990816987
 42
5.497787143781894
  0
ELLIPSE
  5
115BE
330
114DA
100
AcDbEntity
  8
0
100
AcDbEllipse
 10
-31.1127161071937
 20
-70.0145920538516
 30
0.0
 11
1.249999999999999
 21
2.165063509461097
 31
0.0
210
0.0
220
0.0
230
1.0
 40
0.5773502691896255
 41
0.0
 42
6.283185307179586
  0
ELLIPSE
  5
115BF
330
114DA
100
AcDbEntity
  8
0
100
AcDbEllipse
 10
-32.88048306016007
 20
-68.99397132769195
 30
0.0
 11
1.249999999999869
 21
2.165063509461171
 31
0.0
210
0.0
220
0.0
230
1.0
 40
0.5773502691896255
 41
3.926990816987
 42
5.497787143781894
  0
ELLIPSE
  5
115C0
330
114DA
100
AcDbEntity
  8
0
100
AcDbEllipse
 10
-31.11271610719371
 20
-86.34452367240612
 30
0.0
 11
1.249999999999999
 21
2.165063509461097
 31
0.0
210
0.0
220
0.0
230
1.0
 40
0.5773502691896255
 41
0.0
 42
6.283185307179586
  0
ELLIPSE
  5
115C1
330
114DA
100
AcDbEntity
  8
0
100
AcDbEllipse
 10
-32.88048306016007
 20
-85.32390294624647
 30
0.0
 11
1.249999999999869
 21
2.165063509461171
 31
0.0
210
0.0
220
0.0
230
1.0
 40
0.5773502691896255
 41
3.926990816987
 42
5.497787143781899
  0
ELLIPSE
  5
115C2
330
114DA
100
AcDbEntity
  8
0
100
AcDbEllipse
 10
-31.11271610719371
 20
-102.6744552909606
 30
0.0
 11
1.249999999999999
 21
2.165063509461097
 31
0.0
210
0.0
220
0.0
230
1.0
 40
0.5773502691896255
 41
0.0
 42
6.283185307179586
  0
ELLIPSE
  5
115C3
330
114DA
100
AcDbEntity
  8
0
100
AcDbEllipse
 10
-32.88048306016007
 20
-101.653834564801
 30
0.0
 11
1.249999999999869
 21
2.165063509461171
 31
0.0
210
0.0
220
0.0
230
1.0
 40
0.5773502691896255
 41
3.926990816987
 42
5.497787143781899
  0
ENDBLK
  5
114DC
330
114DA
100
AcDbEntity
  8
0
100
AcDbBlockEnd
  0
ENDSEC
  0
SECTION
  2
ENTITIES
  0
INSERT
  5
115C4
330
1F
100
AcDbEntity
  8
0
100
AcDbBlockReference
  2
GLE960_90_2.5-Front
 10
0.0
 20
0.0
 30
0.0
  0
INSERT
  5
115C5
330
1F
100
AcDbEntity
  8
0
100
AcDbBlockReference
  2
GLE960_90_2.5-Left
 10
214.7500000000003
 20
0.0
 30
0.0
  0
INSERT
  5
115C6
330
1F
100
AcDbEntity
  8
0
100
AcDbBlockReference
  2
GLE960_90_2.5-Right
 10
-214.7500000000003
 20
0.0
 30
0.0
  0
INSERT
  5
115C7
330
1F
100
AcDbEntity
  8
0
100
AcDbBlockReference
  2
GLE960_90_2.5-Top
 10
0.0
 20
-133.7500000000003
 30
0.0
  0
INSERT
  5
115C8
330
1F
100
AcDbEntity
  8
0
100
AcDbBlockReference
  2
GLE960_90_2.5-Bottom
 10
0.0
 20
566.2500000000007
 30
0.0
  0
INSERT
  5
115C9
330
1F
100
AcDbEntity
  8
0
100
AcDbBlockReference
  2
GLE960_90_2.5-ISO
 10
282.5615580507758
 20
-366.2065663508248
 30
0.0
  0
MTEXT
  5
115CA
330
1F
100
AcDbEntity
  8
0
100
AcDbMText
 10
0.0
 20
-361.8000000000006
 30
0.0
 40
22.60526315789477
 41
0.0
 71
     5
 72
     5
  1
GLE960/90/2,5
 73
     1
 44
1.0
1001
ACAD
1000
MTEXTBEGIN
1070
    73
1070
     1
1070
    44
1040
1.0
1070
    74
1070
     0
1000
MTEXTEND
  0
ENDSEC
  0
SECTION
  2
OBJECTS
  0
DICTIONARY
  5
C
330
0
100
AcDbDictionary
281
     1
  3
ACAD_CIP_PREVIOUS_PRODUCT_INFO
350
216
  3
ACAD_COLOR
350
6B
  3
ACAD_DETAILVIEWSTYLE
350
21B
  3
ACAD_GROUP
350
D
  3
ACAD_LAYOUT
350
1A
  3
ACAD_MATERIAL
350
6A
  3
ACAD_MLEADERSTYLE
350
12D
  3
ACAD_MLINESTYLE
350
17
  3
ACAD_PLOTSETTINGS
350
19
  3
ACAD_PLOTSTYLENAME
350
E
  3
ACAD_SCALELIST
350
10C
  3
ACAD_SECTIONVIEWSTYLE
350
219
  3
ACAD_TABLESTYLE
350
7E
  3
ACAD_VISUALSTYLE
350
EF
  3
ACDB_RECOMPOSE_DATA
350
116CD
  3
AcDbVariableDictionary
350
5E
  3
DWGPROPS
350
116CE
  0
DICTIONARY
  5
1161D
330
8
100
AcDbDictionary
280
     1
281
     1
  0
DICTIONARY
  5
1FF
330
2
100
AcDbDictionary
280
     1
281
     1
  3
ACAD_LAYERSTATES
360
200
  0
DICTIONARY
  5
13C
330
10
100
AcDbDictionary
280
     1
281
     1
  0
DICTIONARY
  5
1CE
330
1F
100
AcDbDictionary
280
     1
281
     1
  3
ACAD_LAYOUTSELFREF
360
11625
  0
DICTIONARY
  5
115CE
330
D2
100
AcDbDictionary
280
     1
281
     1
  3
ACAD_LAYOUTSELFREF
360
1162E
  0
DICTIONARY
  5
115D0
330
D6
100
AcDbDictionary
280
     1
281
     1
  3
ACAD_LAYOUTSELFREF
360
11631
  0
XRECORD
  5
216
102
{ACAD_REACTORS
330
C
102
}
330
C
100
AcDbXrecord
280
     1
300
ACD
300
2021
300
87393ACD_2021_0F
  0
DICTIONARY
  5
6B
102
{ACAD_REACTORS
330
C
102
}
330
C
100
AcDbDictionary
281
     1
  0
DICTIONARY
  5
21B
102
{ACAD_REACTORS
330
C
102
}
330
C
100
AcDbDictionary
281
     1
  3
Metric50
350
21C
  0
DICTIONARY
  5
D
102
{ACAD_REACTORS
330
C
102
}
330
C
100
AcDbDictionary
281
     1
  0
DICTIONARY
  5
1A
102
{ACAD_REACTORS
330
C
102
}
330
C
100
AcDbDictionary
281
     1
  3
Layout1
350
D3
  3
Layout2
350
D7
  3
Model
350
22
  0
DICTIONARY
  5
6A
102
{ACAD_REACTORS
330
C
102
}
330
C
100
AcDbDictionary
281
     1
  3
ByBlock
350
ED
  3
ByLayer
350
EC
  3
Global
350
EE
  0
DICTIONARY
  5
12D
102
{ACAD_REACTORS
330
C
102
}
330
C
100
AcDbDictionary
281
     1
  3
Standard
350
12E
  0
DICTIONARY
  5
17
102
{ACAD_REACTORS
330
C
102
}
330
C
100
AcDbDictionary
281
     1
  3
Standard
350
18
  0
DICTIONARY
  5
19
102
{ACAD_REACTORS
330
C
102
}
330
C
100
AcDbDictionary
281
     1
  0
ACDBDICTIONARYWDFLT
  5
E
102
{ACAD_REACTORS
330
C
102
}
330
C
100
AcDbDictionary
281
     1
  3
Normal
350
F
100
AcDbDictionaryWithDefault
340
F
  0
DICTIONARY
  5
10C
102
{ACAD_REACTORS
330
C
102
}
330
C
100
AcDbDictionary
281
     1
  3
A0
350
10D
  3
A1
350
1BE
  3
A2
350
1BF
  3
A3
350
1C0
  3
A4
350
1C1
  3
A5
350
1C2
  3
A6
350
1C3
  3
A7
350
1C4
  3
A8
350
1C5
  3
A9
350
1C6
  3
B0
350
1C7
  3
B1
350
1C8
  3
B2
350
1C9
  3
B3
350
1CA
  3
B4
350
1CB
  3
B5
350
1CC
  3
B6
350
1CD
  0
DICTIONARY
  5
219
102
{ACAD_REACTORS
330
C
102
}
330
C
100
AcDbDictionary
281
     1
  3
Metric50
350
21A
  0
DICTIONARY
  5
7E
102
{ACAD_REACTORS
330
C
102
}
330
C
100
AcDbDictionary
281
     1
  3
Standard
350
7F
  0
DICTIONARY
  5
EF
102
{ACAD_REACTORS
330
C
102
}
330
C
100
AcDbDictionary
281
     1
  3
2dWireframe
350
F5
  3
Basic
350
F4
  3
Brighten
350
FB
  3
ColorChange
350
FF
  3
Conceptual
350
F8
  3
Dim
350
FA
  3
EdgeColorOff
350
1E6
  3
Facepattern
350
FE
  3
Flat
350
F0
  3
FlatWithEdges
350
F1
  3
Gouraud
350
F2
  3
GouraudWithEdges
350
F3
  3
Hidden
350
F7
  3
JitterOff
350
1E4
  3
Linepattern
350
FD
  3
OverhangOff
350
1E5
  3
Realistic
350
F9
  3
Shaded
350
1F3
  3
Shaded with edges
350
1F2
  3
Shades of Gray
350
1EF
  3
Sketchy
350
1F0
  3
Thicken
350
FC
  3
Wireframe
350
F6
  3
X-Ray
350
1F1
  0
XRECORD
  5
116CD
102
{ACAD_REACTORS
330
C
102
}
330
C
100
AcDbXrecord
280
     1
 90
        1
330
7F
  0
DICTIONARY
  5
5E
102
{ACAD_REACTORS
330
C
102
}
330
C
100
AcDbDictionary
281
     1
  3
CANNOSCALE
350
146
  3
CENTEREXE
350
259
  3
CENTERLTYPEFILE
350
25A
  3
CMLEADERSTYLE
350
145
  3
CTABLESTYLE
350
84
  3
CVIEWDETAILSTYLE
350
227
  3
CVIEWSECTIONSTYLE
350
228
  3
DIMASSOC
350
5F
  3
HIDETEXT
350
63
  3
INDEXCTL
350
1167A
  3
LAYEREVAL
350
1AE
  3
LAYERNOTIFY
350
1AF
  3
LIGHTINGUNITS
350
11678
  3
MSLTSCALE
350
11677
  3
PSOLHEIGHT
350
116CA
  3
PSOLWIDTH
350
116C9
  3
SORTENTS
350
11679
  3
XCLIPFRAME
350
116CB
  0
XRECORD
  5
116CE
102
{ACAD_REACTORS
330
C
102
}
330
C
100
AcDbXrecord
280
     1
  1
DWGPROPS COOKIE
  2

  3

  4

  6

  7

  8
truole
  9

300
=
301
=
302
=
303
=
304
=
305
=
306
=
307
=
308
=
309
=
 40
0.0013310185185185
 41
2460390.4515625
 42
2460390.463368055
  1

 90
        0
  0
DICTIONARY
  5
200
102
{ACAD_REACTORS
330
1FF
102
}
330
1FF
100
AcDbDictionary
281
     1
  0
XRECORD
  5
11625
102
{ACAD_REACTORS
330
1CE
102
}
330
1CE
100
AcDbXrecord
280
     1
340
1F
  0
XRECORD
  5
1162E
102
{ACAD_REACTORS
330
115CE
102
}
330
115CE
100
AcDbXrecord
280
     1
340
D2
  0
XRECORD
  5
11631
102
{ACAD_REACTORS
330
115D0
102
}
330
115D0
100
AcDbXrecord
280
     1
340
D6
  0
ACDBDETAILVIEWSTYLE
  5
21C
102
{ACAD_XDICTIONARY
360
1170D
102
}
102
{ACAD_REACTORS
330
21B
102
}
330
21B
100
AcDbModelDocViewStyle
 70
     0
  3
Metric50
290
     0
100
AcDbDetailViewStyle
 70
     0
 71
     0
 90
        3
 71
     1
340
11
 40
5.0
340
0
 40
5.0
300

 40
0.0
280
     1
 71
     2
340
16
 90
       25
 71
     3
340
11
 40
5.0
 90
        0
 40
15.0
 90
        1
300
%<\AcVar ViewDetailId>% (%<\AcVar ViewScale \f "%sn">%)
 71
     4
340
16
 90
       25
340
16
 90
       25
280
     0
  0
LAYOUT
  5
D3
102
{ACAD_XDICTIONARY
360
116D2
102
}
102
{ACAD_REACTORS
330
1A
102
}
330
1A
100
AcDbPlotSettings
  1

  2
C:\Documents and Settings\basas\Application Data\Autodesk\AutoCAD 2005\R16.1\enu\plotters\Default Windows System Printer.pc3
  4

  6

 40
0.0
 41
0.0
 42
0.0
 43
0.0
 44
0.0
 45
0.0
 46
0.0
 47
0.0
 48
0.0
 49
0.0
140
0.0
141
0.0
142
1.0
143
1.0
 70
   688
 72
     0
 73
     0
 74
     5
  7

 75
    16
147
1.0
148
0.0
149
0.0
100
AcDbLayout
  1
Layout1
 70
     1
 71
     1
 10
0.0
 20
0.0
 11
12.0
 21
9.0
 12
0.0
 22
0.0
 32
0.0
 14
0.0
 24
0.0
 34
0.0
 15
0.0
 25
0.0
 35
0.0
146
0.0
 13
0.0
 23
0.0
 33
0.0
 16
1.0
 26
0.0
 36
0.0
 17
0.0
 27
1.0
 37
0.0
 76
     0
330
D2
  0
LAYOUT
  5
D7
102
{ACAD_XDICTIONARY
360
116D4
102
}
102
{ACAD_REACTORS
330
1A
102
}
330
1A
100
AcDbPlotSettings
  1

  2
C:\Documents and Settings\basas\Application Data\Autodesk\AutoCAD 2005\R16.1\enu\plotters\Default Windows System Printer.pc3
  4

  6

 40
0.0
 41
0.0
 42
0.0
 43
0.0
 44
0.0
 45
0.0
 46
0.0
 47
0.0
 48
0.0
 49
0.0
140
0.0
141
0.0
142
1.0
143
1.0
 70
   688
 72
     0
 73
     0
 74
     5
  7

 75
    16
147
1.0
148
0.0
149
0.0
100
AcDbLayout
  1
Layout2
 70
     1
 71
     2
 10
0.0
 20
0.0
 11
12.0
 21
9.0
 12
0.0
 22
0.0
 32
0.0
 14
0.0
 24
0.0
 34
0.0
 15
0.0
 25
0.0
 35
0.0
146
0.0
 13
0.0
 23
0.0
 33
0.0
 16
1.0
 26
0.0
 36
0.0
 17
0.0
 27
1.0
 37
0.0
 76
     0
330
D6
  0
LAYOUT
  5
22
102
{ACAD_XDICTIONARY
360
116CF
102
}
102
{ACAD_REACTORS
330
1A
102
}
330
1A
100
AcDbPlotSettings
  1

  2
none_device
  4
ISO_A4_(210.00_x_297.00_MM)
  6

 40
7.5
 41
20.0
 42
7.5
 43
20.0
 44
210.0
 45
297.0
 46
11.54999923706054
 47
-13.65000009536743
 48
0.0
 49
0.0
140
0.0
141
0.0
142
1.0
143
8.704084754739808
 70
 11952
 72
     1
 73
     0
 74
     0
  7

 75
     0
147
0.1148885871608098
148
0.0
149
0.0
100
AcDbLayout
  1
Model
 70
     1
 71
     0
 10
0.0
 20
0.0
 11
12.0
 21
9.0
 12
0.0
 22
0.0
 32
0.0
 14
0.0
 24
0.0
 34
0.0
 15
0.0
 25
0.0
 35
0.0
146
0.0
 13
0.0
 23
0.0
 33
0.0
 16
1.0
 26
0.0
 36
0.0
 17
0.0
 27
1.0
 37
0.0
 76
     0
330
1F
331
EA
1001
ACAD_PSEXT
1000
None
1000
None
1000
Not applicable
1000
The layout will not be plotted unless a new plotter configuration name is selected.
1070
     0
  0
MATERIAL
  5
ED
102
{ACAD_XDICTIONARY
360
1F9
102
}
102
{ACAD_REACTORS
330
6A
102
}
330
6A
100
AcDbMaterial
  1
ByBlock
  0
MATERIAL
  5
EC
102
{ACAD_XDICTIONARY
360
1F7
102
}
102
{ACAD_REACTORS
330
6A
102
}
330
6A
100
AcDbMaterial
  1
ByLayer
  0
MATERIAL
  5
EE
102
{ACAD_XDICTIONARY
360
173
102
}
102
{ACAD_REACTORS
330
6A
102
}
330
6A
100
AcDbMaterial
  1
Global
 43
0.0007999999797903
 43
0.0
 43
0.0
 43
0.0
 43
0.0
 43
0.0007999999797903
 43
0.0
 43
0.0
 43
0.0
 43
0.0
 43
1.0
 43
0.0
 43
0.0
 43
0.0
 43
0.0
 43
1.0
 49
0.0007999999797903
 49
0.0
 49
0.0
 49
0.0
 49
0.0
 49
0.0007999999797903
 49
0.0
 49
0.0
 49
0.0
 49
0.0
 49
1.0
 49
0.0
 49
0.0
 49
0.0
 49
0.0
 49
1.0
142
0.0007999999797903
142
0.0
142
0.0
142
0.0
142
0.0
142
0.0007999999797903
142
0.0
142
0.0
142
0.0
142
0.0
142
1.0
142
0.0
142
0.0
142
0.0
142
0.0
142
1.0
144
0.0007999999797903
144
0.0
144
0.0
144
0.0
144
0.0
144
0.0007999999797903
144
0.0
144
0.0
144
0.0
144
0.0
144
1.0
144
0.0
144
0.0
144
0.0
144
0.0
144
1.0
1001
ACAD
1070
    -1
1070
     3
1070
     0
1000

1071
        0
1070
     0
  0
MLEADERSTYLE
  5
12E
102
{ACAD_XDICTIONARY
360
116F9
102
}
102
{ACAD_REACTORS
330
12D
102
}
330
12D
100
AcDbMLeaderStyle
170
     2
171
     1
172
     0
 90
        2
 40
0.0
 41
0.0
173
     1
 91
-1056964608
340
14
 92
       -2
290
     1
 42
2.0
291
     1
 43
8.0
  3
Standard
 44
4.0
300

342
11
174
     1
178
     1
175
     1
176
     0
 93
-1056964608
 45
4.0
292
     0
297
     0
 46
4.0
 94
-1056964608
 47
1.0
 49
1.0
140
1.0
293
     1
141
0.0
294
     1
177
     0
142
1.0
295
     0
296
     0
143
3.75
1001
ACAD_MLEADERVER
1070
     2
  0
MLINESTYLE
  5
18
102
{ACAD_REACTORS
330
17
102
}
330
17
100
AcDbMlineStyle
  2
STANDARD
 70
     0
  3

 62
   256
 51
90.0
 52
90.0
 71
     2
 49
0.5
 62
   256
  6
BYLAYER
 49
-0.5
 62
   256
  6
BYLAYER
  0
ACDBPLACEHOLDER
  5
F
102
{ACAD_REACTORS
330
E
102
}
330
E
  0
SCALE
  5
10D
102
{ACAD_REACTORS
330
10C
102
}
330
10C
100
AcDbScale
 70
     0
300
1:1
140
1.0
141
1.0
290
     1
  0
SCALE
  5
1BE
102
{ACAD_REACTORS
330
10C
102
}
330
10C
100
AcDbScale
 70
     0
300
1:2
140
1.0
141
2.0
290
     0
  0
SCALE
  5
1BF
102
{ACAD_REACTORS
330
10C
102
}
330
10C
100
AcDbScale
 70
     0
300
1:4
140
1.0
141
4.0
290
     0
  0
SCALE
  5
1C0
102
{ACAD_REACTORS
330
10C
102
}
330
10C
100
AcDbScale
 70
     0
300
1:5
140
1.0
141
5.0
290
     0
  0
SCALE
  5
1C1
102
{ACAD_REACTORS
330
10C
102
}
330
10C
100
AcDbScale
 70
     0
300
1:8
140
1.0
141
8.0
290
     0
  0
SCALE
  5
1C2
102
{ACAD_REACTORS
330
10C
102
}
330
10C
100
AcDbScale
 70
     0
300
1:10
140
1.0
141
10.0
290
     0
  0
SCALE
  5
1C3
102
{ACAD_REACTORS
330
10C
102
}
330
10C
100
AcDbScale
 70
     0
300
1:16
140
1.0
141
16.0
290
     0
  0
SCALE
  5
1C4
102
{ACAD_REACTORS
330
10C
102
}
330
10C
100
AcDbScale
 70
     0
300
1:20
140
1.0
141
20.0
290
     0
  0
SCALE
  5
1C5
102
{ACAD_REACTORS
330
10C
102
}
330
10C
100
AcDbScale
 70
     0
300
1:30
140
1.0
141
30.0
290
     0
  0
SCALE
  5
1C6
102
{ACAD_REACTORS
330
10C
102
}
330
10C
100
AcDbScale
 70
     0
300
1:40
140
1.0
141
40.0
290
     0
  0
SCALE
  5
1C7
102
{ACAD_REACTORS
330
10C
102
}
330
10C
100
AcDbScale
 70
     0
300
1:50
140
1.0
141
50.0
290
     0
  0
SCALE
  5
1C8
102
{ACAD_REACTORS
330
10C
102
}
330
10C
100
AcDbScale
 70
     0
300
1:100
140
1.0
141
100.0
290
     0
  0
SCALE
  5
1C9
102
{ACAD_REACTORS
330
10C
102
}
330
10C
100
AcDbScale
 70
     0
300
2:1
140
2.0
141
1.0
290
     0
  0
SCALE
  5
1CA
102
{ACAD_REACTORS
330
10C
102
}
330
10C
100
AcDbScale
 70
     0
300
4:1
140
4.0
141
1.0
290
     0
  0
SCALE
  5
1CB
102
{ACAD_REACTORS
330
10C
102
}
330
10C
100
AcDbScale
 70
     0
300
8:1
140
8.0
141
1.0
290
     0
  0
SCALE
  5
1CC
102
{ACAD_REACTORS
330
10C
102
}
330
10C
100
AcDbScale
 70
     0
300
10:1
140
10.0
141
1.0
290
     0
  0
SCALE
  5
1CD
102
{ACAD_REACTORS
330
10C
102
}
330
10C
100
AcDbScale
 70
     0
300
100:1
140
100.0
141
1.0
290
     0
  0
ACDBSECTIONVIEWSTYLE
  5
21A
102
{ACAD_XDICTIONARY
360
1170B
102
}
102
{ACAD_REACTORS
330
219
102
}
330
219
100
AcDbModelDocViewStyle
 70
     0
  3
Metric50
290
     0
100
AcDbSectionViewStyle
 70
     0
 71
     0
 90
      102
 71
     1
340
11
 40
5.0
340
0
340
0
 40
5.0
300
I, O, Q, S, X, Z
 40
10.0
 90
        0
 40
2.5
 90
        0
 71
     2
340
16
 90
       25
340
16
 90
       50
 40
5.0
 40
2.5
 40
5.0
 71
     3
340
11
 40
5.0
 90
        0
 40
15.0
 90
        1
300
%<\AcVar ViewSectionStartId>%-%<\AcVar ViewSectionEndId>% (%<\AcVar ViewScale \f "%sn">%)
 71
     4
300
ANSI31
 40
1.0
 90
        0
290
     0
290
     0
 90
        6
 40
0.0
 40
1.570796326794896
 40
0.2617993877991494
 40
1.308996938995747
 40
-0.2617993877991494
 40
1.832595714594046
  0
TABLESTYLE
  5
7F
102
{ACAD_XDICTIONARY
360
162
102
}
102
{ACAD_REACTORS
330
7E
102
}
330
7E
100
AcDbTableStyle
  3
Standard
 70
     0
 71
     0
 40
1.5
 41
1.5
280
     0
281
     0
  7
Standard
140
4.5
170
     2
 62
     0
 63
     7
283
     0
274
    -2
284
     1
 64
     0
275
    -2
285
     1
 65
     0
276
    -2
286
     1
 66
     0
277
    -2
287
     1
 67
     0
278
    -2
288
     1
 68
     0
279
    -2
289
     1
 69
     0
  7
Standard
140
6.0
170
     5
 62
     0
 63
     7
283
     0
274
    -2
284
     1
 64
     0
275
    -2
285
     1
 65
     0
276
    -2
286
     1
 66
     0
277
    -2
287
     1
 67
     0
278
    -2
288
     1
 68
     0
279
    -2
289
     1
 69
     0
  7
Standard
140
4.5
170
     5
 62
     0
 63
     7
283
     0
274
    -2
284
     1
 64
     0
275
    -2
285
     1
 65
     0
276
    -2
286
     1
 66
     0
277
    -2
287
     1
 67
     0
278
    -2
288
     1
 68
     0
279
    -2
289
     1
 69
     0
  0
VISUALSTYLE
  5
F5
102
{ACAD_XDICTIONARY
360
116E3
102
}
102
{ACAD_REACTORS
330
EF
102
}
330
EF
100
AcDbVisualStyle
  2
2dWireframe
 70
     4
 71
     0
 72
     2
 73
     1
 90
        0
 40
-0.6
 41
-30.0
 62
     5
 63
     7
 74
     1
 91
        4
 64
     7
 65
   257
 75
     1
175
     1
 42
1.0
 92
        0
 66
   257
 43
1.0
 76
     1
 77
     6
 78
     2
 67
     7
 79
     5
170
     0
171
     0
290
     0
174
     0
 93
        1
 44
0.0
173
     0
291
     0
 45
0.0
1001
ACAD
1000
AcDbSavedByObjectVersion
1070
     0
  0
VISUALSTYLE
  5
F4
102
{ACAD_XDICTIONARY
360
116E1
102
}
102
{ACAD_REACTORS
330
EF
102
}
330
EF
100
AcDbVisualStyle
  2
Basic
 70
     7
 71
     1
 72
     0
 73
     1
 90
        0
 40
-0.6
 41
-30.0
 62
     5
 63
     7
 74
     0
 91
        4
 64
     7
 65
   257
 75
     1
175
     1
 42
1.0
 92
        8
 66
     7
 43
1.0
 76
     1
 77
     6
 78
     2
 67
     7
 79
     5
170
     0
171
     0
290
     0
174
     0
 93
        1
 44
0.0
173
     0
291
     1
 45
0.0
1001
ACAD
1000
AcDbSavedByObjectVersion
1070
     0
  0
VISUALSTYLE
  5
FB
102
{ACAD_XDICTIONARY
360
116EF
102
}
102
{ACAD_REACTORS
330
EF
102
}
330
EF
100
AcDbVisualStyle
  2
Brighten
 70
    12
 71
     2
 72
     2
 73
     1
 90
        0
 40
-0.6
 41
-30.0
 62
     5
 63
     7
 74
     1
 91
        4
 64
     7
 65
   257
 75
     1
175
     1
 42
1.0
 92
        8
 66
     7
 43
1.0
 76
     1
 77
     6
 78
     2
 67
     7
 79
     5
170
     0
171
     0
290
     0
174
     0
 93
        1
 44
50.0
173
     0
291
     1
 45
0.0
1001
ACAD
1000
AcDbSavedByObjectVersion
1070
     0
  0
VISUALSTYLE
  5
FF
102
{ACAD_XDICTIONARY
360
116F7
102
}
102
{ACAD_REACTORS
330
EF
102
}
330
EF
100
AcDbVisualStyle
  2
ColorChange
 70
    16
 71
     2
 72
     2
 73
     3
 90
        0
 40
-0.6
 41
-30.0
 62
     5
 63
     8
 74
     1
 91
        4
 64
     7
 65
   257
 75
     1
175
     1
 42
1.0
 92
        8
 66
     8
 43
1.0
 76
     1
 77
     6
 78
     2
 67
     7
 79
     5
170
     0
171
     0
290
     0
174
     0
 93
        1
 44
0.0
173
     0
291
     1
 45
0.0
1001
ACAD
1000
AcDbSavedByObjectVersion
1070
     0
  0
VISUALSTYLE
  5
F8
102
{ACAD_XDICTIONARY
360
116E9
102
}
102
{ACAD_REACTORS
330
EF
102
}
330
EF
100
AcDbVisualStyle
  2
Conceptual
 70
     9
 71
     3
 72
     2
 73
     1
 90
        0
 40
-0.6
 41
-30.0
 62
     5
 63
     7
 74
     2
 91
        2
 64
     7
 65
   257
 75
     1
175
     1
 42
40.0
 92
        8
 66
     7
 43
1.0
 76
     1
 77
     6
 78
     2
 67
     7
 79
     3
170
     0
171
     0
290
     0
174
     0
 93
        1
 44
0.0
173
     0
291
     0
 45
0.0
1001
ACAD
1000
AcDbSavedByObjectVersion
1070
     0
  0
VISUALSTYLE
  5
FA
102
{ACAD_XDICTIONARY
360
116ED
102
}
102
{ACAD_REACTORS
330
EF
102
}
330
EF
100
AcDbVisualStyle
  2
Dim
 70
    11
 71
     2
 72
     2
 73
     1
 90
        0
 40
-0.6
 41
-30.0
 62
     5
 63
     7
 74
     1
 91
        4
 64
     7
 65
   257
 75
     1
175
     1
 42
1.0
 92
        8
 66
     7
 43
1.0
 76
     1
 77
     6
 78
     2
 67
     7
 79
     5
170
     0
171
     0
290
     0
174
     0
 93
        1
 44
-50.0
173
     0
291
     1
 45
0.0
1001
ACAD
1000
AcDbSavedByObjectVersion
1070
     0
  0
VISUALSTYLE
  5
1E6
102
{ACAD_XDICTIONARY
360
116FF
102
}
102
{ACAD_REACTORS
330
EF
102
}
330
EF
100
AcDbVisualStyle
  2
EdgeColorOff
 70
    22
 71
     2
 72
     2
 73
     0
 90
        0
 40
-0.6
 41
-30.0
 62
     5
 63
     7
 74
     1
 91
        4
 64
     7
 65
   257
 75
     1
175
     1
 42
1.0
 92
        8
 66
     7
 43
1.0
 76
     1
 77
     6
 78
     2
 67
     7
 79
     5
170
     0
171
     0
290
     0
174
     0
 93
        1
 44
0.0
173
     0
291
     1
 45
0.0
1001
ACAD
1000
AcDbSavedByObjectVersion
1070
     0
  0
VISUALSTYLE
  5
FE
102
{ACAD_XDICTIONARY
360
116F5
102
}
102
{ACAD_REACTORS
330
EF
102
}
330
EF
100
AcDbVisualStyle
  2
Facepattern
 70
    15
 71
     2
 72
     2
 73
     1
 90
        0
 40
-0.6
 41
-30.0
 62
     5
 63
     7
 74
     1
 91
        4
 64
     7
 65
   257
 75
     1
175
     1
 42
1.0
 92
        8
 66
     7
 43
1.0
 76
     1
 77
     6
 78
     2
 67
     7
 79
     5
170
     0
171
     0
290
     0
174
     0
 93
        1
 44
0.0
173
     0
291
     1
 45
0.0
1001
ACAD
1000
AcDbSavedByObjectVersion
1070
     0
  0
VISUALSTYLE
  5
F0
102
{ACAD_XDICTIONARY
360
116D9
102
}
102
{ACAD_REACTORS
330
EF
102
}
330
EF
100
AcDbVisualStyle
  2
Flat
 70
     0
 71
     2
 72
     1
 73
     1
 90
        2
 40
-0.6
 41
30.0
 62
     5
 63
     7
 74
     0
 91
        0
 64
     7
 65
   257
 75
     1
175
     1
 42
1.0
 92
        8
 66
     7
 43
1.0
 76
     1
 77
     6
 78
     2
 67
     7
 79
     5
170
     0
171
     0
290
     0
174
     0
 93
       13
 44
0.0
173
     0
291
     1
 45
0.0
1001
ACAD
1000
AcDbSavedByObjectVersion
1070
     0
  0
VISUALSTYLE
  5
F1
102
{ACAD_XDICTIONARY
360
116DB
102
}
102
{ACAD_REACTORS
330
EF
102
}
330
EF
100
AcDbVisualStyle
  2
FlatWithEdges
 70
     1
 71
     2
 72
     1
 73
     1
 90
        2
 40
-0.6
 41
30.0
 62
     5
 63
     7
 74
     1
 91
        0
 64
     7
 65
   257
 75
     1
175
     1
 42
1.0
 92
        0
 66
   257
 43
1.0
 76
     1
 77
     6
 78
     2
 67
     7
 79
     5
170
     0
171
     0
290
     0
174
     0
 93
       13
 44
0.0
173
     0
291
     1
 45
0.0
1001
ACAD
1000
AcDbSavedByObjectVersion
1070
     0
  0
VISUALSTYLE
  5
F2
102
{ACAD_XDICTIONARY
360
116DD
102
}
102
{ACAD_REACTORS
330
EF
102
}
330
EF
100
AcDbVisualStyle
  2
Gouraud
 70
     2
 71
     2
 72
     2
 73
     1
 90
        2
 40
-0.6
 41
30.0
 62
     5
 63
     7
 74
     0
 91
        0
 64
     7
 65
   257
 75
     1
175
     1
 42
1.0
 92
        0
 66
     7
 43
1.0
 76
     1
 77
     6
 78
     2
 67
     7
 79
     5
170
     0
171
     0
290
     0
174
     0
 93
       13
 44
0.0
173
     0
291
     1
 45
0.0
1001
ACAD
1000
AcDbSavedByObjectVersion
1070
     0
  0
VISUALSTYLE
  5
F3
102
{ACAD_XDICTIONARY
360
116DF
102
}
102
{ACAD_REACTORS
330
EF
102
}
330
EF
100
AcDbVisualStyle
  2
GouraudWithEdges
 70
     3
 71
     2
 72
     2
 73
     1
 90
        2
 40
-0.6
 41
30.0
 62
     5
 63
     7
 74
     1
 91
        0
 64
     7
 65
   257
 75
     1
175
     1
 42
1.0
 92
        0
 66
   257
 43
1.0
 76
     1
 77
     6
 78
     2
 67
     7
 79
     5
170
     0
171
     0
290
     0
174
     0
 93
       13
 44
0.0
173
     0
291
     1
 45
0.0
1001
ACAD
1000
AcDbSavedByObjectVersion
1070
     0
  0
VISUALSTYLE
  5
F7
102
{ACAD_XDICTIONARY
360
116E7
102
}
102
{ACAD_REACTORS
330
EF
102
}
330
EF
100
AcDbVisualStyle
  2
Hidden
 70
     6
 71
     1
 72
     2
 73
     2
 90
        0
 40
-0.6
 41
-30.0
 62
     5
 63
     7
 74
     2
 91
        2
 64
     7
 65
   257
 75
     2
175
     1
 42
40.0
 92
        0
 66
   257
 43
1.0
 76
     1
 77
     6
 78
     2
 67
     7
 79
     3
170
     0
171
     0
290
     0
174
     0
 93
        1
 44
0.0
173
     0
291
     0
 45
0.0
1001
ACAD
1000
AcDbSavedByObjectVersion
1070
     0
  0
VISUALSTYLE
  5
1E4
102
{ACAD_XDICTIONARY
360
116FB
102
}
102
{ACAD_REACTORS
330
EF
102
}
330
EF
100
AcDbVisualStyle
  2
JitterOff
 70
    20
 71
     2
 72
     2
 73
     0
 90
        0
 40
-0.6
 41
-30.0
 62
     5
 63
     7
 74
     1
 91
        4
 64
     7
 65
   257
 75
     1
175
     1
 42
1.0
 92
       10
 66
     7
 43
1.0
 76
     1
 77
     6
 78
     2
 67
     7
 79
     5
170
     0
171
     0
290
     0
174
     0
 93
        1
 44
0.0
173
     0
291
     1
 45
0.0
1001
ACAD
1000
AcDbSavedByObjectVersion
1070
     0
  0
VISUALSTYLE
  5
FD
102
{ACAD_XDICTIONARY
360
116F3
102
}
102
{ACAD_REACTORS
330
EF
102
}
330
EF
100
AcDbVisualStyle
  2
Linepattern
 70
    14
 71
     2
 72
     2
 73
     1
 90
        0
 40
-0.6
 41
-30.0
 62
     5
 63
     7
 74
     1
 91
        4
 64
     7
 65
   257
 75
     7
175
     7
 42
1.0
 92
        8
 66
     7
 43
1.0
 76
     1
 77
     6
 78
     2
 67
     7
 79
     5
170
     0
171
     0
290
     0
174
     0
 93
        1
 44
0.0
173
     0
291
     1
 45
0.0
1001
ACAD
1000
AcDbSavedByObjectVersion
1070
     0
  0
VISUALSTYLE
  5
1E5
102
{ACAD_XDICTIONARY
360
116FD
102
}
102
{ACAD_REACTORS
330
EF
102
}
330
EF
100
AcDbVisualStyle
  2
OverhangOff
 70
    21
 71
     2
 72
     2
 73
     0
 90
        0
 40
-0.6
 41
-30.0
 62
     5
 63
     7
 74
     1
 91
        4
 64
     7
 65
   257
 75
     1
175
     1
 42
1.0
 92
        9
 66
     7
 43
1.0
 76
     1
 77
     6
 78
     2
 67
     7
 79
     5
170
     0
171
     0
290
     0
174
     0
 93
        1
 44
0.0
173
     0
291
     1
 45
0.0
1001
ACAD
1000
AcDbSavedByObjectVersion
1070
     0
  0
VISUALSTYLE
  5
F9
102
{ACAD_XDICTIONARY
360
116EB
102
}
102
{ACAD_REACTORS
330
EF
102
}
330
EF
100
AcDbVisualStyle
  2
Realistic
 70
     8
 71
     2
 72
     2
 73
     0
 90
        2
 40
-0.6
 41
30.0
 62
     5
 63
     7
 74
     0
 91
        0
 64
     7
 65
   257
 75
     1
175
     1
 42
1.0
 92
        8
 66
   257
 43
1.0
 76
     1
 77
     6
 78
     2
 67
     7
 79
     3
170
     0
171
     0
290
     0
174
     0
 93
       13
 44
0.0
173
     0
291
     0
 45
0.0
1001
ACAD
1000
AcDbSavedByObjectVersion
1070
     0
  0
VISUALSTYLE
  5
1F3
102
{ACAD_XDICTIONARY
360
11709
102
}
102
{ACAD_REACTORS
330
EF
102
}
330
EF
100
AcDbVisualStyle
  2
Shaded
 70
    27
 71
     2
 72
     2
 73
     1
 90
        2
 40
-0.6
 41
30.0
 62
     5
 63
     7
 74
     0
 91
        4
 64
     7
 65
   257
 75
     1
175
     1
 42
1.0
 92
        8
 66
   257
 43
1.0
 76
     1
 77
     6
 78
     2
 67
     8
 79
     3
170
     0
171
     0
290
     0
174
     0
 93
        5
 44
0.0
173
     0
291
     0
 45
0.0
1001
ACAD
1000
AcDbSavedByObjectVersion
1070
     0
  0
VISUALSTYLE
  5
1F2
102
{ACAD_XDICTIONARY
360
11707
102
}
102
{ACAD_REACTORS
330
EF
102
}
330
EF
100
AcDbVisualStyle
  2
Shaded with edges
 70
    26
 71
     2
 72
     2
 73
     1
 90
        2
 40
-0.6
 41
30.0
 62
     5
 63
     7
 74
     1
 91
        2
 64
     7
 65
   257
 75
     2
175
     1
 42
1.0
 92
        8
 66
   257
 43
1.0
 76
     1
 77
     6
 78
     2
 67
     7
 79
     3
170
     0
171
     0
290
     0
174
     0
 93
        5
 44
0.0
173
     0
291
     0
 45
0.0
1001
ACAD
1000
AcDbSavedByObjectVersion
1070
     0
  0
VISUALSTYLE
  5
1EF
102
{ACAD_XDICTIONARY
360
11701
102
}
102
{ACAD_REACTORS
330
EF
102
}
330
EF
100
AcDbVisualStyle
  2
Shades of Gray
 70
    23
 71
     2
 72
     2
 73
     3
 90
        0
 40
-0.6
 41
-30.0
 62
     5
 63
     7
 74
     2
 91
        2
 64
     7
 65
     7
 75
     1
175
     1
 42
40.0
 92
        8
 66
     7
 43
1.0
 76
     1
 77
     6
 78
     2
 67
     7
 79
     3
170
     0
171
     0
290
     0
174
     0
 93
        1
 44
0.0
173
     0
291
     0
 45
0.0
1001
ACAD
1000
AcDbSavedByObjectVersion
1070
     0
  0
VISUALSTYLE
  5
1F0
102
{ACAD_XDICTIONARY
360
11703
102
}
102
{ACAD_REACTORS
330
EF
102
}
330
EF
100
AcDbVisualStyle
  2
Sketchy
 70
    24
 71
     1
 72
     2
 73
     2
 90
        0
 40
-0.6
 41
-30.0
 62
     5
 63
     7
 74
     2
 91
        2
 64
     7
 65
     7
 75
     1
175
     1
 42
40.0
 92
       11
 66
     7
 43
1.0
 76
     1
 77
     6
 78
     2
 67
     7
 79
     6
170
     0
171
     0
290
     0
174
     0
 93
        1
 44
0.0
173
     0
291
     0
 45
0.0
1001
ACAD
1000
AcDbSavedByObjectVersion
1070
     0
  0
VISUALSTYLE
  5
FC
102
{ACAD_XDICTIONARY
360
116F1
102
}
102
{ACAD_REACTORS
330
EF
102
}
330
EF
100
AcDbVisualStyle
  2
Thicken
 70
    13
 71
     2
 72
     2
 73
     1
 90
        0
 40
-0.6
 41
-30.0
 62
     5
 63
     7
 74
     1
 91
        4
 64
     7
 65
   257
 75
     1
175
     1
 42
1.0
 92
       12
 66
     7
 43
1.0
 76
     1
 77
     6
 78
     2
 67
     7
 79
     5
170
     0
171
     0
290
     0
174
     0
 93
        1
 44
0.0
173
     0
291
     1
 45
0.0
1001
ACAD
1000
AcDbSavedByObjectVersion
1070
     0
  0
VISUALSTYLE
  5
F6
102
{ACAD_XDICTIONARY
360
116E5
102
}
102
{ACAD_REACTORS
330
EF
102
}
330
EF
100
AcDbVisualStyle
  2
Wireframe
 70
     5
 71
     0
 72
     2
 73
     0
 90
        0
 40
-0.6
 41
-30.0
 62
     5
 63
     7
 74
     1
 91
        4
 64
     7
 65
   257
 75
     1
175
     1
 42
1.0
 92
        0
 66
   257
 43
1.0
 76
     1
 77
     6
 78
     2
 67
     7
 79
     3
170
     0
171
     0
290
     0
174
     0
 93
        1
 44
0.0
173
     0
291
     0
 45
0.0
1001
ACAD
1000
AcDbSavedByObjectVersion
1070
     0
  0
VISUALSTYLE
  5
1F1
102
{ACAD_XDICTIONARY
360
11705
102
}
102
{ACAD_REACTORS
330
EF
102
}
330
EF
100
AcDbVisualStyle
  2
X-Ray
 70
    25
 71
     2
 72
     2
 73
     1
 90
        1
 40
0.5
 41
-30.0
 62
     5
 63
     7
 74
     1
 91
        0
 64
     7
 65
   257
 75
     1
175
     1
 42
1.0
 92
        8
 66
     7
 43
1.0
 76
     1
 77
     6
 78
     2
 67
     7
 79
     3
170
     0
171
     0
290
     0
174
     0
 93
       13
 44
0.0
173
     0
291
     0
 45
0.0
1001
ACAD
1000
AcDbSavedByObjectVersion
1070
     0
  0
DICTIONARYVAR
  5
146
102
{ACAD_REACTORS
330
5E
102
}
330
5E
100
DictionaryVariables
280
     0
  1
1:1
  0
DICTIONARYVAR
  5
259
102
{ACAD_REACTORS
330
5E
102
}
330
5E
100
DictionaryVariables
280
     0
  1
3.500000
  0
DICTIONARYVAR
  5
25A
102
{ACAD_REACTORS
330
5E
102
}
330
5E
100
DictionaryVariables
280
     0
  1
acadiso.lin
  0
DICTIONARYVAR
  5
145
102
{ACAD_REACTORS
330
5E
102
}
330
5E
100
DictionaryVariables
280
     0
  1
STANDARD
  0
DICTIONARYVAR
  5
84
102
{ACAD_REACTORS
330
5E
102
}
330
5E
100
DictionaryVariables
280
     0
  1
STANDARD
  0
DICTIONARYVAR
  5
227
102
{ACAD_REACTORS
330
5E
102
}
330
5E
100
DictionaryVariables
280
     0
  1
Metric50
  0
DICTIONARYVAR
  5
228
102
{ACAD_REACTORS
330
5E
102
}
330
5E
100
DictionaryVariables
280
     0
  1
Metric50
  0
DICTIONARYVAR
  5
5F
102
{ACAD_REACTORS
330
5E
102
}
330
5E
100
DictionaryVariables
280
     0
  1
2
  0
DICTIONARYVAR
  5
63
102
{ACAD_REACTORS
330
5E
102
}
330
5E
100
DictionaryVariables
280
     0
  1
1
  0
DICTIONARYVAR
  5
1167A
102
{ACAD_REACTORS
330
5E
102
}
330
5E
100
DictionaryVariables
280
     0
  1
0
  0
DICTIONARYVAR
  5
1AE
102
{ACAD_REACTORS
330
5E
102
}
330
5E
100
DictionaryVariables
280
     0
  1
0
  0
DICTIONARYVAR
  5
1AF
102
{ACAD_REACTORS
330
5E
102
}
330
5E
100
DictionaryVariables
280
     0
  1
0
  0
DICTIONARYVAR
  5
11678
102
{ACAD_REACTORS
330
5E
102
}
330
5E
100
DictionaryVariables
280
     0
  1
2
  0
DICTIONARYVAR
  5
11677
102
{ACAD_REACTORS
330
5E
102
}
330
5E
100
DictionaryVariables
280
     0
  1
1
  0
DICTIONARYVAR
  5
116CA
102
{ACAD_REACTORS
330
5E
102
}
330
5E
100
DictionaryVariables
280
     0
  1
80.000000
  0
DICTIONARYVAR
  5
116C9
102
{ACAD_REACTORS
330
5E
102
}
330
5E
100
DictionaryVariables
280
     0
  1
5.000000
  0
DICTIONARYVAR
  5
11679
102
{ACAD_REACTORS
330
5E
102
}
330
5E
100
DictionaryVariables
280
     0
  1
127
  0
DICTIONARYVAR
  5
116CB
102
{ACAD_REACTORS
330
5E
102
}
330
5E
100
DictionaryVariables
280
     0
  1
2
  0
DICTIONARY
  5
1170D
330
21C
100
AcDbDictionary
280
     1
281
     1
  3
ACAD_XREC_ROUNDTRIP
360
1170E
  0
DICTIONARY
  5
116D2
330
D3
100
AcDbDictionary
280
     1
281
     1
  3
ACAD_XREC_ROUNDTRIP
360
116D3
  0
DICTIONARY
  5
116D4
330
D7
100
AcDbDictionary
280
     1
281
     1
  3
ACAD_XREC_ROUNDTRIP
360
116D5
  0
DICTIONARY
  5
116CF
330
22
100
AcDbDictionary
280
     1
281
     1
  3
ACAD_XREC_ROUNDTRIP
360
116D0
  0
DICTIONARY
  5
1F9
330
ED
100
AcDbDictionary
280
     1
281
     1
  3
ACAD_XREC_ROUNDTRIP
360
116D7
  3
FBXASSET
360
1FA
  0
DICTIONARY
  5
1F7
330
EC
100
AcDbDictionary
280
     1
281
     1
  3
ACAD_XREC_ROUNDTRIP
360
116D6
  3
FBXASSET
360
1F8
  0
DICTIONARY
  5
173
330
EE
100
AcDbDictionary
280
     1
281
     1
  3
ACAD_XREC_ROUNDTRIP
360
116D8
  3
BUMPTILE
360
175
  3
DIFFUSETILE
360
174
  3
FBXASSET
360
1FB
  3
OPACITYTILE
360
176
  3
REFLECTIONTILE
360
177
  0
DICTIONARY
  5
116F9
330
12E
100
AcDbDictionary
280
     1
281
     1
  3
ACAD_XREC_ROUNDTRIP
360
116FA
  0
DICTIONARY
  5
1170B
330
21A
100
AcDbDictionary
280
     1
281
     1
  3
ACAD_XREC_ROUNDTRIP
360
1170C
  0
DICTIONARY
  5
162
330
7F
100
AcDbDictionary
280
     1
281
     1
  3
ACAD_ROUNDTRIP_2008_TABLESTYLE_CELLSTYLEMAP
360
116CC
  3
ACAD_XREC_ROUNDTRIP
360
116D1
  0
DICTIONARY
  5
116E3
330
F5
100
AcDbDictionary
280
     1
281
     1
  3
ACAD_XREC_ROUNDTRIP
360
116E4
  0
DICTIONARY
  5
116E1
330
F4
100
AcDbDictionary
280
     1
281
     1
  3
ACAD_XREC_ROUNDTRIP
360
116E2
  0
DICTIONARY
  5
116EF
330
FB
100
AcDbDictionary
280
     1
281
     1
  3
ACAD_XREC_ROUNDTRIP
360
116F0
  0
DICTIONARY
  5
116F7
330
FF
100
AcDbDictionary
280
     1
281
     1
  3
ACAD_XREC_ROUNDTRIP
360
116F8
  0
DICTIONARY
  5
116E9
330
F8
100
AcDbDictionary
280
     1
281
     1
  3
ACAD_XREC_ROUNDTRIP
360
116EA
  0
DICTIONARY
  5
116ED
330
FA
100
AcDbDictionary
280
     1
281
     1
  3
ACAD_XREC_ROUNDTRIP
360
116EE
  0
DICTIONARY
  5
116FF
330
1E6
100
AcDbDictionary
280
     1
281
     1
  3
ACAD_XREC_ROUNDTRIP
360
11700
  0
DICTIONARY
  5
116F5
330
FE
100
AcDbDictionary
280
     1
281
     1
  3
ACAD_XREC_ROUNDTRIP
360
116F6
  0
DICTIONARY
  5
116D9
330
F0
100
AcDbDictionary
280
     1
281
     1
  3
ACAD_XREC_ROUNDTRIP
360
116DA
  0
DICTIONARY
  5
116DB
330
F1
100
AcDbDictionary
280
     1
281
     1
  3
ACAD_XREC_ROUNDTRIP
360
116DC
  0
DICTIONARY
  5
116DD
330
F2
100
AcDbDictionary
280
     1
281
     1
  3
ACAD_XREC_ROUNDTRIP
360
116DE
  0
DICTIONARY
  5
116DF
330
F3
100
AcDbDictionary
280
     1
281
     1
  3
ACAD_XREC_ROUNDTRIP
360
116E0
  0
DICTIONARY
  5
116E7
330
F7
100
AcDbDictionary
280
     1
281
     1
  3
ACAD_XREC_ROUNDTRIP
360
116E8
  0
DICTIONARY
  5
116FB
330
1E4
100
AcDbDictionary
280
     1
281
     1
  3
ACAD_XREC_ROUNDTRIP
360
116FC
  0
DICTIONARY
  5
116F3
330
FD
100
AcDbDictionary
280
     1
281
     1
  3
ACAD_XREC_ROUNDTRIP
360
116F4
  0
DICTIONARY
  5
116FD
330
1E5
100
AcDbDictionary
280
     1
281
     1
  3
ACAD_XREC_ROUNDTRIP
360
116FE
  0
DICTIONARY
  5
116EB
330
F9
100
AcDbDictionary
280
     1
281
     1
  3
ACAD_XREC_ROUNDTRIP
360
116EC
  0
DICTIONARY
  5
11709
330
1F3
100
AcDbDictionary
280
     1
281
     1
  3
ACAD_XREC_ROUNDTRIP
360
1170A
  0
DICTIONARY
  5
11707
330
1F2
100
AcDbDictionary
280
     1
281
     1
  3
ACAD_XREC_ROUNDTRIP
360
11708
  0
DICTIONARY
  5
11701
330
1EF
100
AcDbDictionary
280
     1
281
     1
  3
ACAD_XREC_ROUNDTRIP
360
11702
  0
DICTIONARY
  5
11703
330
1F0
100
AcDbDictionary
280
     1
281
     1
  3
ACAD_XREC_ROUNDTRIP
360
11704
  0
DICTIONARY
  5
116F1
330
FC
100
AcDbDictionary
280
     1
281
     1
  3
ACAD_XREC_ROUNDTRIP
360
116F2
  0
DICTIONARY
  5
116E5
330
F6
100
AcDbDictionary
280
     1
281
     1
  3
ACAD_XREC_ROUNDTRIP
360
116E6
  0
DICTIONARY
  5
11705
330
1F1
100
AcDbDictionary
280
     1
281
     1
  3
ACAD_XREC_ROUNDTRIP
360
11706
  0
XRECORD
  5
1170E
102
{ACAD_REACTORS
330
1170D
102
}
330
1170D
100
AcDbXrecord
280
     1
102
DISPLAYNAME
  1
Metric50
102
FLAGS
 90
        0
  0
XRECORD
  5
116D3
102
{ACAD_REACTORS
330
116D2
102
}
330
116D2
100
AcDbXrecord
280
     1
102
SHADEPLOT
 70
     0
102
SHADEPLOTRESLEVEL
 70
     2
102
SHADEPLOTCUSTOMDPI
 70
   300
  0
XRECORD
  5
116D5
102
{ACAD_REACTORS
330
116D4
102
}
330
116D4
100
AcDbXrecord
280
     1
102
SHADEPLOT
 70
     0
102
SHADEPLOTRESLEVEL
 70
     2
102
SHADEPLOTCUSTOMDPI
 70
   300
  0
XRECORD
  5
116D0
102
{ACAD_REACTORS
330
116CF
102
}
330
116CF
100
AcDbXrecord
280
     1
102
SHADEPLOT
 70
     0
102
SHADEPLOTRESLEVEL
 70
     2
102
SHADEPLOTCUSTOMDPI
 70
   300
  0
XRECORD
  5
116D7
102
{ACAD_REACTORS
330
1F9
102
}
330
1F9
100
AcDbXrecord
280
     1
102
MATERIAL
148
0.0
149
0.0
149
0.0
 93
        0
 94
       63
282
     0
 72
     1
 77
     1
171
     1
175
     1
179
     1
273
     0
  0
XRECORD
  5
1FA
102
{ACAD_REACTORS
330
1F9
102
}
330
1F9
100
AcDbXrecord
280
     1
 70
     1
 90
429727718
  1
D62C5603-E3A1-4AEA-B7FB-FE5D8D0755AF
310
504B03040A0000080000CC70623B3DEE336E79000000790000001B0000006175746F6465736B2D64657369676E2D7061636B6167652E786D6C3C3F786D6C2076657273696F6E3D22312E302220656E636F64696E673D227574662D3822203F3E3C666F726D6174733E3C666F726D61743E687474703A2F2F736368656D612E
310
6175746F6465736B2E636F6D2F64657369676E2D7061636B6167652F323030393C2F666F726D61743E3C2F666F726D6174733E504B0304140006080800CC70623BD486FD9CA0000000F4000000130000005B436F6E74656E745F54797065735D2E786D6C7D8EC10E82300C865F65E91D8A1E8C310C0EEA1BF002731658846E
310
D98AC1B77784ABF1D8FE5FBFBF75BBCE937A534CCEB38643598122B6FEE978D0B0485F9C41B54DDD7D022595594E1A469170414C76A4D9A4D207E29CF43ECE46F218070CC6BECC4078ACAA135ACF422C856C0E68EA1BF5669944DDD7BCDE7B1F8E415D77AECB980613C2E4AC91FC167A2B244592486606FC29C8FD7F045B9A
310
EF7053A7E60B504B0304140006080800CC70623B853B8169EB0000007C01000008000000636F72652E786D6C8D90416EC3201045AF62CDB6C206821CC7C244919D9CA01740401C94182C03558F5F9C3852BBEB6A467FFE9B197D7EFC9E1EC5975982F5AE035262288C535E5B377690E21535501C055FBC8FBF6C503839990E
310
5619041F179FE64D52DE45E362569DD7661365082642A11EB9E920A89B99642953CC8E702F67A9EE7234257977194EC9EAE275C4EABCCF5EAD5940D4AC6F0E35A568B8F43562CD7046CD199FD07E60174276A7BE677B5EADB0E0D14EEFFB6A31321A0D82627C4084204C3F096B71DD52F6819B16635EADF63F509AF53FA164
310
5DDCD1EDDD17164090FCC8732078B56691CB33A85CD7DCC40F504B0304140006080800CC70623B55019EA25F0000007C00000007000000636E782E786D6C4DCB3B0E80201045D1AD90E915ED2CF8AC45050C11660C8261F98AB1B07AC9C97D42D718D865D3E909258CFD00CCE24AC6E326A164D74DC0B4128928FF32603847
310
2BA13128B1252AC747C6BAB984FC68F0B87FE8960A5C09FE86CFB69FBA01504B0304140006080800CC70623BDBABAAF470010000D40300000C0000006662782F636F72652E786D6CC553D16E823014FD95A6AF4B694182CC941A83FA05FB810A9511A125A5257EFE2E82712ECEB8A7F100CD39F7F69E734AF9FADC366850B6
310
AF8DCE7018308C942E4C59EB2AC3DE1D498AD15A706B8CFB56869196ADCAF00863C12B6B7C374385D14E6907A836A59A41D9F7CA615434B0C8705F7CAA5606D23BA8E84F41278B93AC54100640439DE0BDB320004D43C63716C7C399D30917DCFBBA9CD9BA8469F5B156168B24CED3F7248AC8769F27244EB73B92EED8862C
310
B7F13E0C179B3C8F979C8ECD82BBBABDAA2BAC924E9558448CBD9330242CFA08E3154B5651FCC6D215639C8EE5774DBE2B5F6CF2B5768B68963BB5F5588420E442FC700B1139D4CB01F450C1E918227C2E09DF070D8140C84E1E9AAB8F1340832A9CB13130A5F1376A908D57309505ECF2A0DF179C4E9D30F5B239B87E3823
310
7A79C6F31DE1A8A5AEC08474B03C7837EAE4938639B44E5932B833D2C6B6B279CDC613877FA26EE21F4A2A4C63EC7F29A2F301D1F9F7A0E37D145F504B0304140006080800CC70623B9C113CC27E0000009D0000000B0000006662782F636E782E786D6C4DCCDF0A83201C86E15B91DFB94BFB330DD428C8FB886521330DA7
310
6397BF1A1DECE883878F57749FCDA1B7892F1BBC047A23808C7F84D9FA55424E0BE6803A256208E9EF06C84F9B91703228B1C690F78B66B34CD9A5439DF5CF0BFBF65E35BCA1B8D6A5C6F540381E886698B5741C695F9503EBA150A2F8958E3DC3EA0B504B0304140006080800CC70623B7DF2F77C2A010000120200003100
310
00006662782F41393633353835312D344632462D344230382D423046372D3739314545314133324237412F636F72652E786D6C8D51DB8EC22014FC15C2939B0D2DB4B45643319AE817EC0F6041255A68B86CFCFC856D4D76DF7CE190393373060EDB3DC707F856CE6B6B7A480A0C81328395DA5C7B18C3057510EC3873D686
310
3F34088C18550F330C39BB3A1BA7051AAC09CA84841A2BD5020AEF55806078A44B0FFD7053A328440C89E1EFC52486BBB8AA8214A99D789CF9E05200300FC927E4FB4D5B375D43103D5527440FB843077C5AA3F5861C8F645F5787F59E95B390B318B55CE45AA638FAA2957BD7248B390B7A7CC51F9C124149C82B8C378810
310
84AB2F42B7B8DD56F413775B8C5999E9FF4471926F8AA236A1AE96B8B3CC434E5839373893369E1FAF30EA395917409EB7F26AF8801C171837A4A6AC9C89E9F9C9B1A58BA30FD6A5EF5DDDCF894B9AD9B6A59C957943A9FCAE2FD5BC4DFE03504B0304140006080800CC70623BAD7543B64E01000033030000300000006662
310
782F41393633353835312D344632462D344230382D423046372D3739314545314133324237412F636E782E786D6CD593CD6EC32010845F0571AD6CE3D48AD20813A9873E410FBD12D82434182C7EAAE6EDBB2424CD25871E7B41D6EC30B3FA84F9E67BB2E40B4234DE8DB46F1925E094D7C6ED479AD3AE5951B2113C789FEE
310
6C943839C1488B4C05DF079FE72A69D8C96C13AAD6B8631503449F83828872B949AC57D26200B826A308D316B4064D6E46FCDA41C05550DC9E483A00797BFD207EFB092A45DE9514C1BBD22178396BD39D891265658C238DEA00936C654E5E433CB65A26D9F6EDB5EBC14EBF49A45CB856E66048291F6939A9A81BB5C89177
310
38143CA680F4AA299D66A042CEB3354A2684DC9D8D178FE0D9B8B41CAAD720F880EE7EF93C0C18769E099ECC04D5A102C8049A8A05632F4DDF376CF1DE0F6BB65C2F8627B65A33C6BB62177CEBBDAD973006829F89F22E814B54F4BC2BE347F8AA8F681390B50FA73F804400B5F542E796F19FF974E7F78DB802FE05E20750
310
4B0304140006080800CC70623BE75B7789680500003C100000340000006662782F41393633353835312D344632462D344230382D423046372D3739314545314133324237412F6F626A656374732E786D6CAD575B8F9B3818FD2B887D06C22499CB8AA1CA655245D5B455A356FB305264C061D8018C6C3393D95FBFC7600890
310
A4CD5EF210B0B1BFEBF98E3F7B1FF6596ABC522E1296DF9BAE3D320D9A872C4AF2F8DE2CE5CEBA358D0FBEC719939D65A691938CDE9B6ADAF4BD98B3B2D05311DD91329583D9D5FC0F438434A7A611A644887B5384CF34233629258BA878B12322891DEFF6B66BD70BFB62634E8AE781D082709A4B588AF91C528CDA28B73F
310
1C998EEF39EABBEFA97FBD6A7C7E9553F9D3D79FE442923C3C523610337627CB87ABE99D359D4CC6D6E4FACAB5E6ABF9D2726FC6A3C5F56271377BB88362213924694B38DD99FE47C48627A1E7D49F5A8BB5E1A74C0A599ED3B0F21F1E56366B89112D681E218F0915D0D6F17AD41FBA2A369DCF6335D62ABBD39779D5DDD1
310
11D4D8DE3CBB96B2E04FB8202E41051754A1AA8E8F76B4C6DFE810B580B1547F4B84911149794252234D024EF8BBE963A95AE27B3D310A9D5C215C7960FAEE415ED75694C6AFB17BCACA5D99A60A9AA65F217B0BFC53292ACB92BF283FAD0D3621576592CB5BED907C2FA8E9DF794E35E97BEA31BED21FEB401ABB94C44839
310
DCACBF0E1C5DA8DA5B2F4DFFD32AD86F543D9E565E7056502E157C00AD2671CD534549AB752FCA9CDA00677A313F04E51B22FF19E57B300579E3C97EB29F682D92935CEC18CF901B7B54FD8C51F362B56FC72FE0B3C1EAE335EDCCBF5AEC39ADB17DC238973F804BA5E6F6BFE7AF1FB32E523BE9F3BD571418E3631DCA4D48
310
5250CF639223210A9446CA30052EDF057BD35F8329C1ECD84552BF0DC8D18BE7BCE23BFE6BD960AB4A7DE79923A103BEBD80F911CBAA2C60DB19B01CF164A5583B772EE6D3FFA56666CBCDA74DC97724A48F9A58967497E489C4D979006FD7A05E227A1EBDD0F737C623387A9C844D3709995625106D157315F8B8392CD4E0
310
A0B9A720C4BE9829CEF37EA1E13111214D53925356365ADA634861B52519DD27A00AEB808EAF0628E6F435519D446F45CF2C9CF5214F0A15B2F6D06B79DA3EE3CBF7F56780D2F4E7EF73A0F5E5B02A38D07DC852C6B7C1FBB6664213E0C39E3EBA7FF4E1AD23EA2829407C85E586727488B751B2DB9502BC7B228A3FD68B6E
310
A65A22397E690AA8D158D7E404EC8CDA235CC3B7D1898680131CEC2CDF2638C65196279577750F15884AEE19F94199155B92B13297978469D4F8D358DF0AEF7631E28DC8F0D9F437D5D39A83B2231A1D52D543813A824EF8D44BCFF2FA6A31BD1E8DAD87F1CCB526B3879935BF59CDADD5C37479BB1CDD4CA7B3556B516589
310
EF352754B706114D9C885EC9131DE6EFEB43D99AFE2391C2F958179413D7CFEF6B1B6DB1E7600F00DE6E5C67454A339A4BA2E0FBA85ED26F045D454F463DBFCE484C2F90F2E5E3666003662ED8F755951A7D1BECD5B30B550B2785C8E7320B7292A4838DDA71BBC863ED7613CAF659337A3354231D4FF4A182A54904C2898C
310
98B28C4AD0CE056CCF332A80986E571EE9DBC305BB5FEB7E509220A58D25CF042D712A806AC0AD0C657FDEF80D2D9CEAA2EE4D1C76F60BFE74219A06527D6F82DF6412526107381E55E353090704D085B52408A8913C4ED159D79BDA71BB4BC506F4831350EB6F975CD22D69BF7AC49B91A2C0A9DDA3D5CA36AD20FC478E37
310
E61844E2352865EBCB61A275A65283CAAA9DD27703B4102F5AF51EF5F573B75CBB5AD38BC845F7A49F82A0966A49C2E3EA5EA0ECD326CD965F1DB402C6FA8B51A4658C5C5E2EC9E214602E55810345408596591009A82E7E7FFACA19EEA299B14A0081A705CB3296EBC14CDF658DCD336EA6D1136881AAEB87B81AB9EE53D5
310
F5EB8BC8362082DA24122F98680A4E7930C01A0079749CEA14382A0783E5EBA5A10F8C098456A03D6A4AEB6BB881E2513747552A5DB22C7EDAF83BD5528081A365F7FF06504B0304140006080000CC70623B000000000000000000000000350000006662782F41393633353835312D344632462D344230382D423046372D37
310
39314545314133324237412F76657274696365732E62696E504B0304140006080800CC70623BF270F1330600000004000000360000006662782F41393633353835312D344632462D344230382D423046372D3739314545314133324237412F747269616E676C65732E62696E636660600000504B0304140006080000CC7062
310
3B000000000000000000000000370000006662782F41393633353835312D344632462D344230382D423046372D3739314545314133324237412F617474726962757465732E62696E504B0304140006080800CC70623B08DA0BD19000000041010000360000006662782F41393633353835312D344632462D344230382D4230
310
46372D3739314545314133324237412F6469726563746F72792E786D6C858F410AC3201045AF22B36F53E9A60B35CBEEBAE80D244E44489C6234F4F835464A48035D0DF398FF9F8AF63D0E6CC63039F212F8F9020C7D47C6792B21C5FE7403D62A1188E2E60C98D7234A5830286103A55745067B9D86B8A3CF9C7F90C11DE6
310
07FB144396D7B6A82D282E9A152AD114D5EF2CB866EEE831B8EEA07A7BB5A8D7D61A2BAAEB7FD5F70921FF497D00504B0304140006080800CC70623BEDD1DC58FD000000A00100003B0000006662782F41393633353835312D344632462D344230382D423046372D3739314545314133324237412F7265736F75726365732F
310
636F72652E786D6C8D504B6E833010BD0A9A6D65B00922041947112427E8052C33A156828DFCA97AFC9A40A576D7CDCCE87D344F8F9FBFE667F689CE6B6B3A6039850C8DB2A336530731DC4903D95970676DF82583CCC8193B5861107C72362E3BA4AC096842428D1D7107A5F7182053CF7474E0D507CE32973124857FE48B
310
540F3961CEF244279DE03EB81420DB9EAC1384436FA353E879B1B182C7A8C75DA3C7F453DF353A1075D537A7BA6464B8F535A99AE14A9A2BBD90E350DD183B5CFABE3AF262350B1EF4FC9351399401471025A527C218A1E53BAB5A5AB765F5469B96525EACF23FA6B88CFF34456DC2A1DCE36E360F82A5202F42F062ED2BAD
310
579969AFDD8A6F504B010214000A0000080000CC70623B3DEE336E79000000790000001B00000000000000000000000000000000006175746F6465736B2D64657369676E2D7061636B6167652E786D6C504B01021400140006080800CC70623BD486FD9CA0000000F40000001300000000000000000000000000B20000005B
310
436F6E74656E745F54797065735D2E786D6C504B01021400140006080800CC70623B853B8169EB0000007C010000080000000000000000000000000083010000636F72652E786D6C504B01021400140006080800CC70623B55019EA25F0000007C000000070000000000000000000000000094020000636E782E786D6C504B
310
01021400140006080800CC70623BDBABAAF470010000D40300000C00000000000000000000000000180300006662782F636F72652E786D6C504B01021400140006080800CC70623B9C113CC27E0000009D0000000B00000000000000000000000000B20400006662782F636E782E786D6C504B01021400140006080800CC70
310
623B7DF2F77C2A010000120200003100000000000000000000000000590500006662782F41393633353835312D344632462D344230382D423046372D3739314545314133324237412F636F72652E786D6C504B01021400140006080800CC70623BAD7543B64E010000330300003000000000000000000000000000D2060000
310
6662782F41393633353835312D344632462D344230382D423046372D3739314545314133324237412F636E782E786D6C504B01021400140006080800CC70623BE75B7789680500003C10000034000000000000000000000000006E0800006662782F41393633353835312D344632462D344230382D423046372D3739314545
310
314133324237412F6F626A656374732E786D6C504B01021400140006080000CC70623B0000000000000000000000003500000000000000000000000000280E00006662782F41393633353835312D344632462D344230382D423046372D3739314545314133324237412F76657274696365732E62696E504B01021400140006
310
080800CC70623BF270F133060000000400000036000000000000000000000000007B0E00006662782F41393633353835312D344632462D344230382D423046372D3739314545314133324237412F747269616E676C65732E62696E504B01021400140006080000CC70623B0000000000000000000000003700000000000000
310
000000000000D50E00006662782F41393633353835312D344632462D344230382D423046372D3739314545314133324237412F617474726962757465732E62696E504B01021400140006080800CC70623B08DA0BD1900000004101000036000000000000000000000000002A0F00006662782F41393633353835312D344632
310
462D344230382D423046372D3739314545314133324237412F6469726563746F72792E786D6C504B01021400140006080800CC70623BEDD1DC58FD000000A00100003B000000000000000000000000000E1000006662782F41393633353835312D344632462D344230382D423046372D3739314545314133324237412F7265
310
736F75726365732F636F72652E786D6C504B0506000000000E000E0080040000641100000000
  0
XRECORD
  5
116D6
102
{ACAD_REACTORS
330
1F7
102
}
330
1F7
100
AcDbXrecord
280
     1
102
MATERIAL
148
0.0
149
0.0
149
0.0
 93
        0
 94
       63
282
     0
 72
     1
 77
     1
171
     1
175
     1
179
     1
273
     0
  0
XRECORD
  5
1F8
102
{ACAD_REACTORS
330
1F7
102
}
330
1F7
100
AcDbXrecord
280
     1
 70
     1
 90
429727718
  1
30362254-06B7-45E0-A893-8CFA70E3D6BC
310
504B03040A0000080000CC70623B3DEE336E79000000790000001B0000006175746F6465736B2D64657369676E2D7061636B6167652E786D6C3C3F786D6C2076657273696F6E3D22312E302220656E636F64696E673D227574662D3822203F3E3C666F726D6174733E3C666F726D61743E687474703A2F2F736368656D612E
310
6175746F6465736B2E636F6D2F64657369676E2D7061636B6167652F323030393C2F666F726D61743E3C2F666F726D6174733E504B0304140006080800CC70623BD486FD9CA0000000F4000000130000005B436F6E74656E745F54797065735D2E786D6C7D8EC10E82300C865F65E91D8A1E8C310C0EEA1BF002731658846E
310
D98AC1B77784ABF1D8FE5FBFBF75BBCE937A534CCEB38643598122B6FEE978D0B0485F9C41B54DDD7D022595594E1A469170414C76A4D9A4D207E29CF43ECE46F218070CC6BECC4078ACAA135ACF422C856C0E68EA1BF5669944DDD7BCDE7B1F8E415D77AECB980613C2E4AC91FC167A2B244592486606FC29C8FD7F045B9A
310
EF7053A7E60B504B0304140006080800CC70623B1EC5D7A3EB0000007C01000008000000636F72652E786D6C8D90416EC3201045AF82665B6103C6756C6122AB4D4ED00B204C5C94182C03558F5F9C3852BBEB6A467FFE9B197D71FC9E6FE8CBACC17AD7032D0820E3B41FAD9B7A48F1820F808E52ACDEC75F36404ECDA687
310
4D0629A6D5A76597B477D1B89855E747B38B2A041301E95B6E7A08FAD3CCAA50296647B8168BD2573599823EBB0CA76447F43862C7BCCF5EAC59410E4DDD9C7973C2755553CCCFA4C603E3040F1565ED3B1FDE4E432BCA0D9622DAF9795FAF464533826484B498524CD807E51D79ED187F21878E10516EF63F505AC67F42C9
310
BA58B1FDDD071640D2FCC87D2045B96591CB3DA85CB7DCE40F504B0304140006080800CC70623B55019EA25F0000007C00000007000000636E782E786D6C4DCB3B0E80201045D1AD90E915ED2CF8AC45050C11660C8261F98AB1B07AC9C97D42D718D865D3E909258CFD00CCE24AC6E326A164D74DC0B4128928FF32603847
310
2BA13128B1252AC747C6BAB984FC68F0B87FE8960A5C09FE86CFB69FBA01504B0304140006080800CC70623B8C9102E971010000D40300000C0000006662782F636F72652E786D6CC5535B6E833010BC8AE5DF0A6C08340F1947A84D4ED00B38C6A128602363A31CBFCB234A53A551FA553EC09AD9F5CE8C31DB9E9B1AF5CA
310
7695D1198E428A91D2D214952E33ECDD315861B4E5CC1AE3BE9561A445A3323CC098B3D21ADFCE9034DA29ED00D5A6503328BA4E398C640D8B0C77F253352214DE4145770A5B214FA2546114020D759C75CE8200340D19DE981F0F6746269C33EFAB6266AB02A655C74A59CCF365BADC27CB5D902ED22848F6340DF238A141
310
BE88E2F57B92BFEDF23523433367AE6A2EEAA455C2A902F398D2751045018D3FA264435F3771F242571B4A1919CA6F9A7C5B3CD9E42BED16F12C776AEB308F40C848FC700B1139D4891EF410CEC810227CC6846F8386402064270EF5C5C709A05E49676C024C61FC95EA45ED154CA5211D1FF4FB8291A913A68E9B83EBBB33
310
E2A7673CDE118E5AE8124C0807CB8377834E366998436B950D7A7746DAD846D4CFD978E0F04FD455FC5D49D2D4C6FE9722321F10997F0F32DC47FE05504B0304140006080800CC70623BFFEA85907E0000009D0000000B0000006662782F636E782E786D6C4DCCD10A83201886E15B91FFDC95D95A811AB6F23E625948A6C3
310
E9D8E5AF46073BFAE0E1E365ED67B3E8ADC3CB78C7815C7240DA3DFC64DCC221C519D7805AC182F7F1EF06C88D9BE6703008B6049F9E274D7A1E938DBB5AE3D6131B2589BA0D3D965551E0B2EA732C9B9A624AAEB41E3A557677029960D9AFB4EF11165F504B0304140006080800CC70623B4FEEA4082C0100001202000031
310
0000006662782F39464131463745442D413632322D343644302D413938332D3331353338454246344243312F636F72652E786D6C8D515B6EC32010BC0AE2AB55850DD871ED0813254D72825EC00192A2C460F1A872FC42ED48ED5F7E00CDCECCCEB26C731F6FE05B39AFADE921293004CA082BB5B9F43086336A21D870E6AC
310
0D7F68109861543DCC30E4ECE26C9C164858139409093556AA051CBC570102714B8F1E7AF1A5C6A11862480C7F2DA6415C878B2A4891CA89C7990F2E050073937C42DE1DB7E4F87ED8A36D4329AA9B3D46DBAEAD504556557BD81DEBDD0761E52CE42C462D17B996298E3E6BE59E35C962CE821E1FF18553435012728A7187
310
0841987E927A8D9B35ADDF70BBC6989599FE4F1427F9A4286A132ABAC49D651EF234CD5CE04CDA78BA3DC2A8FB645D00B9DF8B57E215725C60BCA2A463E54C4CE327C7A65E1C7DB02E7DEFCBF594B864C5CA6CDBD49C957943E9FA5D5FBAF336F90F504B0304140006080800CC70623BAD7543B64E01000033030000300000
310
006662782F39464131463745442D413632322D343644302D413938332D3331353338454246344243312F636E782E786D6CD593CD6EC32010845F0571AD6CE3D48AD20813A9873E410FBD12D82434182C7EAAE6EDBB2424CD25871E7B41D6EC30B3FA84F9E67BB2E40B4234DE8DB46F1925E094D7C6ED479AD3AE5951B2113C
310
789FEE6C943839C1488B4C05DF079FE72A69D8C96C13AAD6B8631503449F83828872B949AC57D26200B826A308D316B4064D6E46FCDA41C05550DC9E483A00797BFD207EFB092A45DE9514C1BBD22178396BD39D891265658C238DEA00936C654E5E433CB65A26D9F6EDB5EBC14EBF49A45CB856E66048291F6939A9A81BB5
310
C8917738143CA680F4AA299D66A042CEB3354A2684DC9D8D178FE0D9B8B41CAAD720F880EE7EF93C0C18769E099ECC04D5A102C8049A8A05632F4DDF376CF1DE0F6BB65C2F8627B65A33C6BB62177CEBBDAD973006829F89F22E814B54F4BC2BE347F8AA8F681390B50FA73F804400B5F542E796F19FF974E7F78DB802FE05
310
E207504B0304140006080800CC70623B16AB87BA640500003C100000340000006662782F39464131463745442D413632322D343644302D413938332D3331353338454246344243312F6F626A656374732E786D6CAD575B6FA33818FD2B887DE6924B3BED8A326A92B68A663B534DD4D13E548A0C38942D60649B369D5FBFC7
310
600890A493BDE42160637FD7F31D7FF63E6FB3D478A55C242CBF3247B66B1A340F5994E4F19559CA8D75611A9F7D8F33263BCB4C232719BD32D5B4E97B316765A1A722BA21652A07B3B7B33F0D11D29C9A46981221AE4C113ED38CD8A4942CA2E2C58E882476BCD9DA23BB5ED8171B73523C0F841684D35CC252CCE79062D4
310
468DFA43D7747CCF51DF7D4FFDEB5593E3AB9CCA9FBEFE241792E4E19EB28198C968BAB8199F5D5A67D3E9C49A9E8F47D6EC76B6B0469F26EEFC7C3EBFBCBEB98462213924694B38DD98FE1D62C393D073EA4FADC5DAF04326852CCF6958F90F0F2B9BB5C48816348F90C7840A68EB78EDF68723159BCEE7891A6B95DDE9D3
310
BCEAEEE8086A6C6F9E5D4B59F0175C10A7A0820BAA5055C7473B5AE3CFDD452D602CD5DF12616444529E90D448938013FE6EFA58AA96F85E4F8C42275708571E98FE6827AF6B2B4AE3D7D83D64E5A64C53054DD3AF90BD06FEA9149565C94FCA0F6B834DC85599E4F2423B24DF0B6AFA979E534DFA9E7A4CC6FA631D486393
310
921829879BF5D781A373557BCB85E97FB90DB62B558F8795179C15944B051F40AB495CF35451D26A4727654E6D8033BD98EF82F21D91FF8AF2DD9982BCF1643BDD4EB516C9492E368C67C88DED563FC36D5EACF66DFF057C3658BDBFA69DF9578B3DA735B64F18C7F20770A9D45CFCF7FCF563D6456A277DBEF78A02637CA2
310
43B90A490AEAB94F72244481D24819A6C0E59B606BFA4B3025981DBB48EAB701D97BF19C577CC77F2D1B6C55A9EF3C732474C0B727303F625995056C3B02963D9EAC146BE78EC5FCEC7FA999EBC5EACBAAE41B12D27B4D2C0BBA49F244E2ECDC81B76B502F113D8F5EE8FB1BE3111CDD4FC2AA9B844CAB1288B68AB90A7CDC
310
1C166AB0D3DC5310625FCC14E779BFD0709F8890A629C9292B1B2DED31A4B0DA928CEE135085754027E3018A397D4D5427D15BD1330B677DC8934285AC3DF45A9EB68FF8F2B8FC0A509AFEECFD0FF2DE25CC6047F7214B195F07EFEB9A094D800F7BFAE8FED187B78EA8A3A400F115961BCAD1215E47C966530AF0EE8128FE
310
58CEBB996A8964FFA529A046635D9353B0336A8F700DDF46271A024E70B0B37C9DE01847591E54DED53D54202AB947E4076556AC49C6CA5C9E1226B7F1A7B1BE15DEED62C41B91E1B3E9AFAAA735036547343A925075041DF0A9979E893B391F8FCFA6967B3EFB644DCF6E5CEBFAE272625DCC6FAF3FB93793C5F90CE1EF57
310
407342756B10D1C489E8953CD1617E5CEECAD6F4EF8914CE5D5D504E5C3F1F9736DA62CFC11E00BCDDB8CC8A9466349744C1F75EBDA4DF09BA8A9E8C7A7E9991989E20E5DBDD6A6003664ED8F7A04A8DBE0DF6EAD9B9AA858342E47399053949D2C146EDB85DE4B176BB0965FBAC19BD19AA918E27FA50C1D22402E144464C
310
59462568E704B6E71915404CB72B8FF4EDE184DDAF753F284990D2C6926782963815403548A70C657FDEF80D2D9CEAA2AE4C1C76F60BFE74219A06527D6582DF6412526107381E55E353090704D085B52408D0933C4ED159D79BDA71BB4BC506F4831350EB6F979CD22D69BF7AC49B91A2C0A9DDA3D5CA36AD20FC478E37E6
310
1844E2352865EBCB6EA275A652E3836BE04EFB400BF1A2556F515F1FBB35B2AB35BD889C744FFA1004B5544B121E57F70215746DD2F5E2C1412B602CBF19455AC6C8E5E9922C4E01E65215385004546899059180EAFCF7A707CE7017CD8CDB0410789AB32C63B91E5CEBBBACB17AC6CD347A022D5075FD106377347AAABA7E
310
7D11590744509B44E205134DC1290F06580320F78E537D3D73540E06CB970B431F185308AD40BBD794D6D77003C5A36E8EAA54BA64597CD8F83BD552A080A365F7FF06504B0304140006080000CC70623B000000000000000000000000350000006662782F39464131463745442D413632322D343644302D413938332D3331
310
353338454246344243312F76657274696365732E62696E504B0304140006080800CC70623BF270F1330600000004000000360000006662782F39464131463745442D413632322D343644302D413938332D3331353338454246344243312F747269616E676C65732E62696E636660600000504B0304140006080000CC70623B
310
000000000000000000000000370000006662782F39464131463745442D413632322D343644302D413938332D3331353338454246344243312F617474726962757465732E62696E504B0304140006080800CC70623B08DA0BD19000000041010000360000006662782F39464131463745442D413632322D343644302D413938
310
332D3331353338454246344243312F6469726563746F72792E786D6C858F410AC3201045AF22B36F53E9A60B35CBEEBAE80D244E44489C6234F4F835464A48035D0DF398FF9F8AF63D0E6CC63039F212F8F9020C7D47C6792B21C5FE7403D62A1188E2E60C98D7234A5830286103A55745067B9D86B8A3CF9C7F90C11DE607
310
FB144396D7B6A82D282E9A152AD114D5EF2CB866EEE831B8EEA07A7BB5A8D7D61A2BAAEB7FD5F70921FF497D00504B0304140006080800CC70623B0D6EF93BFE000000A00100003B0000006662782F39464131463745442D413632322D343644302D413938332D3331353338454246344243312F7265736F75726365732F63
310
6F72652E786D6C8D50596E833010BD0A9ADFCA60B334011947A8694ED00B586642AC041B79A97AFC9A40A5F6AF3F33A3B7689E1E3F7DCD8FEC139DD7D6F4C0720A191A65476DA61E62B892236427C19DB5E1970C322367EC618541F0C9D9B8EC90B226A009093576C41D94DE63804C3DD2D18357379C652E63480A7FCF17A9
310
EE72C29CE5894E3AC17D702940B63D59270887DE46A7D0F36263058F518FBB468FE9A7BE6A7420864373B8D4873369AA8691FA421B3294352543C5CAF65C0F6FEF43CB8BD52C78D0F34F46E550061C419494B6843142CB0F5677F4B52BEB177AEC28E5C52AFF638ACBF84F53D42654E51E77B379102C05791282176B5F693D
310
CB4C7BED567C03504B010214000A0000080000CC70623B3DEE336E79000000790000001B00000000000000000000000000000000006175746F6465736B2D64657369676E2D7061636B6167652E786D6C504B01021400140006080800CC70623BD486FD9CA0000000F40000001300000000000000000000000000B20000005B
310
436F6E74656E745F54797065735D2E786D6C504B01021400140006080800CC70623B1EC5D7A3EB0000007C010000080000000000000000000000000083010000636F72652E786D6C504B01021400140006080800CC70623B55019EA25F0000007C000000070000000000000000000000000094020000636E782E786D6C504B
310
01021400140006080800CC70623B8C9102E971010000D40300000C00000000000000000000000000180300006662782F636F72652E786D6C504B01021400140006080800CC70623BFFEA85907E0000009D0000000B00000000000000000000000000B30400006662782F636E782E786D6C504B01021400140006080800CC70
310
623B4FEEA4082C0100001202000031000000000000000000000000005A0500006662782F39464131463745442D413632322D343644302D413938332D3331353338454246344243312F636F72652E786D6C504B01021400140006080800CC70623BAD7543B64E010000330300003000000000000000000000000000D5060000
310
6662782F39464131463745442D413632322D343644302D413938332D3331353338454246344243312F636E782E786D6C504B01021400140006080800CC70623B16AB87BA640500003C1000003400000000000000000000000000710800006662782F39464131463745442D413632322D343644302D413938332D3331353338
310
454246344243312F6F626A656374732E786D6C504B01021400140006080000CC70623B0000000000000000000000003500000000000000000000000000270E00006662782F39464131463745442D413632322D343644302D413938332D3331353338454246344243312F76657274696365732E62696E504B01021400140006
310
080800CC70623BF270F133060000000400000036000000000000000000000000007A0E00006662782F39464131463745442D413632322D343644302D413938332D3331353338454246344243312F747269616E676C65732E62696E504B01021400140006080000CC70623B0000000000000000000000003700000000000000
310
000000000000D40E00006662782F39464131463745442D413632322D343644302D413938332D3331353338454246344243312F617474726962757465732E62696E504B01021400140006080800CC70623B08DA0BD190000000410100003600000000000000000000000000290F00006662782F39464131463745442D413632
310
322D343644302D413938332D3331353338454246344243312F6469726563746F72792E786D6C504B01021400140006080800CC70623B0D6EF93BFE000000A00100003B000000000000000000000000000D1000006662782F39464131463745442D413632322D343644302D413938332D3331353338454246344243312F7265
310
736F75726365732F636F72652E786D6C504B0506000000000E000E0080040000641100000000
  0
XRECORD
  5
116D8
102
{ACAD_REACTORS
330
173
102
}
330
173
100
AcDbXrecord
280
     1
102
MATERIAL
148
0.0
149
0.0
149
0.0
 93
        0
 94
       63
282
     0
 72
     1
 77
     1
171
     1
175
     1
179
     1
273
     0
  0
XRECORD
  5
175
102
{ACAD_REACTORS
330
173
102
}
330
173
100
AcDbXrecord
280
     1
270
     1
271
     1
  0
XRECORD
  5
174
102
{ACAD_REACTORS
330
173
102
}
330
173
100
AcDbXrecord
280
     1
270
     1
271
     1
  0
XRECORD
  5
1FB
102
{ACAD_REACTORS
330
173
102
}
330
173
100
AcDbXrecord
280
     1
 70
     0
 90
1673772943
  1
ECE7A1D2-D628-4531-984C-D00F80459256
310
504B03040A0000080000CC70623B3DEE336E79000000790000001B0000006175746F6465736B2D64657369676E2D7061636B6167652E786D6C3C3F786D6C2076657273696F6E3D22312E302220656E636F64696E673D227574662D3822203F3E3C666F726D6174733E3C666F726D61743E687474703A2F2F736368656D612E
310
6175746F6465736B2E636F6D2F64657369676E2D7061636B6167652F323030393C2F666F726D61743E3C2F666F726D6174733E504B0304140006080800CC70623BD486FD9CA0000000F4000000130000005B436F6E74656E745F54797065735D2E786D6C7D8EC10E82300C865F65E91D8A1E8C310C0EEA1BF002731658846E
310
D98AC1B77784ABF1D8FE5FBFBF75BBCE937A534CCEB38643598122B6FEE978D0B0485F9C41B54DDD7D022595594E1A469170414C76A4D9A4D207E29CF43ECE46F218070CC6BECC4078ACAA135ACF422C856C0E68EA1BF5669944DDD7BCDE7B1F8E415D77AECB980613C2E4AC91FC167A2B244592486606FC29C8FD7F045B9A
310
EF7053A7E60B504B0304140006080800CC70623BD9DDAED0EC0000007C01000008000000636F72652E786D6C8D90416EC3201045AF82665B61836D9CD8C2444DD39CA01740405C94182C03558F5F9C3852BBEB6A467FFE9B197D7EF89E6EE8CB2CC17A37002D0820E394D7D68D03A478C17B4007C117EFE32F1B20272733C0
310
2A83E0E3E2D3BC49CABB685CCCAAF3DA6CA20CC14440EA969B0182FA34932C648AD911AEC52CD5558EA6A0CF2EC329598D1E47ACCEFBECC59A050463A7EA5833865FEBDD0E37353BE3EE8DBDE3F6786A48D375FBF6CC78B9C282473B3DEFABC5C86834888A900E538A49F5419B9EB47DD5BC907D4F082F57FB1F28CDFA9F50
310
B22ED6D5F6EE030B20687EE43E10BC5CB3C8E51E54AE6B6EE207504B0304140006080800CC70623B55019EA25F0000007C00000007000000636E782E786D6C4DCB3B0E80201045D1AD90E915ED2CF8AC45050C11660C8261F98AB1B07AC9C97D42D718D865D3E909258CFD00CCE24AC6E326A164D74DC0B4128928FF326038
310
472BA13128B1252AC747C6BAB984FC68F0B87FE8960A5C09FE86CFB69FBA01504B0304140006080800CC70623BA24EB22D72010000D40300000C0000006662782F636F72652E786D6CC5535B6E833010BC8AE5DF0A6C5E49888CA3A6694ED00B38E05014B091B1518EDFE511A5A9D228FD2A1F60CDEC7A67C6986DCE4D8D7A
310
69BA4AAB0C073EC548AA5C17952A33ECECD15B61B4E1CC686DBF9561A44423333CC098B3D268D7CE50AE9595CA02AA74216750749DB418E5352C32DCE59FB211BE70162ABA93DF8AFC244AE9073ED050C759670D0840D390E18DF9F1706664C23973AE2A66B62A605A75ACA4C13C4976E1364A12EF355A2EBD384AF65EFA96
310
BC7B8BED2EA6719AAE16FB8491A199335B351775B991C2CA02F390D2D40B028F861F41BCA68B7518BFD0D59A524686F29B26D7164F36B94AD9289CE54E6D1DE6010819891F6E21228B3AD1831EC219194284CF98F06DD01008846CC5A1BEF83801D4CBDC6A1303536877A57A513B0953A94FC707FDBE6064EA84A9E3E6E0FA
310
EE8CF0E9198F7784A316AA0413C2C2F2E0ECA0934D1AE6D05A69BCDE9E91D2A611F573361E38FC1375157F5752AE6B6DFE4B11990F88CCBF0719EE23FF02504B0304140006080800CC70623B408A7D3B7C0000009D0000000B0000006662782F636E782E786D6C4DCCD10A83201886E15B91FFDC552A92A0064DBC8F581632
310
D3703A76F9ABD1C18E3E78F878E5F0D9027ABBFCF2292AE86E2D20171F69F6715550CB827B40839639A5F2770314A7CD293819B45C73AAFB45B35BA61ACAA1C1C7E7855C58C15BC331339661262CC762340413D68D77DA5B42298546CBE6573AF60CEB2F504B0304140006080800CC70623B449FB9BD290100001202000031
310
0000006662782F36394639363044362D344446342D343946362D394244322D3234314243333846323333332F636F72652E786D6C8D515B6EC32010BC0AE22B55850D98B871848994463E412FE002495162B07854397EA176A4F62F3F2C9A9D991D587EB84F37F0AD7D30CEF6905418026DA553C65E7A98E219ED203808EE9D
310
8B7F6810D871D23D2C3014FCE25D9A57483A1BB58D19B54EE9151C43D0110279CB971E06F9A5A7B11A53CC8C70ADE6515EC78BAE4895DB992778883E0700CB907242D17643D7E2538BD869608875438BBAE38922CAC8F1BDD90DB4691A5E2F42C153326A951B95E398B3D1FE599322163C9AE9115F7A3D46ADA0A018778810
310
84E907617BDCEE297BC5BB3DC6BC2EF47FA234AB2745C9D8D8D035EE220B50105E2F0DC1954B9FB747187D9F9D8FA0CCDB042D5FA0C015C65B42DF78BD10F3F3B363CB56C7109DCFDFBBB97E662ED92EB62D13BC2E1BCAE5777DB9966D8A1F504B0304140006080800CC70623BAD7543B64E01000033030000300000006662
310
782F36394639363044362D344446342D343946362D394244322D3234314243333846323333332F636E782E786D6CD593CD6EC32010845F0571AD6CE3D48AD20813A9873E410FBD12D82434182C7EAAE6EDBB2424CD25871E7B41D6EC30B3FA84F9E67BB2E40B4234DE8DB46F1925E094D7C6ED479AD3AE5951B2113C789FEE
310
6C943839C1488B4C05DF079FE72A69D8C96C13AAD6B8631503449F83828872B949AC57D26200B826A308D316B4064D6E46FCDA41C05550DC9E483A00797BFD207EFB092A45DE9514C1BBD22178396BD39D891265658C238DEA00936C654E5E433CB65A26D9F6EDB5EBC14EBF49A45CB856E66048291F6939A9A81BB5C89177
310
38143CA680F4AA299D66A042CEB3354A2684DC9D8D178FE0D9B8B41CAAD720F880EE7EF93C0C18769E099ECC04D5A102C8049A8A05632F4DDF376CF1DE0F6BB65C2F8627B65A33C6BB62177CEBBDAD973006829F89F22E814B54F4BC2BE347F8AA8F681390B50FA73F804400B5F542E796F19FF974E7F78DB802FE05E20750
310
4B0304140006080800CC70623B8D05915C650500003B100000340000006662782F36394639363044362D344446342D343946362D394244322D3234314243333846323333332F6F626A656374732E786D6CAD575B6FA33814FE2B887D06429276DA1565D4266D158D3A339A6846FB502932E050B66023DB74D2FDF5FB190C01
310
9276B2973C046C8ECFF53B17071F77456EBD502133CEAE6CDF9DD81665314F32965ED995DA3A17B6F5310C04E7AA47665B8C14F4CAD6DB7618A48257A5D94AE89654B91AEDDEDDFC61C998326A5B714EA4BCB265FC440BE2924AF184CA6737218AB8E976E7FA6E4338649B0A523E8D98964450A6A029F619B8588D52FE7039
310
B1BD30F0F4F730D0FF866AF6369557DB33949F31A9088B0F848DD8CCFCF9F2767A76E99CCDE733677E3EF59D9BBB9BA5E37F984D16E78BC5E5F5ED25044B25C0C96822E8D60EEFE11B91C581D77CEA34368A1F5329E68CD1B8B61F16D63A1B8E092D294B10C78C4A48EB593D192E7DED9BDEE7995E1B91FDEDD3ACEA9FE831
310
6A756F9F7D4D79F4274C90A7A04248AA51D5F8C718DAE06FB2F75AC4796EBE65D22A88A22223B995679120E2D50E41AA49C260C046A35368846B0BECD0DFF3EBEB8AD4F835768F69B9ADF25C43D30E6B646F807FAA64AD59F61715C7A54127C4AACA98BA3006A9D792DAE165E0D59B61A01FB3A9F9D838D2DAE62445C86166
310
F37564E842E7DE6A69879FEEA2DD5AE7E371E1A5E025154AC307D06A03D73EB5978C58FFA4C8E9033066E0F3BD53BEC1F39F91BE7B55103791EDE6BBB991A2046172CB4581D8B893FA674DDA17A77B3B7C413D1B511FD2743BFF8A38F03A658705E3ADF8015C3A3417FF3D7E439FF591DA0B5F18BC20C1B8981957AE6392A3
310
F43C640C01D1A0B4728E2DD4F26DB4B3C3152A252A3B4E913CEC1C72F012782FF88EFF8637AA552DBEF76408E8A8DE9E50F9E1CB3A2DA0DB1B6039A893B56063DC5B3E3FFB5F72E67AB9FEB4AEC496C4F4C1149625DD662C53E89D7BF0F6151A046260D1337DFDC94502430F83B0EE07A130A224BCAD7DAE1D9FB6CD422FF6
310
920702629C4BB9AE79C12F243C6432A6794E18E5552BA56B431AAB5D91317302B2B071E86C3A42B1A02F999E24061403B5D0EB639195DA655DD3EBEAB4FB862DDF579F014AD0E73C22F99E28DA57FB98E75C6CA2D74D53086D600F4786E0FE3144B771A8A7B900F03594DB8A633CBC49B2EDB69228BB479CF863B5E807AAAB
310
23872F6DFEB4129B949CA33823F58830E86D65621E10047D9DB34D862E8EAC3C2ABC2F7B2C40D67CDFE01F5545B92105AF983AC54D93D69E56FB8E797F88913F898A9FEC705D3F9D1B54EC8426FB500D40A03BD0119B06E1B95DDC7EB8F6975367793EBD70E66733DFB9BC982F9CE564727731999F5D4ECFCE3B8D6A4DC2A0
310
6D50FD148437D110834A64C6CDDF57FBACB5C307A2A477DFE4939736CFEF2B175371E0E10CF0DD1D5C15654E0BCA14D1E87DD02FF93782A162C0A3D95F1524A52770F972BF1EE9809D13CE7DD599467F8ECE9ADD85CE85A34CD45355448C64F9E8A031DC2D596ACC6E5DD93D9B82DE2EF5CAF81363A8E47996A0DE24564A79
310
4115AACE09C55E14540231FDA13C319787134EBF34E3A022514E5B4D9E0826E25C02D5805B15ABE1BEF51B26383D445DD9E875EE33FE4C22DA16427D65A3BCA92CA6D28DD01DF5DC53330704308475351050232CCD31583787BA75774AFB06E5070DD0C8EF484E19968C5D83BA5B90B244D31E54D55A372320FE4786B7EA58
310
44E135AA5467CB7EA333A61683CC6A8C3257034C10CF46F40EF9F5BE59BE5BD30C3C72D235E95D10345C1D45445A5F0BB47E46A5EBE5570F9380B5FA629579952296A773720405982B9DE04011506178964401AA8BDF1FBF0A8EAB6861DD6580C0E38217056766716DAEB2D6FA0917D3E4116581EADB879C4E7CFFB11EFACD
310
3D641311495D92C8676CB409A72D18610D803CE8A626049E8EC1887CB5B44CC39883690DDA8399B4B9855B481E7D71D4A9D22F96E5BB73BF5793020C02137BF837504B0304140006080000CC70623B000000000000000000000000350000006662782F36394639363044362D344446342D343946362D394244322D32343142
310
43333846323333332F76657274696365732E62696E504B0304140006080800CC70623BF270F1330600000004000000360000006662782F36394639363044362D344446342D343946362D394244322D3234314243333846323333332F747269616E676C65732E62696E636660600000504B0304140006080000CC70623B0000
310
00000000000000000000370000006662782F36394639363044362D344446342D343946362D394244322D3234314243333846323333332F617474726962757465732E62696E504B0304140006080800CC70623B08DA0BD19000000041010000360000006662782F36394639363044362D344446342D343946362D394244322D
310
3234314243333846323333332F6469726563746F72792E786D6C858F410AC3201045AF22B36F53E9A60B35CBEEBAE80D244E44489C6234F4F835464A48035D0DF398FF9F8AF63D0E6CC63039F212F8F9020C7D47C6792B21C5FE7403D62A1188E2E60C98D7234A5830286103A55745067B9D86B8A3CF9C7F90C11DE607FB14
310
4396D7B6A82D282E9A152AD114D5EF2CB866EEE831B8EEA07A7BB5A8D7D61A2BAAEB7FD5F70921FF497D00504B0304140006080800CC70623BCA768048FE000000A00100003B0000006662782F36394639363044362D344446342D343946362D394244322D3234314243333846323333332F7265736F75726365732F636F72
310
652E786D6C8D50596E833010BD0A9ADFCA60D600328E9AA639412F609909B1126CE4A5EAF16B0295DABFFECC8CDEA2797AECF8353F924FB44E193D409E5248504B332A3D0D10FC95B4901C39B3C6F85F3248B49871801506CE266BC2B243D2688FDA47549B11775038871E12F988C7004EDE7016A9083E2ADC3D5D84BC8B09
310
D33C8D74D471E6BC8D0192EDC93A815B742658898E651BCB59086ADC356A8C3FD555A1055ED7E7E254D615792D0F075295F585746FF53B694EE78A565DD736979A65AB9933AFE69F8CD2A2F038022F28ED489E135A7CE4554F9BBEA85E68DB53CAB255FEC71496F19FA6A0B42F8B3DEE6673C0F318E4497096AD7DC5F52C33
310
EEB55BFE0D504B010214000A0000080000CC70623B3DEE336E79000000790000001B00000000000000000000000000000000006175746F6465736B2D64657369676E2D7061636B6167652E786D6C504B01021400140006080800CC70623BD486FD9CA0000000F40000001300000000000000000000000000B20000005B436F
310
6E74656E745F54797065735D2E786D6C504B01021400140006080800CC70623BD9DDAED0EC0000007C010000080000000000000000000000000083010000636F72652E786D6C504B01021400140006080800CC70623B55019EA25F0000007C000000070000000000000000000000000095020000636E782E786D6C504B0102
310
1400140006080800CC70623BA24EB22D72010000D40300000C00000000000000000000000000190300006662782F636F72652E786D6C504B01021400140006080800CC70623B408A7D3B7C0000009D0000000B00000000000000000000000000B50400006662782F636E782E786D6C504B01021400140006080800CC70623B
310
449FB9BD290100001202000031000000000000000000000000005A0500006662782F36394639363044362D344446342D343946362D394244322D3234314243333846323333332F636F72652E786D6C504B01021400140006080800CC70623BAD7543B64E010000330300003000000000000000000000000000D20600006662
310
782F36394639363044362D344446342D343946362D394244322D3234314243333846323333332F636E782E786D6C504B01021400140006080800CC70623B8D05915C650500003B10000034000000000000000000000000006E0800006662782F36394639363044362D344446342D343946362D394244322D32343142433338
310
46323333332F6F626A656374732E786D6C504B01021400140006080000CC70623B0000000000000000000000003500000000000000000000000000250E00006662782F36394639363044362D344446342D343946362D394244322D3234314243333846323333332F76657274696365732E62696E504B010214001400060808
310
00CC70623BF270F13306000000040000003600000000000000000000000000780E00006662782F36394639363044362D344446342D343946362D394244322D3234314243333846323333332F747269616E676C65732E62696E504B01021400140006080000CC70623B00000000000000000000000037000000000000000000
310
00000000D20E00006662782F36394639363044362D344446342D343946362D394244322D3234314243333846323333332F617474726962757465732E62696E504B01021400140006080800CC70623B08DA0BD190000000410100003600000000000000000000000000270F00006662782F36394639363044362D344446342D
310
343946362D394244322D3234314243333846323333332F6469726563746F72792E786D6C504B01021400140006080800CC70623BCA768048FE000000A00100003B000000000000000000000000000B1000006662782F36394639363044362D344446342D343946362D394244322D3234314243333846323333332F7265736F
310
75726365732F636F72652E786D6C504B0506000000000E000E0080040000621100000000
  0
XRECORD
  5
176
102
{ACAD_REACTORS
330
173
102
}
330
173
100
AcDbXrecord
280
     1
270
     1
271
     1
  0
XRECORD
  5
177
102
{ACAD_REACTORS
330
173
102
}
330
173
100
AcDbXrecord
280
     1
270
     1
271
     1
  0
XRECORD
  5
116FA
102
{ACAD_REACTORS
330
116F9
102
}
330
116F9
100
AcDbXrecord
280
     1
102
ACAD_ROUNDTRIP_2012_MLEADER_STYLE
298
     1
  0
XRECORD
  5
1170C
102
{ACAD_REACTORS
330
1170B
102
}
330
1170B
100
AcDbXrecord
280
     1
102
DISPLAYNAME
  1
Metric50
102
FLAGS
 90
        0
  0
CELLSTYLEMAP
  5
116CC
102
{ACAD_REACTORS
330
162
102
}
330
162
100
AcDbCellStyleMap
 90
        3
300
CELLSTYLE
  1
TABLEFORMAT_BEGIN
 90
        5
170
     1
 91
        0
 92
    32768
 62
   257
 93
        1
300
CONTENTFORMAT
  1
CONTENTFORMAT_BEGIN
 90
        0
 91
        0
 92
      512
 93
        0
300

 40
0.0
140
1.0
 94
        5
 62
     0
340
11
144
6.0
309
CONTENTFORMAT_END
171
     1
301
MARGIN
  1
CELLMARGIN_BEGIN
 40
1.5
 40
1.5
 40
1.5
 40
1.5
 40
4.5
 40
4.5
309
CELLMARGIN_END
 94
        6
 95
        1
302
GRIDFORMAT
  1
GRIDFORMAT_BEGIN
 90
        0
 91
        1
 62
     0
 92
       -2
340
14
 93
        0
 40
1.125
309
GRIDFORMAT_END
 95
        2
302
GRIDFORMAT
  1
GRIDFORMAT_BEGIN
 90
        0
 91
        1
 62
     0
 92
       -2
340
14
 93
        0
 40
1.125
309
GRIDFORMAT_END
 95
        4
302
GRIDFORMAT
  1
GRIDFORMAT_BEGIN
 90
        0
 91
        1
 62
     0
 92
       -2
340
14
 93
        0
 40
1.125
309
GRIDFORMAT_END
 95
        8
302
GRIDFORMAT
  1
GRIDFORMAT_BEGIN
 90
        0
 91
        1
 62
     0
 92
       -2
340
14
 93
        0
 40
1.125
309
GRIDFORMAT_END
 95
       16
302
GRIDFORMAT
  1
GRIDFORMAT_BEGIN
 90
        0
 91
        1
 62
     0
 92
       -2
340
14
 93
        0
 40
1.125
309
GRIDFORMAT_END
 95
       32
302
GRIDFORMAT
  1
GRIDFORMAT_BEGIN
 90
        0
 91
        1
 62
     0
 92
       -2
340
14
 93
        0
 40
1.125
309
GRIDFORMAT_END
309
TABLEFORMAT_END
  1
CELLSTYLE_BEGIN
 90
        1
 91
        1
300
_TITLE
309
CELLSTYLE_END
300
CELLSTYLE
  1
TABLEFORMAT_BEGIN
 90
        5
170
     1
 91
        0
 92
        0
 62
   257
 93
        1
300
CONTENTFORMAT
  1
CONTENTFORMAT_BEGIN
 90
        0
 91
        0
 92
      512
 93
        0
300

 40
0.0
140
1.0
 94
        5
 62
     0
340
11
144
4.5
309
CONTENTFORMAT_END
171
     1
301
MARGIN
  1
CELLMARGIN_BEGIN
 40
1.5
 40
1.5
 40
1.5
 40
1.5
 40
4.5
 40
4.5
309
CELLMARGIN_END
 94
        6
 95
        1
302
GRIDFORMAT
  1
GRIDFORMAT_BEGIN
 90
        0
 91
        1
 62
     0
 92
       -2
340
14
 93
        0
 40
1.125
309
GRIDFORMAT_END
 95
        2
302
GRIDFORMAT
  1
GRIDFORMAT_BEGIN
 90
        0
 91
        1
 62
     0
 92
       -2
340
14
 93
        0
 40
1.125
309
GRIDFORMAT_END
 95
        4
302
GRIDFORMAT
  1
GRIDFORMAT_BEGIN
 90
        0
 91
        1
 62
     0
 92
       -2
340
14
 93
        0
 40
1.125
309
GRIDFORMAT_END
 95
        8
302
GRIDFORMAT
  1
GRIDFORMAT_BEGIN
 90
        0
 91
        1
 62
     0
 92
       -2
340
14
 93
        0
 40
1.125
309
GRIDFORMAT_END
 95
       16
302
GRIDFORMAT
  1
GRIDFORMAT_BEGIN
 90
        0
 91
        1
 62
     0
 92
       -2
340
14
 93
        0
 40
1.125
309
GRIDFORMAT_END
 95
       32
302
GRIDFORMAT
  1
GRIDFORMAT_BEGIN
 90
        0
 91
        1
 62
     0
 92
       -2
340
14
 93
        0
 40
1.125
309
GRIDFORMAT_END
309
TABLEFORMAT_END
  1
CELLSTYLE_BEGIN
 90
        2
 91
        1
300
_HEADER
309
CELLSTYLE_END
300
CELLSTYLE
  1
TABLEFORMAT_BEGIN
 90
        5
170
     1
 91
        0
 92
        0
 62
   257
 93
        1
300
CONTENTFORMAT
  1
CONTENTFORMAT_BEGIN
 90
        0
 91
        0
 92
      512
 93
        0
300

 40
0.0
140
1.0
 94
        2
 62
     0
340
11
144
4.5
309
CONTENTFORMAT_END
171
     1
301
MARGIN
  1
CELLMARGIN_BEGIN
 40
1.5
 40
1.5
 40
1.5
 40
1.5
 40
4.5
 40
4.5
309
CELLMARGIN_END
 94
        6
 95
        1
302
GRIDFORMAT
  1
GRIDFORMAT_BEGIN
 90
        0
 91
        1
 62
     0
 92
       -2
340
14
 93
        0
 40
1.125
309
GRIDFORMAT_END
 95
        2
302
GRIDFORMAT
  1
GRIDFORMAT_BEGIN
 90
        0
 91
        1
 62
     0
 92
       -2
340
14
 93
        0
 40
1.125
309
GRIDFORMAT_END
 95
        4
302
GRIDFORMAT
  1
GRIDFORMAT_BEGIN
 90
        0
 91
        1
 62
     0
 92
       -2
340
14
 93
        0
 40
1.125
309
GRIDFORMAT_END
 95
        8
302
GRIDFORMAT
  1
GRIDFORMAT_BEGIN
 90
        0
 91
        1
 62
     0
 92
       -2
340
14
 93
        0
 40
1.125
309
GRIDFORMAT_END
 95
       16
302
GRIDFORMAT
  1
GRIDFORMAT_BEGIN
 90
        0
 91
        1
 62
     0
 92
       -2
340
14
 93
        0
 40
1.125
309
GRIDFORMAT_END
 95
       32
302
GRIDFORMAT
  1
GRIDFORMAT_BEGIN
 90
        0
 91
        1
 62
     0
 92
       -2
340
14
 93
        0
 40
1.125
309
GRIDFORMAT_END
309
TABLEFORMAT_END
  1
CELLSTYLE_BEGIN
 90
        3
 91
        2
300
_DATA
309
CELLSTYLE_END
  0
XRECORD
  5
116D1
102
{ACAD_REACTORS
330
162
102
}
330
162
100
AcDbXrecord
280
     1
102
ACAD_ROUNDTRIP_PRE2007_TABLESTYLE
 90
      512
 91
        0
  1

 92
      512
 93
        0
  2

 94
      512
 95
        0
  3

  0
XRECORD
  5
116E4
102
{ACAD_REACTORS
330
116E3
102
}
330
116E3
100
AcDbXrecord
280
     1
102
RTVSPost2010Prop28
280
     1
102
RTVSPost2010PropOp28
 70
     1
102
RTVSPost2010Prop29
280
     1
102
RTVSPost2010PropOp29
 70
     1
102
RTVSPost2010Prop30
280
     0
102
RTVSPost2010PropOp30
 70
     1
102
RTVSPost2010Prop31
280
     0
102
RTVSPost2010PropOp31
 70
     1
102
RTVSPost2010Prop32
280
     0
102
RTVSPost2010PropOp32
 70
     1
102
RTVSPost2010Prop33
280
     0
102
RTVSPost2010PropOp33
 70
     1
102
RTVSPost2010Prop34
280
     0
102
RTVSPost2010PropOp34
 70
     1
102
RTVSPost2010Prop35
280
     0
102
RTVSPost2010PropOp35
 70
     1
102
RTVSPost2010Prop36
280
     0
102
RTVSPost2010PropOp36
 70
     1
102
RTVSPost2010Prop37
 90
       50
102
RTVSPost2010PropOp37
 70
     1
102
RTVSPost2010Prop38
140
0.0
102
RTVSPost2010PropOp38
 70
     1
102
RTVSPost2010Prop39
140
1.0
102
RTVSPost2010PropOp39
 70
     1
102
RTVSPost2010Prop40
 90
        0
102
RTVSPost2010PropOp40
 70
     1
102
RTVSPost2010Prop41ColorIndex
 90
       18
102
RTVSPost2010Prop41ColorRGB
 90
        0
102
RTVSPost2010PropOp41
 70
     1
102
RTVSPost2010Prop42
 90
       50
102
RTVSPost2010PropOp42
 70
     1
102
RTVSPost2010Prop43
 90
        3
102
RTVSPost2010PropOp43
 70
     1
102
RTVSPost2010Prop44ColorIndex
 90
        5
102
RTVSPost2010Prop44ColorRGB
 90
      255
102
RTVSPost2010PropOp44
 70
     1
102
RTVSPost2010Prop45
280
     0
102
RTVSPost2010PropOp45
 70
     1
102
RTVSPost2010Prop46
 90
       50
102
RTVSPost2010PropOp46
 70
     1
102
RTVSPost2010Prop47
 90
       50
102
RTVSPost2010PropOp47
 70
     1
102
RTVSPost2010Prop48
 90
       50
102
RTVSPost2010PropOp48
 70
     1
102
RTVSPost2010Prop49
280
     0
102
RTVSPost2010PropOp49
 70
     1
102
RTVSPost2010Prop50
 90
       50
102
RTVSPost2010PropOp50
 70
     1
102
RTVSPost2010Prop51ColorIndex
 90
      256
102
RTVSPost2010Prop51ColorRGB
 90
-16777216
102
RTVSPost2010PropOp51
 70
     0
102
RTVSPost2010Prop52
140
1.0
102
RTVSPost2010PropOp52
 70
     0
102
RTVSPost2010Prop53
 90
        2
102
RTVSPost2010PropOp53
 70
     1
102
RTVSPost2010Prop54
  1
strokes_ogs.tif
102
RTVSPost2010PropOp54
 70
     1
102
RTVSPost2010Prop55
280
     0
102
RTVSPost2010PropOp55
 70
     1
102
RTVSPost2010Prop56
140
1.0
102
RTVSPost2010PropOp56
 70
     1
102
RTVSPost2010Prop57
140
1.0
102
RTVSPost2010PropOp57
 70
     1
102
RTVSPropertyOp0
 70
     1
102
RTVSPropertyOp1
 70
     1
102
RTVSPropertyOp2
 70
     1
102
RTVSPropertyOp3
 70
     1
102
RTVSPropertyOp4
 70
     1
102
RTVSPropertyOp5
 70
     1
102
RTVSPropertyOp6
 70
     1
102
RTVSPropertyOp7
 70
     1
102
RTVSPropertyOp8
 70
     1
102
RTVSPropertyOp9
 70
     1
102
RTVSPropertyOp10
 70
     1
102
RTVSPropertyOp11
 70
     1
102
RTVSPropertyOp12
 70
     1
102
RTVSPropertyOp13
 70
     1
102
RTVSPropertyOp14
 70
     1
102
RTVSPropertyOp15
 70
     1
102
RTVSPropertyOp16
 70
     1
102
RTVSPropertyOp17
 70
     1
102
RTVSPropertyOp18
 70
     1
102
RTVSPropertyOp19
 70
     1
102
RTVSPropertyOp20
 70
     1
102
RTVSPropertyOp21
 70
     1
102
RTVSPropertyOp22
 70
     1
102
RTVSPropertyOp23
 70
     1
102
RTVSPropertyOp24
 70
     1
102
RTVSPropertyOp25
 70
     1
102
RTVSPropertyOp26
 70
     1
102
RTVSPropertyOp27
 70
     1
102
RTVSPropertyOp28
 70
     1
102
RTVSPropertyOp29
 70
     1
102
RTVSPropertyOp30
 70
     1
102
RTVSPropertyOp31
 70
     1
102
RTVSPropertyOp32
 70
     1
102
RTVSPropertyOp33
 70
     1
102
RTVSPropertyOp34
 70
     1
102
RTVSPropertyOp35
 70
     1
102
RTVSPropertyOp36
 70
     1
102
RTVSPropertyOp37
 70
     1
102
RTVSPropertyOp38
 70
     1
102
RTVSPropertyOp39
 70
     1
102
RTVSPropertyOp40
 70
     1
102
RTVSPropertyOp41
 70
     1
102
RTVSPropertyOp42
 70
     1
102
RTVSPropertyOp43
 70
     1
102
RTVSPropertyOp44
 70
     1
102
RTVSPropertyOp45
 70
     1
102
RTVSPropertyOp46
 70
     1
102
RTVSPropertyOp47
 70
     1
102
RTVSPropertyOp48
 70
     1
102
RTVSPropertyOp49
 70
     1
102
RTVSPropertyOp50
 70
     1
102
RTVSPropertyOp51
 70
     0
102
RTVSPropertyOp52
 70
     0
102
RTVSPropertyOp53
 70
     1
102
RTVSPropertyOp54
 70
     1
102
RTVSPropertyOp55
 70
     1
102
RTVSPropertyOp56
 70
     1
102
RTVSPropertyOp57
 70
     1
102
RTVSPropertyOp58
 70
     1
102
RTVSPropertyOp59
 70
     1
102
RTVSPropertyOp60
 70
     1
102
RTVSPropertyOp61
 70
     1
102
RTVSPropertyOp62
 70
     1
  0
XRECORD
  5
116E2
102
{ACAD_REACTORS
330
116E1
102
}
330
116E1
100
AcDbXrecord
280
     1
102
RTVSPost2010Prop28
280
     0
102
RTVSPost2010PropOp28
 70
     1
102
RTVSPost2010Prop29
280
     1
102
RTVSPost2010PropOp29
 70
     1
102
RTVSPost2010Prop30
280
     1
102
RTVSPost2010PropOp30
 70
     1
102
RTVSPost2010Prop31
280
     0
102
RTVSPost2010PropOp31
 70
     1
102
RTVSPost2010Prop32
280
     0
102
RTVSPost2010PropOp32
 70
     1
102
RTVSPost2010Prop33
280
     0
102
RTVSPost2010PropOp33
 70
     1
102
RTVSPost2010Prop34
280
     0
102
RTVSPost2010PropOp34
 70
     1
102
RTVSPost2010Prop35
280
     0
102
RTVSPost2010PropOp35
 70
     1
102
RTVSPost2010Prop36
280
     0
102
RTVSPost2010PropOp36
 70
     1
102
RTVSPost2010Prop37
 90
       50
102
RTVSPost2010PropOp37
 70
     1
102
RTVSPost2010Prop38
140
0.0
102
RTVSPost2010PropOp38
 70
     1
102
RTVSPost2010Prop39
140
1.0
102
RTVSPost2010PropOp39
 70
     1
102
RTVSPost2010Prop40
 90
        0
102
RTVSPost2010PropOp40
 70
     1
102
RTVSPost2010Prop41ColorIndex
 90
       18
102
RTVSPost2010Prop41ColorRGB
 90
        0
102
RTVSPost2010PropOp41
 70
     1
102
RTVSPost2010Prop42
 90
       50
102
RTVSPost2010PropOp42
 70
     1
102
RTVSPost2010Prop43
 90
        3
102
RTVSPost2010PropOp43
 70
     1
102
RTVSPost2010Prop44ColorIndex
 90
        5
102
RTVSPost2010Prop44ColorRGB
 90
      255
102
RTVSPost2010PropOp44
 70
     1
102
RTVSPost2010Prop45
280
     0
102
RTVSPost2010PropOp45
 70
     1
102
RTVSPost2010Prop46
 90
       50
102
RTVSPost2010PropOp46
 70
     1
102
RTVSPost2010Prop47
 90
       50
102
RTVSPost2010PropOp47
 70
     1
102
RTVSPost2010Prop48
 90
       50
102
RTVSPost2010PropOp48
 70
     1
102
RTVSPost2010Prop49
280
     0
102
RTVSPost2010PropOp49
 70
     1
102
RTVSPost2010Prop50
 90
       50
102
RTVSPost2010PropOp50
 70
     1
102
RTVSPost2010Prop51ColorIndex
 90
      256
102
RTVSPost2010Prop51ColorRGB
 90
-16777216
102
RTVSPost2010PropOp51
 70
     0
102
RTVSPost2010Prop52
140
1.0
102
RTVSPost2010PropOp52
 70
     0
102
RTVSPost2010Prop53
 90
        2
102
RTVSPost2010PropOp53
 70
     1
102
RTVSPost2010Prop54
  1
strokes_ogs.tif
102
RTVSPost2010PropOp54
 70
     1
102
RTVSPost2010Prop55
280
     0
102
RTVSPost2010PropOp55
 70
     1
102
RTVSPost2010Prop56
140
1.0
102
RTVSPost2010PropOp56
 70
     1
102
RTVSPost2010Prop57
140
1.0
102
RTVSPost2010PropOp57
 70
     1
102
RTVSPropertyOp0
 70
     1
102
RTVSPropertyOp1
 70
     1
102
RTVSPropertyOp2
 70
     1
102
RTVSPropertyOp3
 70
     1
102
RTVSPropertyOp4
 70
     1
102
RTVSPropertyOp5
 70
     1
102
RTVSPropertyOp6
 70
     1
102
RTVSPropertyOp7
 70
     1
102
RTVSPropertyOp8
 70
     1
102
RTVSPropertyOp9
 70
     1
102
RTVSPropertyOp10
 70
     1
102
RTVSPropertyOp11
 70
     1
102
RTVSPropertyOp12
 70
     1
102
RTVSPropertyOp13
 70
     1
102
RTVSPropertyOp14
 70
     1
102
RTVSPropertyOp15
 70
     1
102
RTVSPropertyOp16
 70
     1
102
RTVSPropertyOp17
 70
     1
102
RTVSPropertyOp18
 70
     1
102
RTVSPropertyOp19
 70
     1
102
RTVSPropertyOp20
 70
     1
102
RTVSPropertyOp21
 70
     1
102
RTVSPropertyOp22
 70
     1
102
RTVSPropertyOp23
 70
     1
102
RTVSPropertyOp24
 70
     1
102
RTVSPropertyOp25
 70
     1
102
RTVSPropertyOp26
 70
     1
102
RTVSPropertyOp27
 70
     1
102
RTVSPropertyOp28
 70
     1
102
RTVSPropertyOp29
 70
     1
102
RTVSPropertyOp30
 70
     1
102
RTVSPropertyOp31
 70
     1
102
RTVSPropertyOp32
 70
     1
102
RTVSPropertyOp33
 70
     1
102
RTVSPropertyOp34
 70
     1
102
RTVSPropertyOp35
 70
     1
102
RTVSPropertyOp36
 70
     1
102
RTVSPropertyOp37
 70
     1
102
RTVSPropertyOp38
 70
     1
102
RTVSPropertyOp39
 70
     1
102
RTVSPropertyOp40
 70
     1
102
RTVSPropertyOp41
 70
     1
102
RTVSPropertyOp42
 70
     1
102
RTVSPropertyOp43
 70
     1
102
RTVSPropertyOp44
 70
     1
102
RTVSPropertyOp45
 70
     1
102
RTVSPropertyOp46
 70
     1
102
RTVSPropertyOp47
 70
     1
102
RTVSPropertyOp48
 70
     1
102
RTVSPropertyOp49
 70
     1
102
RTVSPropertyOp50
 70
     1
102
RTVSPropertyOp51
 70
     0
102
RTVSPropertyOp52
 70
     0
102
RTVSPropertyOp53
 70
     1
102
RTVSPropertyOp54
 70
     1
102
RTVSPropertyOp55
 70
     1
102
RTVSPropertyOp56
 70
     1
102
RTVSPropertyOp57
 70
     1
102
RTVSPropertyOp58
 70
     1
102
RTVSPropertyOp59
 70
     1
102
RTVSPropertyOp60
 70
     1
102
RTVSPropertyOp61
 70
     1
102
RTVSPropertyOp62
 70
     1
  0
XRECORD
  5
116F0
102
{ACAD_REACTORS
330
116EF
102
}
330
116EF
100
AcDbXrecord
280
     1
102
RTVSPost2010Prop28
280
     0
102
RTVSPost2010PropOp28
 70
     1
102
RTVSPost2010Prop29
280
     1
102
RTVSPost2010PropOp29
 70
     1
102
RTVSPost2010Prop30
280
     1
102
RTVSPost2010PropOp30
 70
     1
102
RTVSPost2010Prop31
280
     0
102
RTVSPost2010PropOp31
 70
     1
102
RTVSPost2010Prop32
280
     0
102
RTVSPost2010PropOp32
 70
     1
102
RTVSPost2010Prop33
280
     0
102
RTVSPost2010PropOp33
 70
     1
102
RTVSPost2010Prop34
280
     0
102
RTVSPost2010PropOp34
 70
     1
102
RTVSPost2010Prop35
280
     0
102
RTVSPost2010PropOp35
 70
     1
102
RTVSPost2010Prop36
280
     0
102
RTVSPost2010PropOp36
 70
     1
102
RTVSPost2010Prop37
 90
       50
102
RTVSPost2010PropOp37
 70
     1
102
RTVSPost2010Prop38
140
0.0
102
RTVSPost2010PropOp38
 70
     1
102
RTVSPost2010Prop39
140
1.0
102
RTVSPost2010PropOp39
 70
     1
102
RTVSPost2010Prop40
 90
        0
102
RTVSPost2010PropOp40
 70
     1
102
RTVSPost2010Prop41ColorIndex
 90
       18
102
RTVSPost2010Prop41ColorRGB
 90
        0
102
RTVSPost2010PropOp41
 70
     1
102
RTVSPost2010Prop42
 90
       50
102
RTVSPost2010PropOp42
 70
     1
102
RTVSPost2010Prop43
 90
        3
102
RTVSPost2010PropOp43
 70
     1
102
RTVSPost2010Prop44ColorIndex
 90
        5
102
RTVSPost2010Prop44ColorRGB
 90
      255
102
RTVSPost2010PropOp44
 70
     1
102
RTVSPost2010Prop45
280
     0
102
RTVSPost2010PropOp45
 70
     1
102
RTVSPost2010Prop46
 90
       50
102
RTVSPost2010PropOp46
 70
     1
102
RTVSPost2010Prop47
 90
       50
102
RTVSPost2010PropOp47
 70
     1
102
RTVSPost2010Prop48
 90
       50
102
RTVSPost2010PropOp48
 70
     1
102
RTVSPost2010Prop49
280
     0
102
RTVSPost2010PropOp49
 70
     1
102
RTVSPost2010Prop50
 90
       50
102
RTVSPost2010PropOp50
 70
     1
102
RTVSPost2010Prop51ColorIndex
 90
      256
102
RTVSPost2010Prop51ColorRGB
 90
-16777216
102
RTVSPost2010PropOp51
 70
     0
102
RTVSPost2010Prop52
140
1.0
102
RTVSPost2010PropOp52
 70
     0
102
RTVSPost2010Prop53
 90
        2
102
RTVSPost2010PropOp53
 70
     1
102
RTVSPost2010Prop54
  1
strokes_ogs.tif
102
RTVSPost2010PropOp54
 70
     1
102
RTVSPost2010Prop55
280
     0
102
RTVSPost2010PropOp55
 70
     1
102
RTVSPost2010Prop56
140
1.0
102
RTVSPost2010PropOp56
 70
     1
102
RTVSPost2010Prop57
140
1.0
102
RTVSPost2010PropOp57
 70
     1
102
RTVSPropertyOp0
 70
     1
102
RTVSPropertyOp1
 70
     1
102
RTVSPropertyOp2
 70
     1
102
RTVSPropertyOp3
 70
     1
102
RTVSPropertyOp4
 70
     1
102
RTVSPropertyOp5
 70
     1
102
RTVSPropertyOp6
 70
     1
102
RTVSPropertyOp7
 70
     1
102
RTVSPropertyOp8
 70
     1
102
RTVSPropertyOp9
 70
     1
102
RTVSPropertyOp10
 70
     1
102
RTVSPropertyOp11
 70
     1
102
RTVSPropertyOp12
 70
     1
102
RTVSPropertyOp13
 70
     1
102
RTVSPropertyOp14
 70
     1
102
RTVSPropertyOp15
 70
     1
102
RTVSPropertyOp16
 70
     1
102
RTVSPropertyOp17
 70
     1
102
RTVSPropertyOp18
 70
     1
102
RTVSPropertyOp19
 70
     1
102
RTVSPropertyOp20
 70
     1
102
RTVSPropertyOp21
 70
     1
102
RTVSPropertyOp22
 70
     1
102
RTVSPropertyOp23
 70
     1
102
RTVSPropertyOp24
 70
     1
102
RTVSPropertyOp25
 70
     1
102
RTVSPropertyOp26
 70
     1
102
RTVSPropertyOp27
 70
     1
102
RTVSPropertyOp28
 70
     1
102
RTVSPropertyOp29
 70
     1
102
RTVSPropertyOp30
 70
     1
102
RTVSPropertyOp31
 70
     1
102
RTVSPropertyOp32
 70
     1
102
RTVSPropertyOp33
 70
     1
102
RTVSPropertyOp34
 70
     1
102
RTVSPropertyOp35
 70
     1
102
RTVSPropertyOp36
 70
     1
102
RTVSPropertyOp37
 70
     1
102
RTVSPropertyOp38
 70
     1
102
RTVSPropertyOp39
 70
     1
102
RTVSPropertyOp40
 70
     1
102
RTVSPropertyOp41
 70
     1
102
RTVSPropertyOp42
 70
     1
102
RTVSPropertyOp43
 70
     1
102
RTVSPropertyOp44
 70
     1
102
RTVSPropertyOp45
 70
     1
102
RTVSPropertyOp46
 70
     1
102
RTVSPropertyOp47
 70
     1
102
RTVSPropertyOp48
 70
     1
102
RTVSPropertyOp49
 70
     1
102
RTVSPropertyOp50
 70
     1
102
RTVSPropertyOp51
 70
     0
102
RTVSPropertyOp52
 70
     0
102
RTVSPropertyOp53
 70
     1
102
RTVSPropertyOp54
 70
     1
102
RTVSPropertyOp55
 70
     1
102
RTVSPropertyOp56
 70
     1
102
RTVSPropertyOp57
 70
     1
102
RTVSPropertyOp58
 70
     1
102
RTVSPropertyOp59
 70
     1
102
RTVSPropertyOp60
 70
     1
102
RTVSPropertyOp61
 70
     1
102
RTVSPropertyOp62
 70
     1
  0
XRECORD
  5
116F8
102
{ACAD_REACTORS
330
116F7
102
}
330
116F7
100
AcDbXrecord
280
     1
102
RTVSPost2010Prop28
280
     0
102
RTVSPost2010PropOp28
 70
     1
102
RTVSPost2010Prop29
280
     1
102
RTVSPost2010PropOp29
 70
     1
102
RTVSPost2010Prop30
280
     1
102
RTVSPost2010PropOp30
 70
     1
102
RTVSPost2010Prop31
280
     0
102
RTVSPost2010PropOp31
 70
     1
102
RTVSPost2010Prop32
280
     0
102
RTVSPost2010PropOp32
 70
     1
102
RTVSPost2010Prop33
280
     0
102
RTVSPost2010PropOp33
 70
     1
102
RTVSPost2010Prop34
280
     0
102
RTVSPost2010PropOp34
 70
     1
102
RTVSPost2010Prop35
280
     0
102
RTVSPost2010PropOp35
 70
     1
102
RTVSPost2010Prop36
280
     0
102
RTVSPost2010PropOp36
 70
     1
102
RTVSPost2010Prop37
 90
       50
102
RTVSPost2010PropOp37
 70
     1
102
RTVSPost2010Prop38
140
0.0
102
RTVSPost2010PropOp38
 70
     1
102
RTVSPost2010Prop39
140
1.0
102
RTVSPost2010PropOp39
 70
     1
102
RTVSPost2010Prop40
 90
        0
102
RTVSPost2010PropOp40
 70
     1
102
RTVSPost2010Prop41ColorIndex
 90
       18
102
RTVSPost2010Prop41ColorRGB
 90
        0
102
RTVSPost2010PropOp41
 70
     1
102
RTVSPost2010Prop42
 90
       50
102
RTVSPost2010PropOp42
 70
     1
102
RTVSPost2010Prop43
 90
        3
102
RTVSPost2010PropOp43
 70
     1
102
RTVSPost2010Prop44ColorIndex
 90
        5
102
RTVSPost2010Prop44ColorRGB
 90
      255
102
RTVSPost2010PropOp44
 70
     1
102
RTVSPost2010Prop45
280
     0
102
RTVSPost2010PropOp45
 70
     1
102
RTVSPost2010Prop46
 90
       50
102
RTVSPost2010PropOp46
 70
     1
102
RTVSPost2010Prop47
 90
       50
102
RTVSPost2010PropOp47
 70
     1
102
RTVSPost2010Prop48
 90
       50
102
RTVSPost2010PropOp48
 70
     1
102
RTVSPost2010Prop49
280
     0
102
RTVSPost2010PropOp49
 70
     1
102
RTVSPost2010Prop50
 90
       50
102
RTVSPost2010PropOp50
 70
     1
102
RTVSPost2010Prop51ColorIndex
 90
      256
102
RTVSPost2010Prop51ColorRGB
 90
-16777216
102
RTVSPost2010PropOp51
 70
     0
102
RTVSPost2010Prop52
140
1.0
102
RTVSPost2010PropOp52
 70
     0
102
RTVSPost2010Prop53
 90
        2
102
RTVSPost2010PropOp53
 70
     1
102
RTVSPost2010Prop54
  1
strokes_ogs.tif
102
RTVSPost2010PropOp54
 70
     1
102
RTVSPost2010Prop55
280
     0
102
RTVSPost2010PropOp55
 70
     1
102
RTVSPost2010Prop56
140
1.0
102
RTVSPost2010PropOp56
 70
     1
102
RTVSPost2010Prop57
140
1.0
102
RTVSPost2010PropOp57
 70
     1
102
RTVSPropertyOp0
 70
     1
102
RTVSPropertyOp1
 70
     1
102
RTVSPropertyOp2
 70
     1
102
RTVSPropertyOp3
 70
     1
102
RTVSPropertyOp4
 70
     1
102
RTVSPropertyOp5
 70
     1
102
RTVSPropertyOp6
 70
     1
102
RTVSPropertyOp7
 70
     1
102
RTVSPropertyOp8
 70
     1
102
RTVSPropertyOp9
 70
     1
102
RTVSPropertyOp10
 70
     1
102
RTVSPropertyOp11
 70
     1
102
RTVSPropertyOp12
 70
     1
102
RTVSPropertyOp13
 70
     1
102
RTVSPropertyOp14
 70
     1
102
RTVSPropertyOp15
 70
     1
102
RTVSPropertyOp16
 70
     1
102
RTVSPropertyOp17
 70
     1
102
RTVSPropertyOp18
 70
     1
102
RTVSPropertyOp19
 70
     1
102
RTVSPropertyOp20
 70
     1
102
RTVSPropertyOp21
 70
     1
102
RTVSPropertyOp22
 70
     1
102
RTVSPropertyOp23
 70
     1
102
RTVSPropertyOp24
 70
     1
102
RTVSPropertyOp25
 70
     1
102
RTVSPropertyOp26
 70
     1
102
RTVSPropertyOp27
 70
     1
102
RTVSPropertyOp28
 70
     1
102
RTVSPropertyOp29
 70
     1
102
RTVSPropertyOp30
 70
     1
102
RTVSPropertyOp31
 70
     1
102
RTVSPropertyOp32
 70
     1
102
RTVSPropertyOp33
 70
     1
102
RTVSPropertyOp34
 70
     1
102
RTVSPropertyOp35
 70
     1
102
RTVSPropertyOp36
 70
     1
102
RTVSPropertyOp37
 70
     1
102
RTVSPropertyOp38
 70
     1
102
RTVSPropertyOp39
 70
     1
102
RTVSPropertyOp40
 70
     1
102
RTVSPropertyOp41
 70
     1
102
RTVSPropertyOp42
 70
     1
102
RTVSPropertyOp43
 70
     1
102
RTVSPropertyOp44
 70
     1
102
RTVSPropertyOp45
 70
     1
102
RTVSPropertyOp46
 70
     1
102
RTVSPropertyOp47
 70
     1
102
RTVSPropertyOp48
 70
     1
102
RTVSPropertyOp49
 70
     1
102
RTVSPropertyOp50
 70
     1
102
RTVSPropertyOp51
 70
     0
102
RTVSPropertyOp52
 70
     0
102
RTVSPropertyOp53
 70
     1
102
RTVSPropertyOp54
 70
     1
102
RTVSPropertyOp55
 70
     1
102
RTVSPropertyOp56
 70
     1
102
RTVSPropertyOp57
 70
     1
102
RTVSPropertyOp58
 70
     1
102
RTVSPropertyOp59
 70
     1
102
RTVSPropertyOp60
 70
     1
102
RTVSPropertyOp61
 70
     1
102
RTVSPropertyOp62
 70
     1
  0
XRECORD
  5
116EA
102
{ACAD_REACTORS
330
116E9
102
}
330
116E9
100
AcDbXrecord
280
     1
102
RTVSPost2010Prop28
280
     0
102
RTVSPost2010PropOp28
 70
     1
102
RTVSPost2010Prop29
280
     1
102
RTVSPost2010PropOp29
 70
     1
102
RTVSPost2010Prop30
280
     1
102
RTVSPost2010PropOp30
 70
     1
102
RTVSPost2010Prop31
280
     0
102
RTVSPost2010PropOp31
 70
     1
102
RTVSPost2010Prop32
280
     0
102
RTVSPost2010PropOp32
 70
     1
102
RTVSPost2010Prop33
280
     0
102
RTVSPost2010PropOp33
 70
     1
102
RTVSPost2010Prop34
280
     0
102
RTVSPost2010PropOp34
 70
     1
102
RTVSPost2010Prop35
280
     0
102
RTVSPost2010PropOp35
 70
     1
102
RTVSPost2010Prop36
280
     0
102
RTVSPost2010PropOp36
 70
     1
102
RTVSPost2010Prop37
 90
       50
102
RTVSPost2010PropOp37
 70
     1
102
RTVSPost2010Prop38
140
0.0
102
RTVSPost2010PropOp38
 70
     1
102
RTVSPost2010Prop39
140
1.0
102
RTVSPost2010PropOp39
 70
     1
102
RTVSPost2010Prop40
 90
        0
102
RTVSPost2010PropOp40
 70
     1
102
RTVSPost2010Prop41ColorIndex
 90
       18
102
RTVSPost2010Prop41ColorRGB
 90
        0
102
RTVSPost2010PropOp41
 70
     1
102
RTVSPost2010Prop42
 90
       50
102
RTVSPost2010PropOp42
 70
     1
102
RTVSPost2010Prop43
 90
        3
102
RTVSPost2010PropOp43
 70
     1
102
RTVSPost2010Prop44ColorIndex
 90
        5
102
RTVSPost2010Prop44ColorRGB
 90
      255
102
RTVSPost2010PropOp44
 70
     1
102
RTVSPost2010Prop45
280
     0
102
RTVSPost2010PropOp45
 70
     1
102
RTVSPost2010Prop46
 90
       50
102
RTVSPost2010PropOp46
 70
     1
102
RTVSPost2010Prop47
 90
       50
102
RTVSPost2010PropOp47
 70
     1
102
RTVSPost2010Prop48
 90
       50
102
RTVSPost2010PropOp48
 70
     1
102
RTVSPost2010Prop49
280
     0
102
RTVSPost2010PropOp49
 70
     1
102
RTVSPost2010Prop50
 90
       50
102
RTVSPost2010PropOp50
 70
     1
102
RTVSPost2010Prop51ColorIndex
 90
      256
102
RTVSPost2010Prop51ColorRGB
 90
-16777216
102
RTVSPost2010PropOp51
 70
     0
102
RTVSPost2010Prop52
140
1.0
102
RTVSPost2010PropOp52
 70
     0
102
RTVSPost2010Prop53
 90
        2
102
RTVSPost2010PropOp53
 70
     1
102
RTVSPost2010Prop54
  1
strokes_ogs.tif
102
RTVSPost2010PropOp54
 70
     1
102
RTVSPost2010Prop55
280
     0
102
RTVSPost2010PropOp55
 70
     1
102
RTVSPost2010Prop56
140
1.0
102
RTVSPost2010PropOp56
 70
     1
102
RTVSPost2010Prop57
140
1.0
102
RTVSPost2010PropOp57
 70
     1
102
RTVSPropertyOp0
 70
     1
102
RTVSPropertyOp1
 70
     1
102
RTVSPropertyOp2
 70
     1
102
RTVSPropertyOp3
 70
     1
102
RTVSPropertyOp4
 70
     1
102
RTVSPropertyOp5
 70
     1
102
RTVSPropertyOp6
 70
     1
102
RTVSPropertyOp7
 70
     1
102
RTVSPropertyOp8
 70
     1
102
RTVSPropertyOp9
 70
     1
102
RTVSPropertyOp10
 70
     1
102
RTVSPropertyOp11
 70
     1
102
RTVSPropertyOp12
 70
     1
102
RTVSPropertyOp13
 70
     1
102
RTVSPropertyOp14
 70
     1
102
RTVSPropertyOp15
 70
     1
102
RTVSPropertyOp16
 70
     1
102
RTVSPropertyOp17
 70
     1
102
RTVSPropertyOp18
 70
     1
102
RTVSPropertyOp19
 70
     1
102
RTVSPropertyOp20
 70
     1
102
RTVSPropertyOp21
 70
     1
102
RTVSPropertyOp22
 70
     1
102
RTVSPropertyOp23
 70
     1
102
RTVSPropertyOp24
 70
     1
102
RTVSPropertyOp25
 70
     1
102
RTVSPropertyOp26
 70
     1
102
RTVSPropertyOp27
 70
     1
102
RTVSPropertyOp28
 70
     1
102
RTVSPropertyOp29
 70
     1
102
RTVSPropertyOp30
 70
     1
102
RTVSPropertyOp31
 70
     1
102
RTVSPropertyOp32
 70
     1
102
RTVSPropertyOp33
 70
     1
102
RTVSPropertyOp34
 70
     1
102
RTVSPropertyOp35
 70
     1
102
RTVSPropertyOp36
 70
     1
102
RTVSPropertyOp37
 70
     1
102
RTVSPropertyOp38
 70
     1
102
RTVSPropertyOp39
 70
     1
102
RTVSPropertyOp40
 70
     1
102
RTVSPropertyOp41
 70
     1
102
RTVSPropertyOp42
 70
     1
102
RTVSPropertyOp43
 70
     1
102
RTVSPropertyOp44
 70
     1
102
RTVSPropertyOp45
 70
     1
102
RTVSPropertyOp46
 70
     1
102
RTVSPropertyOp47
 70
     1
102
RTVSPropertyOp48
 70
     1
102
RTVSPropertyOp49
 70
     1
102
RTVSPropertyOp50
 70
     1
102
RTVSPropertyOp51
 70
     0
102
RTVSPropertyOp52
 70
     0
102
RTVSPropertyOp53
 70
     1
102
RTVSPropertyOp54
 70
     1
102
RTVSPropertyOp55
 70
     1
102
RTVSPropertyOp56
 70
     1
102
RTVSPropertyOp57
 70
     1
102
RTVSPropertyOp58
 70
     1
102
RTVSPropertyOp59
 70
     1
102
RTVSPropertyOp60
 70
     1
102
RTVSPropertyOp61
 70
     1
102
RTVSPropertyOp62
 70
     1
  0
XRECORD
  5
116EE
102
{ACAD_REACTORS
330
116ED
102
}
330
116ED
100
AcDbXrecord
280
     1
102
RTVSPost2010Prop28
280
     0
102
RTVSPost2010PropOp28
 70
     1
102
RTVSPost2010Prop29
280
     1
102
RTVSPost2010PropOp29
 70
     1
102
RTVSPost2010Prop30
280
     1
102
RTVSPost2010PropOp30
 70
     1
102
RTVSPost2010Prop31
280
     0
102
RTVSPost2010PropOp31
 70
     1
102
RTVSPost2010Prop32
280
     0
102
RTVSPost2010PropOp32
 70
     1
102
RTVSPost2010Prop33
280
     0
102
RTVSPost2010PropOp33
 70
     1
102
RTVSPost2010Prop34
280
     0
102
RTVSPost2010PropOp34
 70
     1
102
RTVSPost2010Prop35
280
     0
102
RTVSPost2010PropOp35
 70
     1
102
RTVSPost2010Prop36
280
     0
102
RTVSPost2010PropOp36
 70
     1
102
RTVSPost2010Prop37
 90
       50
102
RTVSPost2010PropOp37
 70
     1
102
RTVSPost2010Prop38
140
0.0
102
RTVSPost2010PropOp38
 70
     1
102
RTVSPost2010Prop39
140
1.0
102
RTVSPost2010PropOp39
 70
     1
102
RTVSPost2010Prop40
 90
        0
102
RTVSPost2010PropOp40
 70
     1
102
RTVSPost2010Prop41ColorIndex
 90
       18
102
RTVSPost2010Prop41ColorRGB
 90
        0
102
RTVSPost2010PropOp41
 70
     1
102
RTVSPost2010Prop42
 90
       50
102
RTVSPost2010PropOp42
 70
     1
102
RTVSPost2010Prop43
 90
        3
102
RTVSPost2010PropOp43
 70
     1
102
RTVSPost2010Prop44ColorIndex
 90
        5
102
RTVSPost2010Prop44ColorRGB
 90
      255
102
RTVSPost2010PropOp44
 70
     1
102
RTVSPost2010Prop45
280
     0
102
RTVSPost2010PropOp45
 70
     1
102
RTVSPost2010Prop46
 90
       50
102
RTVSPost2010PropOp46
 70
     1
102
RTVSPost2010Prop47
 90
       50
102
RTVSPost2010PropOp47
 70
     1
102
RTVSPost2010Prop48
 90
       50
102
RTVSPost2010PropOp48
 70
     1
102
RTVSPost2010Prop49
280
     0
102
RTVSPost2010PropOp49
 70
     1
102
RTVSPost2010Prop50
 90
       50
102
RTVSPost2010PropOp50
 70
     1
102
RTVSPost2010Prop51ColorIndex
 90
      256
102
RTVSPost2010Prop51ColorRGB
 90
-16777216
102
RTVSPost2010PropOp51
 70
     0
102
RTVSPost2010Prop52
140
1.0
102
RTVSPost2010PropOp52
 70
     0
102
RTVSPost2010Prop53
 90
        2
102
RTVSPost2010PropOp53
 70
     1
102
RTVSPost2010Prop54
  1
strokes_ogs.tif
102
RTVSPost2010PropOp54
 70
     1
102
RTVSPost2010Prop55
280
     0
102
RTVSPost2010PropOp55
 70
     1
102
RTVSPost2010Prop56
140
1.0
102
RTVSPost2010PropOp56
 70
     1
102
RTVSPost2010Prop57
140
1.0
102
RTVSPost2010PropOp57
 70
     1
102
RTVSPropertyOp0
 70
     1
102
RTVSPropertyOp1
 70
     1
102
RTVSPropertyOp2
 70
     1
102
RTVSPropertyOp3
 70
     1
102
RTVSPropertyOp4
 70
     1
102
RTVSPropertyOp5
 70
     1
102
RTVSPropertyOp6
 70
     1
102
RTVSPropertyOp7
 70
     1
102
RTVSPropertyOp8
 70
     1
102
RTVSPropertyOp9
 70
     1
102
RTVSPropertyOp10
 70
     1
102
RTVSPropertyOp11
 70
     1
102
RTVSPropertyOp12
 70
     1
102
RTVSPropertyOp13
 70
     1
102
RTVSPropertyOp14
 70
     1
102
RTVSPropertyOp15
 70
     1
102
RTVSPropertyOp16
 70
     1
102
RTVSPropertyOp17
 70
     1
102
RTVSPropertyOp18
 70
     1
102
RTVSPropertyOp19
 70
     1
102
RTVSPropertyOp20
 70
     1
102
RTVSPropertyOp21
 70
     1
102
RTVSPropertyOp22
 70
     1
102
RTVSPropertyOp23
 70
     1
102
RTVSPropertyOp24
 70
     1
102
RTVSPropertyOp25
 70
     1
102
RTVSPropertyOp26
 70
     1
102
RTVSPropertyOp27
 70
     1
102
RTVSPropertyOp28
 70
     1
102
RTVSPropertyOp29
 70
     1
102
RTVSPropertyOp30
 70
     1
102
RTVSPropertyOp31
 70
     1
102
RTVSPropertyOp32
 70
     1
102
RTVSPropertyOp33
 70
     1
102
RTVSPropertyOp34
 70
     1
102
RTVSPropertyOp35
 70
     1
102
RTVSPropertyOp36
 70
     1
102
RTVSPropertyOp37
 70
     1
102
RTVSPropertyOp38
 70
     1
102
RTVSPropertyOp39
 70
     1
102
RTVSPropertyOp40
 70
     1
102
RTVSPropertyOp41
 70
     1
102
RTVSPropertyOp42
 70
     1
102
RTVSPropertyOp43
 70
     1
102
RTVSPropertyOp44
 70
     1
102
RTVSPropertyOp45
 70
     1
102
RTVSPropertyOp46
 70
     1
102
RTVSPropertyOp47
 70
     1
102
RTVSPropertyOp48
 70
     1
102
RTVSPropertyOp49
 70
     1
102
RTVSPropertyOp50
 70
     1
102
RTVSPropertyOp51
 70
     0
102
RTVSPropertyOp52
 70
     0
102
RTVSPropertyOp53
 70
     1
102
RTVSPropertyOp54
 70
     1
102
RTVSPropertyOp55
 70
     1
102
RTVSPropertyOp56
 70
     1
102
RTVSPropertyOp57
 70
     1
102
RTVSPropertyOp58
 70
     1
102
RTVSPropertyOp59
 70
     1
102
RTVSPropertyOp60
 70
     1
102
RTVSPropertyOp61
 70
     1
102
RTVSPropertyOp62
 70
     1
  0
XRECORD
  5
11700
102
{ACAD_REACTORS
330
116FF
102
}
330
116FF
100
AcDbXrecord
280
     1
102
RTVSPost2010Prop28
280
     0
102
RTVSPost2010PropOp28
 70
     1
102
RTVSPost2010Prop29
280
     1
102
RTVSPost2010PropOp29
 70
     1
102
RTVSPost2010Prop30
280
     1
102
RTVSPost2010PropOp30
 70
     1
102
RTVSPost2010Prop31
280
     0
102
RTVSPost2010PropOp31
 70
     1
102
RTVSPost2010Prop32
280
     0
102
RTVSPost2010PropOp32
 70
     1
102
RTVSPost2010Prop33
280
     0
102
RTVSPost2010PropOp33
 70
     1
102
RTVSPost2010Prop34
280
     0
102
RTVSPost2010PropOp34
 70
     1
102
RTVSPost2010Prop35
280
     0
102
RTVSPost2010PropOp35
 70
     1
102
RTVSPost2010Prop36
280
     0
102
RTVSPost2010PropOp36
 70
     1
102
RTVSPost2010Prop37
 90
       50
102
RTVSPost2010PropOp37
 70
     1
102
RTVSPost2010Prop38
140
0.0
102
RTVSPost2010PropOp38
 70
     1
102
RTVSPost2010Prop39
140
1.0
102
RTVSPost2010PropOp39
 70
     1
102
RTVSPost2010Prop40
 90
        0
102
RTVSPost2010PropOp40
 70
     1
102
RTVSPost2010Prop41ColorIndex
 90
       18
102
RTVSPost2010Prop41ColorRGB
 90
        0
102
RTVSPost2010PropOp41
 70
     1
102
RTVSPost2010Prop42
 90
       50
102
RTVSPost2010PropOp42
 70
     1
102
RTVSPost2010Prop43
 90
        3
102
RTVSPost2010PropOp43
 70
     1
102
RTVSPost2010Prop44ColorIndex
 90
        5
102
RTVSPost2010Prop44ColorRGB
 90
      255
102
RTVSPost2010PropOp44
 70
     1
102
RTVSPost2010Prop45
280
     0
102
RTVSPost2010PropOp45
 70
     1
102
RTVSPost2010Prop46
 90
       50
102
RTVSPost2010PropOp46
 70
     1
102
RTVSPost2010Prop47
 90
       50
102
RTVSPost2010PropOp47
 70
     1
102
RTVSPost2010Prop48
 90
       50
102
RTVSPost2010PropOp48
 70
     1
102
RTVSPost2010Prop49
280
     0
102
RTVSPost2010PropOp49
 70
     1
102
RTVSPost2010Prop50
 90
       50
102
RTVSPost2010PropOp50
 70
     1
102
RTVSPost2010Prop51ColorIndex
 90
      256
102
RTVSPost2010Prop51ColorRGB
 90
-16777216
102
RTVSPost2010PropOp51
 70
     0
102
RTVSPost2010Prop52
140
1.0
102
RTVSPost2010PropOp52
 70
     0
102
RTVSPost2010Prop53
 90
        2
102
RTVSPost2010PropOp53
 70
     1
102
RTVSPost2010Prop54
  1
strokes_ogs.tif
102
RTVSPost2010PropOp54
 70
     1
102
RTVSPost2010Prop55
280
     0
102
RTVSPost2010PropOp55
 70
     1
102
RTVSPost2010Prop56
140
1.0
102
RTVSPost2010PropOp56
 70
     1
102
RTVSPost2010Prop57
140
1.0
102
RTVSPost2010PropOp57
 70
     1
102
RTVSPropertyOp0
 70
     0
102
RTVSPropertyOp1
 70
     0
102
RTVSPropertyOp2
 70
     0
102
RTVSPropertyOp3
 70
     0
102
RTVSPropertyOp4
 70
     0
102
RTVSPropertyOp5
 70
     0
102
RTVSPropertyOp6
 70
     0
102
RTVSPropertyOp7
 70
     0
102
RTVSPropertyOp8
 70
     0
102
RTVSPropertyOp9
 70
     0
102
RTVSPropertyOp10
 70
     0
102
RTVSPropertyOp11
 70
     0
102
RTVSPropertyOp12
 70
     0
102
RTVSPropertyOp13
 70
     0
102
RTVSPropertyOp14
 70
     2
102
RTVSPropertyOp15
 70
     0
102
RTVSPropertyOp16
 70
     0
102
RTVSPropertyOp17
 70
     0
102
RTVSPropertyOp18
 70
     0
102
RTVSPropertyOp19
 70
     0
102
RTVSPropertyOp20
 70
     0
102
RTVSPropertyOp21
 70
     0
102
RTVSPropertyOp22
 70
     0
102
RTVSPropertyOp23
 70
     0
102
RTVSPropertyOp24
 70
     0
102
RTVSPropertyOp25
 70
     0
102
RTVSPropertyOp26
 70
     0
102
RTVSPropertyOp27
 70
     0
102
RTVSPropertyOp28
 70
     1
102
RTVSPropertyOp29
 70
     1
102
RTVSPropertyOp30
 70
     1
102
RTVSPropertyOp31
 70
     1
102
RTVSPropertyOp32
 70
     1
102
RTVSPropertyOp33
 70
     1
102
RTVSPropertyOp34
 70
     1
102
RTVSPropertyOp35
 70
     1
102
RTVSPropertyOp36
 70
     1
102
RTVSPropertyOp37
 70
     1
102
RTVSPropertyOp38
 70
     1
102
RTVSPropertyOp39
 70
     1
102
RTVSPropertyOp40
 70
     1
102
RTVSPropertyOp41
 70
     1
102
RTVSPropertyOp42
 70
     1
102
RTVSPropertyOp43
 70
     1
102
RTVSPropertyOp44
 70
     1
102
RTVSPropertyOp45
 70
     1
102
RTVSPropertyOp46
 70
     1
102
RTVSPropertyOp47
 70
     1
102
RTVSPropertyOp48
 70
     1
102
RTVSPropertyOp49
 70
     1
102
RTVSPropertyOp50
 70
     1
102
RTVSPropertyOp51
 70
     0
102
RTVSPropertyOp52
 70
     0
102
RTVSPropertyOp53
 70
     1
102
RTVSPropertyOp54
 70
     1
102
RTVSPropertyOp55
 70
     1
102
RTVSPropertyOp56
 70
     1
102
RTVSPropertyOp57
 70
     1
102
RTVSPropertyOp58
 70
     1
102
RTVSPropertyOp59
 70
     1
102
RTVSPropertyOp60
 70
     1
102
RTVSPropertyOp61
 70
     1
102
RTVSPropertyOp62
 70
     1
  0
XRECORD
  5
116F6
102
{ACAD_REACTORS
330
116F5
102
}
330
116F5
100
AcDbXrecord
280
     1
102
RTVSPost2010Prop28
280
     0
102
RTVSPost2010PropOp28
 70
     1
102
RTVSPost2010Prop29
280
     1
102
RTVSPost2010PropOp29
 70
     1
102
RTVSPost2010Prop30
280
     1
102
RTVSPost2010PropOp30
 70
     1
102
RTVSPost2010Prop31
280
     0
102
RTVSPost2010PropOp31
 70
     1
102
RTVSPost2010Prop32
280
     0
102
RTVSPost2010PropOp32
 70
     1
102
RTVSPost2010Prop33
280
     0
102
RTVSPost2010PropOp33
 70
     1
102
RTVSPost2010Prop34
280
     0
102
RTVSPost2010PropOp34
 70
     1
102
RTVSPost2010Prop35
280
     0
102
RTVSPost2010PropOp35
 70
     1
102
RTVSPost2010Prop36
280
     0
102
RTVSPost2010PropOp36
 70
     1
102
RTVSPost2010Prop37
 90
       50
102
RTVSPost2010PropOp37
 70
     1
102
RTVSPost2010Prop38
140
0.0
102
RTVSPost2010PropOp38
 70
     1
102
RTVSPost2010Prop39
140
1.0
102
RTVSPost2010PropOp39
 70
     1
102
RTVSPost2010Prop40
 90
        0
102
RTVSPost2010PropOp40
 70
     1
102
RTVSPost2010Prop41ColorIndex
 90
       18
102
RTVSPost2010Prop41ColorRGB
 90
        0
102
RTVSPost2010PropOp41
 70
     1
102
RTVSPost2010Prop42
 90
       50
102
RTVSPost2010PropOp42
 70
     1
102
RTVSPost2010Prop43
 90
        3
102
RTVSPost2010PropOp43
 70
     1
102
RTVSPost2010Prop44ColorIndex
 90
        5
102
RTVSPost2010Prop44ColorRGB
 90
      255
102
RTVSPost2010PropOp44
 70
     1
102
RTVSPost2010Prop45
280
     0
102
RTVSPost2010PropOp45
 70
     1
102
RTVSPost2010Prop46
 90
       50
102
RTVSPost2010PropOp46
 70
     1
102
RTVSPost2010Prop47
 90
       50
102
RTVSPost2010PropOp47
 70
     1
102
RTVSPost2010Prop48
 90
       50
102
RTVSPost2010PropOp48
 70
     1
102
RTVSPost2010Prop49
280
     0
102
RTVSPost2010PropOp49
 70
     1
102
RTVSPost2010Prop50
 90
       50
102
RTVSPost2010PropOp50
 70
     1
102
RTVSPost2010Prop51ColorIndex
 90
      256
102
RTVSPost2010Prop51ColorRGB
 90
-16777216
102
RTVSPost2010PropOp51
 70
     0
102
RTVSPost2010Prop52
140
1.0
102
RTVSPost2010PropOp52
 70
     0
102
RTVSPost2010Prop53
 90
        2
102
RTVSPost2010PropOp53
 70
     1
102
RTVSPost2010Prop54
  1
strokes_ogs.tif
102
RTVSPost2010PropOp54
 70
     1
102
RTVSPost2010Prop55
280
     0
102
RTVSPost2010PropOp55
 70
     1
102
RTVSPost2010Prop56
140
1.0
102
RTVSPost2010PropOp56
 70
     1
102
RTVSPost2010Prop57
140
1.0
102
RTVSPost2010PropOp57
 70
     1
102
RTVSPropertyOp0
 70
     1
102
RTVSPropertyOp1
 70
     1
102
RTVSPropertyOp2
 70
     1
102
RTVSPropertyOp3
 70
     1
102
RTVSPropertyOp4
 70
     1
102
RTVSPropertyOp5
 70
     1
102
RTVSPropertyOp6
 70
     1
102
RTVSPropertyOp7
 70
     1
102
RTVSPropertyOp8
 70
     1
102
RTVSPropertyOp9
 70
     1
102
RTVSPropertyOp10
 70
     1
102
RTVSPropertyOp11
 70
     1
102
RTVSPropertyOp12
 70
     1
102
RTVSPropertyOp13
 70
     1
102
RTVSPropertyOp14
 70
     1
102
RTVSPropertyOp15
 70
     1
102
RTVSPropertyOp16
 70
     1
102
RTVSPropertyOp17
 70
     1
102
RTVSPropertyOp18
 70
     1
102
RTVSPropertyOp19
 70
     1
102
RTVSPropertyOp20
 70
     1
102
RTVSPropertyOp21
 70
     1
102
RTVSPropertyOp22
 70
     1
102
RTVSPropertyOp23
 70
     1
102
RTVSPropertyOp24
 70
     1
102
RTVSPropertyOp25
 70
     1
102
RTVSPropertyOp26
 70
     1
102
RTVSPropertyOp27
 70
     1
102
RTVSPropertyOp28
 70
     1
102
RTVSPropertyOp29
 70
     1
102
RTVSPropertyOp30
 70
     1
102
RTVSPropertyOp31
 70
     1
102
RTVSPropertyOp32
 70
     1
102
RTVSPropertyOp33
 70
     1
102
RTVSPropertyOp34
 70
     1
102
RTVSPropertyOp35
 70
     1
102
RTVSPropertyOp36
 70
     1
102
RTVSPropertyOp37
 70
     1
102
RTVSPropertyOp38
 70
     1
102
RTVSPropertyOp39
 70
     1
102
RTVSPropertyOp40
 70
     1
102
RTVSPropertyOp41
 70
     1
102
RTVSPropertyOp42
 70
     1
102
RTVSPropertyOp43
 70
     1
102
RTVSPropertyOp44
 70
     1
102
RTVSPropertyOp45
 70
     1
102
RTVSPropertyOp46
 70
     1
102
RTVSPropertyOp47
 70
     1
102
RTVSPropertyOp48
 70
     1
102
RTVSPropertyOp49
 70
     1
102
RTVSPropertyOp50
 70
     1
102
RTVSPropertyOp51
 70
     0
102
RTVSPropertyOp52
 70
     0
102
RTVSPropertyOp53
 70
     1
102
RTVSPropertyOp54
 70
     1
102
RTVSPropertyOp55
 70
     1
102
RTVSPropertyOp56
 70
     1
102
RTVSPropertyOp57
 70
     1
102
RTVSPropertyOp58
 70
     1
102
RTVSPropertyOp59
 70
     1
102
RTVSPropertyOp60
 70
     1
102
RTVSPropertyOp61
 70
     1
102
RTVSPropertyOp62
 70
     1
  0
XRECORD
  5
116DA
102
{ACAD_REACTORS
330
116D9
102
}
330
116D9
100
AcDbXrecord
280
     1
102
RTVSPost2010Prop28
280
     0
102
RTVSPost2010PropOp28
 70
     1
102
RTVSPost2010Prop29
280
     1
102
RTVSPost2010PropOp29
 70
     1
102
RTVSPost2010Prop30
280
     1
102
RTVSPost2010PropOp30
 70
     1
102
RTVSPost2010Prop31
280
     0
102
RTVSPost2010PropOp31
 70
     1
102
RTVSPost2010Prop32
280
     0
102
RTVSPost2010PropOp32
 70
     1
102
RTVSPost2010Prop33
280
     0
102
RTVSPost2010PropOp33
 70
     1
102
RTVSPost2010Prop34
280
     0
102
RTVSPost2010PropOp34
 70
     1
102
RTVSPost2010Prop35
280
     0
102
RTVSPost2010PropOp35
 70
     1
102
RTVSPost2010Prop36
280
     0
102
RTVSPost2010PropOp36
 70
     1
102
RTVSPost2010Prop37
 90
       50
102
RTVSPost2010PropOp37
 70
     1
102
RTVSPost2010Prop38
140
0.0
102
RTVSPost2010PropOp38
 70
     1
102
RTVSPost2010Prop39
140
1.0
102
RTVSPost2010PropOp39
 70
     1
102
RTVSPost2010Prop40
 90
        0
102
RTVSPost2010PropOp40
 70
     1
102
RTVSPost2010Prop41ColorIndex
 90
       18
102
RTVSPost2010Prop41ColorRGB
 90
        0
102
RTVSPost2010PropOp41
 70
     1
102
RTVSPost2010Prop42
 90
       50
102
RTVSPost2010PropOp42
 70
     1
102
RTVSPost2010Prop43
 90
        3
102
RTVSPost2010PropOp43
 70
     1
102
RTVSPost2010Prop44ColorIndex
 90
        5
102
RTVSPost2010Prop44ColorRGB
 90
      255
102
RTVSPost2010PropOp44
 70
     1
102
RTVSPost2010Prop45
280
     0
102
RTVSPost2010PropOp45
 70
     1
102
RTVSPost2010Prop46
 90
       50
102
RTVSPost2010PropOp46
 70
     1
102
RTVSPost2010Prop47
 90
       50
102
RTVSPost2010PropOp47
 70
     1
102
RTVSPost2010Prop48
 90
       50
102
RTVSPost2010PropOp48
 70
     1
102
RTVSPost2010Prop49
280
     0
102
RTVSPost2010PropOp49
 70
     1
102
RTVSPost2010Prop50
 90
       50
102
RTVSPost2010PropOp50
 70
     1
102
RTVSPost2010Prop51ColorIndex
 90
      256
102
RTVSPost2010Prop51ColorRGB
 90
-16777216
102
RTVSPost2010PropOp51
 70
     0
102
RTVSPost2010Prop52
140
1.0
102
RTVSPost2010PropOp52
 70
     0
102
RTVSPost2010Prop53
 90
        2
102
RTVSPost2010PropOp53
 70
     1
102
RTVSPost2010Prop54
  1
strokes_ogs.tif
102
RTVSPost2010PropOp54
 70
     1
102
RTVSPost2010Prop55
280
     0
102
RTVSPost2010PropOp55
 70
     1
102
RTVSPost2010Prop56
140
1.0
102
RTVSPost2010PropOp56
 70
     1
102
RTVSPost2010Prop57
140
1.0
102
RTVSPost2010PropOp57
 70
     1
102
RTVSPropertyOp0
 70
     1
102
RTVSPropertyOp1
 70
     1
102
RTVSPropertyOp2
 70
     1
102
RTVSPropertyOp3
 70
     1
102
RTVSPropertyOp4
 70
     1
102
RTVSPropertyOp5
 70
     1
102
RTVSPropertyOp6
 70
     1
102
RTVSPropertyOp7
 70
     1
102
RTVSPropertyOp8
 70
     1
102
RTVSPropertyOp9
 70
     1
102
RTVSPropertyOp10
 70
     1
102
RTVSPropertyOp11
 70
     1
102
RTVSPropertyOp12
 70
     1
102
RTVSPropertyOp13
 70
     1
102
RTVSPropertyOp14
 70
     1
102
RTVSPropertyOp15
 70
     1
102
RTVSPropertyOp16
 70
     1
102
RTVSPropertyOp17
 70
     1
102
RTVSPropertyOp18
 70
     1
102
RTVSPropertyOp19
 70
     1
102
RTVSPropertyOp20
 70
     1
102
RTVSPropertyOp21
 70
     1
102
RTVSPropertyOp22
 70
     1
102
RTVSPropertyOp23
 70
     1
102
RTVSPropertyOp24
 70
     1
102
RTVSPropertyOp25
 70
     1
102
RTVSPropertyOp26
 70
     1
102
RTVSPropertyOp27
 70
     1
102
RTVSPropertyOp28
 70
     1
102
RTVSPropertyOp29
 70
     1
102
RTVSPropertyOp30
 70
     1
102
RTVSPropertyOp31
 70
     1
102
RTVSPropertyOp32
 70
     1
102
RTVSPropertyOp33
 70
     1
102
RTVSPropertyOp34
 70
     1
102
RTVSPropertyOp35
 70
     1
102
RTVSPropertyOp36
 70
     1
102
RTVSPropertyOp37
 70
     1
102
RTVSPropertyOp38
 70
     1
102
RTVSPropertyOp39
 70
     1
102
RTVSPropertyOp40
 70
     1
102
RTVSPropertyOp41
 70
     1
102
RTVSPropertyOp42
 70
     1
102
RTVSPropertyOp43
 70
     1
102
RTVSPropertyOp44
 70
     1
102
RTVSPropertyOp45
 70
     1
102
RTVSPropertyOp46
 70
     1
102
RTVSPropertyOp47
 70
     1
102
RTVSPropertyOp48
 70
     1
102
RTVSPropertyOp49
 70
     1
102
RTVSPropertyOp50
 70
     1
102
RTVSPropertyOp51
 70
     0
102
RTVSPropertyOp52
 70
     0
102
RTVSPropertyOp53
 70
     1
102
RTVSPropertyOp54
 70
     1
102
RTVSPropertyOp55
 70
     1
102
RTVSPropertyOp56
 70
     1
102
RTVSPropertyOp57
 70
     1
102
RTVSPropertyOp58
 70
     1
102
RTVSPropertyOp59
 70
     1
102
RTVSPropertyOp60
 70
     1
102
RTVSPropertyOp61
 70
     1
102
RTVSPropertyOp62
 70
     1
  0
XRECORD
  5
116DC
102
{ACAD_REACTORS
330
116DB
102
}
330
116DB
100
AcDbXrecord
280
     1
102
RTVSPost2010Prop28
280
     0
102
RTVSPost2010PropOp28
 70
     1
102
RTVSPost2010Prop29
280
     1
102
RTVSPost2010PropOp29
 70
     1
102
RTVSPost2010Prop30
280
     1
102
RTVSPost2010PropOp30
 70
     1
102
RTVSPost2010Prop31
280
     0
102
RTVSPost2010PropOp31
 70
     1
102
RTVSPost2010Prop32
280
     0
102
RTVSPost2010PropOp32
 70
     1
102
RTVSPost2010Prop33
280
     0
102
RTVSPost2010PropOp33
 70
     1
102
RTVSPost2010Prop34
280
     0
102
RTVSPost2010PropOp34
 70
     1
102
RTVSPost2010Prop35
280
     0
102
RTVSPost2010PropOp35
 70
     1
102
RTVSPost2010Prop36
280
     0
102
RTVSPost2010PropOp36
 70
     1
102
RTVSPost2010Prop37
 90
       50
102
RTVSPost2010PropOp37
 70
     1
102
RTVSPost2010Prop38
140
0.0
102
RTVSPost2010PropOp38
 70
     1
102
RTVSPost2010Prop39
140
1.0
102
RTVSPost2010PropOp39
 70
     1
102
RTVSPost2010Prop40
 90
        0
102
RTVSPost2010PropOp40
 70
     1
102
RTVSPost2010Prop41ColorIndex
 90
       18
102
RTVSPost2010Prop41ColorRGB
 90
        0
102
RTVSPost2010PropOp41
 70
     1
102
RTVSPost2010Prop42
 90
       50
102
RTVSPost2010PropOp42
 70
     1
102
RTVSPost2010Prop43
 90
        3
102
RTVSPost2010PropOp43
 70
     1
102
RTVSPost2010Prop44ColorIndex
 90
        5
102
RTVSPost2010Prop44ColorRGB
 90
      255
102
RTVSPost2010PropOp44
 70
     1
102
RTVSPost2010Prop45
280
     0
102
RTVSPost2010PropOp45
 70
     1
102
RTVSPost2010Prop46
 90
       50
102
RTVSPost2010PropOp46
 70
     1
102
RTVSPost2010Prop47
 90
       50
102
RTVSPost2010PropOp47
 70
     1
102
RTVSPost2010Prop48
 90
       50
102
RTVSPost2010PropOp48
 70
     1
102
RTVSPost2010Prop49
280
     0
102
RTVSPost2010PropOp49
 70
     1
102
RTVSPost2010Prop50
 90
       50
102
RTVSPost2010PropOp50
 70
     1
102
RTVSPost2010Prop51ColorIndex
 90
      256
102
RTVSPost2010Prop51ColorRGB
 90
-16777216
102
RTVSPost2010PropOp51
 70
     0
102
RTVSPost2010Prop52
140
1.0
102
RTVSPost2010PropOp52
 70
     0
102
RTVSPost2010Prop53
 90
        2
102
RTVSPost2010PropOp53
 70
     1
102
RTVSPost2010Prop54
  1
strokes_ogs.tif
102
RTVSPost2010PropOp54
 70
     1
102
RTVSPost2010Prop55
280
     0
102
RTVSPost2010PropOp55
 70
     1
102
RTVSPost2010Prop56
140
1.0
102
RTVSPost2010PropOp56
 70
     1
102
RTVSPost2010Prop57
140
1.0
102
RTVSPost2010PropOp57
 70
     1
102
RTVSPropertyOp0
 70
     1
102
RTVSPropertyOp1
 70
     1
102
RTVSPropertyOp2
 70
     1
102
RTVSPropertyOp3
 70
     1
102
RTVSPropertyOp4
 70
     1
102
RTVSPropertyOp5
 70
     1
102
RTVSPropertyOp6
 70
     1
102
RTVSPropertyOp7
 70
     1
102
RTVSPropertyOp8
 70
     1
102
RTVSPropertyOp9
 70
     1
102
RTVSPropertyOp10
 70
     1
102
RTVSPropertyOp11
 70
     1
102
RTVSPropertyOp12
 70
     1
102
RTVSPropertyOp13
 70
     1
102
RTVSPropertyOp14
 70
     1
102
RTVSPropertyOp15
 70
     1
102
RTVSPropertyOp16
 70
     1
102
RTVSPropertyOp17
 70
     1
102
RTVSPropertyOp18
 70
     1
102
RTVSPropertyOp19
 70
     1
102
RTVSPropertyOp20
 70
     1
102
RTVSPropertyOp21
 70
     1
102
RTVSPropertyOp22
 70
     1
102
RTVSPropertyOp23
 70
     1
102
RTVSPropertyOp24
 70
     1
102
RTVSPropertyOp25
 70
     1
102
RTVSPropertyOp26
 70
     1
102
RTVSPropertyOp27
 70
     1
102
RTVSPropertyOp28
 70
     1
102
RTVSPropertyOp29
 70
     1
102
RTVSPropertyOp30
 70
     1
102
RTVSPropertyOp31
 70
     1
102
RTVSPropertyOp32
 70
     1
102
RTVSPropertyOp33
 70
     1
102
RTVSPropertyOp34
 70
     1
102
RTVSPropertyOp35
 70
     1
102
RTVSPropertyOp36
 70
     1
102
RTVSPropertyOp37
 70
     1
102
RTVSPropertyOp38
 70
     1
102
RTVSPropertyOp39
 70
     1
102
RTVSPropertyOp40
 70
     1
102
RTVSPropertyOp41
 70
     1
102
RTVSPropertyOp42
 70
     1
102
RTVSPropertyOp43
 70
     1
102
RTVSPropertyOp44
 70
     1
102
RTVSPropertyOp45
 70
     1
102
RTVSPropertyOp46
 70
     1
102
RTVSPropertyOp47
 70
     1
102
RTVSPropertyOp48
 70
     1
102
RTVSPropertyOp49
 70
     1
102
RTVSPropertyOp50
 70
     1
102
RTVSPropertyOp51
 70
     0
102
RTVSPropertyOp52
 70
     0
102
RTVSPropertyOp53
 70
     1
102
RTVSPropertyOp54
 70
     1
102
RTVSPropertyOp55
 70
     1
102
RTVSPropertyOp56
 70
     1
102
RTVSPropertyOp57
 70
     1
102
RTVSPropertyOp58
 70
     1
102
RTVSPropertyOp59
 70
     1
102
RTVSPropertyOp60
 70
     1
102
RTVSPropertyOp61
 70
     1
102
RTVSPropertyOp62
 70
     1
  0
XRECORD
  5
116DE
102
{ACAD_REACTORS
330
116DD
102
}
330
116DD
100
AcDbXrecord
280
     1
102
RTVSPost2010Prop28
280
     0
102
RTVSPost2010PropOp28
 70
     1
102
RTVSPost2010Prop29
280
     1
102
RTVSPost2010PropOp29
 70
     1
102
RTVSPost2010Prop30
280
     1
102
RTVSPost2010PropOp30
 70
     1
102
RTVSPost2010Prop31
280
     0
102
RTVSPost2010PropOp31
 70
     1
102
RTVSPost2010Prop32
280
     0
102
RTVSPost2010PropOp32
 70
     1
102
RTVSPost2010Prop33
280
     0
102
RTVSPost2010PropOp33
 70
     1
102
RTVSPost2010Prop34
280
     0
102
RTVSPost2010PropOp34
 70
     1
102
RTVSPost2010Prop35
280
     0
102
RTVSPost2010PropOp35
 70
     1
102
RTVSPost2010Prop36
280
     0
102
RTVSPost2010PropOp36
 70
     1
102
RTVSPost2010Prop37
 90
       50
102
RTVSPost2010PropOp37
 70
     1
102
RTVSPost2010Prop38
140
0.0
102
RTVSPost2010PropOp38
 70
     1
102
RTVSPost2010Prop39
140
1.0
102
RTVSPost2010PropOp39
 70
     1
102
RTVSPost2010Prop40
 90
        0
102
RTVSPost2010PropOp40
 70
     1
102
RTVSPost2010Prop41ColorIndex
 90
       18
102
RTVSPost2010Prop41ColorRGB
 90
        0
102
RTVSPost2010PropOp41
 70
     1
102
RTVSPost2010Prop42
 90
       50
102
RTVSPost2010PropOp42
 70
     1
102
RTVSPost2010Prop43
 90
        3
102
RTVSPost2010PropOp43
 70
     1
102
RTVSPost2010Prop44ColorIndex
 90
        5
102
RTVSPost2010Prop44ColorRGB
 90
      255
102
RTVSPost2010PropOp44
 70
     1
102
RTVSPost2010Prop45
280
     0
102
RTVSPost2010PropOp45
 70
     1
102
RTVSPost2010Prop46
 90
       50
102
RTVSPost2010PropOp46
 70
     1
102
RTVSPost2010Prop47
 90
       50
102
RTVSPost2010PropOp47
 70
     1
102
RTVSPost2010Prop48
 90
       50
102
RTVSPost2010PropOp48
 70
     1
102
RTVSPost2010Prop49
280
     0
102
RTVSPost2010PropOp49
 70
     1
102
RTVSPost2010Prop50
 90
       50
102
RTVSPost2010PropOp50
 70
     1
102
RTVSPost2010Prop51ColorIndex
 90
      256
102
RTVSPost2010Prop51ColorRGB
 90
-16777216
102
RTVSPost2010PropOp51
 70
     0
102
RTVSPost2010Prop52
140
1.0
102
RTVSPost2010PropOp52
 70
     0
102
RTVSPost2010Prop53
 90
        2
102
RTVSPost2010PropOp53
 70
     1
102
RTVSPost2010Prop54
  1
strokes_ogs.tif
102
RTVSPost2010PropOp54
 70
     1
102
RTVSPost2010Prop55
280
     0
102
RTVSPost2010PropOp55
 70
     1
102
RTVSPost2010Prop56
140
1.0
102
RTVSPost2010PropOp56
 70
     1
102
RTVSPost2010Prop57
140
1.0
102
RTVSPost2010PropOp57
 70
     1
102
RTVSPropertyOp0
 70
     1
102
RTVSPropertyOp1
 70
     1
102
RTVSPropertyOp2
 70
     1
102
RTVSPropertyOp3
 70
     1
102
RTVSPropertyOp4
 70
     1
102
RTVSPropertyOp5
 70
     1
102
RTVSPropertyOp6
 70
     1
102
RTVSPropertyOp7
 70
     1
102
RTVSPropertyOp8
 70
     1
102
RTVSPropertyOp9
 70
     1
102
RTVSPropertyOp10
 70
     1
102
RTVSPropertyOp11
 70
     1
102
RTVSPropertyOp12
 70
     1
102
RTVSPropertyOp13
 70
     1
102
RTVSPropertyOp14
 70
     1
102
RTVSPropertyOp15
 70
     1
102
RTVSPropertyOp16
 70
     1
102
RTVSPropertyOp17
 70
     1
102
RTVSPropertyOp18
 70
     1
102
RTVSPropertyOp19
 70
     1
102
RTVSPropertyOp20
 70
     1
102
RTVSPropertyOp21
 70
     1
102
RTVSPropertyOp22
 70
     1
102
RTVSPropertyOp23
 70
     1
102
RTVSPropertyOp24
 70
     1
102
RTVSPropertyOp25
 70
     1
102
RTVSPropertyOp26
 70
     1
102
RTVSPropertyOp27
 70
     1
102
RTVSPropertyOp28
 70
     1
102
RTVSPropertyOp29
 70
     1
102
RTVSPropertyOp30
 70
     1
102
RTVSPropertyOp31
 70
     1
102
RTVSPropertyOp32
 70
     1
102
RTVSPropertyOp33
 70
     1
102
RTVSPropertyOp34
 70
     1
102
RTVSPropertyOp35
 70
     1
102
RTVSPropertyOp36
 70
     1
102
RTVSPropertyOp37
 70
     1
102
RTVSPropertyOp38
 70
     1
102
RTVSPropertyOp39
 70
     1
102
RTVSPropertyOp40
 70
     1
102
RTVSPropertyOp41
 70
     1
102
RTVSPropertyOp42
 70
     1
102
RTVSPropertyOp43
 70
     1
102
RTVSPropertyOp44
 70
     1
102
RTVSPropertyOp45
 70
     1
102
RTVSPropertyOp46
 70
     1
102
RTVSPropertyOp47
 70
     1
102
RTVSPropertyOp48
 70
     1
102
RTVSPropertyOp49
 70
     1
102
RTVSPropertyOp50
 70
     1
102
RTVSPropertyOp51
 70
     0
102
RTVSPropertyOp52
 70
     0
102
RTVSPropertyOp53
 70
     1
102
RTVSPropertyOp54
 70
     1
102
RTVSPropertyOp55
 70
     1
102
RTVSPropertyOp56
 70
     1
102
RTVSPropertyOp57
 70
     1
102
RTVSPropertyOp58
 70
     1
102
RTVSPropertyOp59
 70
     1
102
RTVSPropertyOp60
 70
     1
102
RTVSPropertyOp61
 70
     1
102
RTVSPropertyOp62
 70
     1
  0
XRECORD
  5
116E0
102
{ACAD_REACTORS
330
116DF
102
}
330
116DF
100
AcDbXrecord
280
     1
102
RTVSPost2010Prop28
280
     0
102
RTVSPost2010PropOp28
 70
     1
102
RTVSPost2010Prop29
280
     1
102
RTVSPost2010PropOp29
 70
     1
102
RTVSPost2010Prop30
280
     1
102
RTVSPost2010PropOp30
 70
     1
102
RTVSPost2010Prop31
280
     0
102
RTVSPost2010PropOp31
 70
     1
102
RTVSPost2010Prop32
280
     0
102
RTVSPost2010PropOp32
 70
     1
102
RTVSPost2010Prop33
280
     0
102
RTVSPost2010PropOp33
 70
     1
102
RTVSPost2010Prop34
280
     0
102
RTVSPost2010PropOp34
 70
     1
102
RTVSPost2010Prop35
280
     0
102
RTVSPost2010PropOp35
 70
     1
102
RTVSPost2010Prop36
280
     0
102
RTVSPost2010PropOp36
 70
     1
102
RTVSPost2010Prop37
 90
       50
102
RTVSPost2010PropOp37
 70
     1
102
RTVSPost2010Prop38
140
0.0
102
RTVSPost2010PropOp38
 70
     1
102
RTVSPost2010Prop39
140
1.0
102
RTVSPost2010PropOp39
 70
     1
102
RTVSPost2010Prop40
 90
        0
102
RTVSPost2010PropOp40
 70
     1
102
RTVSPost2010Prop41ColorIndex
 90
       18
102
RTVSPost2010Prop41ColorRGB
 90
        0
102
RTVSPost2010PropOp41
 70
     1
102
RTVSPost2010Prop42
 90
       50
102
RTVSPost2010PropOp42
 70
     1
102
RTVSPost2010Prop43
 90
        3
102
RTVSPost2010PropOp43
 70
     1
102
RTVSPost2010Prop44ColorIndex
 90
        5
102
RTVSPost2010Prop44ColorRGB
 90
      255
102
RTVSPost2010PropOp44
 70
     1
102
RTVSPost2010Prop45
280
     0
102
RTVSPost2010PropOp45
 70
     1
102
RTVSPost2010Prop46
 90
       50
102
RTVSPost2010PropOp46
 70
     1
102
RTVSPost2010Prop47
 90
       50
102
RTVSPost2010PropOp47
 70
     1
102
RTVSPost2010Prop48
 90
       50
102
RTVSPost2010PropOp48
 70
     1
102
RTVSPost2010Prop49
280
     0
102
RTVSPost2010PropOp49
 70
     1
102
RTVSPost2010Prop50
 90
       50
102
RTVSPost2010PropOp50
 70
     1
102
RTVSPost2010Prop51ColorIndex
 90
      256
102
RTVSPost2010Prop51ColorRGB
 90
-16777216
102
RTVSPost2010PropOp51
 70
     0
102
RTVSPost2010Prop52
140
1.0
102
RTVSPost2010PropOp52
 70
     0
102
RTVSPost2010Prop53
 90
        2
102
RTVSPost2010PropOp53
 70
     1
102
RTVSPost2010Prop54
  1
strokes_ogs.tif
102
RTVSPost2010PropOp54
 70
     1
102
RTVSPost2010Prop55
280
     0
102
RTVSPost2010PropOp55
 70
     1
102
RTVSPost2010Prop56
140
1.0
102
RTVSPost2010PropOp56
 70
     1
102
RTVSPost2010Prop57
140
1.0
102
RTVSPost2010PropOp57
 70
     1
102
RTVSPropertyOp0
 70
     1
102
RTVSPropertyOp1
 70
     1
102
RTVSPropertyOp2
 70
     1
102
RTVSPropertyOp3
 70
     1
102
RTVSPropertyOp4
 70
     1
102
RTVSPropertyOp5
 70
     1
102
RTVSPropertyOp6
 70
     1
102
RTVSPropertyOp7
 70
     1
102
RTVSPropertyOp8
 70
     1
102
RTVSPropertyOp9
 70
     1
102
RTVSPropertyOp10
 70
     1
102
RTVSPropertyOp11
 70
     1
102
RTVSPropertyOp12
 70
     1
102
RTVSPropertyOp13
 70
     1
102
RTVSPropertyOp14
 70
     1
102
RTVSPropertyOp15
 70
     1
102
RTVSPropertyOp16
 70
     1
102
RTVSPropertyOp17
 70
     1
102
RTVSPropertyOp18
 70
     1
102
RTVSPropertyOp19
 70
     1
102
RTVSPropertyOp20
 70
     1
102
RTVSPropertyOp21
 70
     1
102
RTVSPropertyOp22
 70
     1
102
RTVSPropertyOp23
 70
     1
102
RTVSPropertyOp24
 70
     1
102
RTVSPropertyOp25
 70
     1
102
RTVSPropertyOp26
 70
     1
102
RTVSPropertyOp27
 70
     1
102
RTVSPropertyOp28
 70
     1
102
RTVSPropertyOp29
 70
     1
102
RTVSPropertyOp30
 70
     1
102
RTVSPropertyOp31
 70
     1
102
RTVSPropertyOp32
 70
     1
102
RTVSPropertyOp33
 70
     1
102
RTVSPropertyOp34
 70
     1
102
RTVSPropertyOp35
 70
     1
102
RTVSPropertyOp36
 70
     1
102
RTVSPropertyOp37
 70
     1
102
RTVSPropertyOp38
 70
     1
102
RTVSPropertyOp39
 70
     1
102
RTVSPropertyOp40
 70
     1
102
RTVSPropertyOp41
 70
     1
102
RTVSPropertyOp42
 70
     1
102
RTVSPropertyOp43
 70
     1
102
RTVSPropertyOp44
 70
     1
102
RTVSPropertyOp45
 70
     1
102
RTVSPropertyOp46
 70
     1
102
RTVSPropertyOp47
 70
     1
102
RTVSPropertyOp48
 70
     1
102
RTVSPropertyOp49
 70
     1
102
RTVSPropertyOp50
 70
     1
102
RTVSPropertyOp51
 70
     0
102
RTVSPropertyOp52
 70
     0
102
RTVSPropertyOp53
 70
     1
102
RTVSPropertyOp54
 70
     1
102
RTVSPropertyOp55
 70
     1
102
RTVSPropertyOp56
 70
     1
102
RTVSPropertyOp57
 70
     1
102
RTVSPropertyOp58
 70
     1
102
RTVSPropertyOp59
 70
     1
102
RTVSPropertyOp60
 70
     1
102
RTVSPropertyOp61
 70
     1
102
RTVSPropertyOp62
 70
     1
  0
XRECORD
  5
116E8
102
{ACAD_REACTORS
330
116E7
102
}
330
116E7
100
AcDbXrecord
280
     1
102
RTVSPost2010Prop28
280
     0
102
RTVSPost2010PropOp28
 70
     1
102
RTVSPost2010Prop29
280
     1
102
RTVSPost2010PropOp29
 70
     1
102
RTVSPost2010Prop30
280
     1
102
RTVSPost2010PropOp30
 70
     1
102
RTVSPost2010Prop31
280
     0
102
RTVSPost2010PropOp31
 70
     1
102
RTVSPost2010Prop32
280
     0
102
RTVSPost2010PropOp32
 70
     1
102
RTVSPost2010Prop33
280
     0
102
RTVSPost2010PropOp33
 70
     1
102
RTVSPost2010Prop34
280
     0
102
RTVSPost2010PropOp34
 70
     1
102
RTVSPost2010Prop35
280
     0
102
RTVSPost2010PropOp35
 70
     1
102
RTVSPost2010Prop36
280
     0
102
RTVSPost2010PropOp36
 70
     1
102
RTVSPost2010Prop37
 90
       50
102
RTVSPost2010PropOp37
 70
     1
102
RTVSPost2010Prop38
140
0.0
102
RTVSPost2010PropOp38
 70
     1
102
RTVSPost2010Prop39
140
1.0
102
RTVSPost2010PropOp39
 70
     1
102
RTVSPost2010Prop40
 90
        0
102
RTVSPost2010PropOp40
 70
     1
102
RTVSPost2010Prop41ColorIndex
 90
       18
102
RTVSPost2010Prop41ColorRGB
 90
        0
102
RTVSPost2010PropOp41
 70
     1
102
RTVSPost2010Prop42
 90
       50
102
RTVSPost2010PropOp42
 70
     1
102
RTVSPost2010Prop43
 90
        3
102
RTVSPost2010PropOp43
 70
     1
102
RTVSPost2010Prop44ColorIndex
 90
        5
102
RTVSPost2010Prop44ColorRGB
 90
      255
102
RTVSPost2010PropOp44
 70
     1
102
RTVSPost2010Prop45
280
     0
102
RTVSPost2010PropOp45
 70
     1
102
RTVSPost2010Prop46
 90
       50
102
RTVSPost2010PropOp46
 70
     1
102
RTVSPost2010Prop47
 90
       50
102
RTVSPost2010PropOp47
 70
     1
102
RTVSPost2010Prop48
 90
       50
102
RTVSPost2010PropOp48
 70
     1
102
RTVSPost2010Prop49
280
     0
102
RTVSPost2010PropOp49
 70
     1
102
RTVSPost2010Prop50
 90
       50
102
RTVSPost2010PropOp50
 70
     1
102
RTVSPost2010Prop51ColorIndex
 90
      256
102
RTVSPost2010Prop51ColorRGB
 90
-16777216
102
RTVSPost2010PropOp51
 70
     0
102
RTVSPost2010Prop52
140
1.0
102
RTVSPost2010PropOp52
 70
     0
102
RTVSPost2010Prop53
 90
        2
102
RTVSPost2010PropOp53
 70
     1
102
RTVSPost2010Prop54
  1
strokes_ogs.tif
102
RTVSPost2010PropOp54
 70
     1
102
RTVSPost2010Prop55
280
     0
102
RTVSPost2010PropOp55
 70
     1
102
RTVSPost2010Prop56
140
1.0
102
RTVSPost2010PropOp56
 70
     1
102
RTVSPost2010Prop57
140
1.0
102
RTVSPost2010PropOp57
 70
     1
102
RTVSPropertyOp0
 70
     1
102
RTVSPropertyOp1
 70
     1
102
RTVSPropertyOp2
 70
     1
102
RTVSPropertyOp3
 70
     1
102
RTVSPropertyOp4
 70
     1
102
RTVSPropertyOp5
 70
     1
102
RTVSPropertyOp6
 70
     1
102
RTVSPropertyOp7
 70
     1
102
RTVSPropertyOp8
 70
     1
102
RTVSPropertyOp9
 70
     1
102
RTVSPropertyOp10
 70
     1
102
RTVSPropertyOp11
 70
     1
102
RTVSPropertyOp12
 70
     1
102
RTVSPropertyOp13
 70
     1
102
RTVSPropertyOp14
 70
     1
102
RTVSPropertyOp15
 70
     1
102
RTVSPropertyOp16
 70
     1
102
RTVSPropertyOp17
 70
     1
102
RTVSPropertyOp18
 70
     1
102
RTVSPropertyOp19
 70
     1
102
RTVSPropertyOp20
 70
     1
102
RTVSPropertyOp21
 70
     1
102
RTVSPropertyOp22
 70
     1
102
RTVSPropertyOp23
 70
     1
102
RTVSPropertyOp24
 70
     1
102
RTVSPropertyOp25
 70
     1
102
RTVSPropertyOp26
 70
     1
102
RTVSPropertyOp27
 70
     1
102
RTVSPropertyOp28
 70
     1
102
RTVSPropertyOp29
 70
     1
102
RTVSPropertyOp30
 70
     1
102
RTVSPropertyOp31
 70
     1
102
RTVSPropertyOp32
 70
     1
102
RTVSPropertyOp33
 70
     1
102
RTVSPropertyOp34
 70
     1
102
RTVSPropertyOp35
 70
     1
102
RTVSPropertyOp36
 70
     1
102
RTVSPropertyOp37
 70
     1
102
RTVSPropertyOp38
 70
     1
102
RTVSPropertyOp39
 70
     1
102
RTVSPropertyOp40
 70
     1
102
RTVSPropertyOp41
 70
     1
102
RTVSPropertyOp42
 70
     1
102
RTVSPropertyOp43
 70
     1
102
RTVSPropertyOp44
 70
     1
102
RTVSPropertyOp45
 70
     1
102
RTVSPropertyOp46
 70
     1
102
RTVSPropertyOp47
 70
     1
102
RTVSPropertyOp48
 70
     1
102
RTVSPropertyOp49
 70
     1
102
RTVSPropertyOp50
 70
     1
102
RTVSPropertyOp51
 70
     0
102
RTVSPropertyOp52
 70
     0
102
RTVSPropertyOp53
 70
     1
102
RTVSPropertyOp54
 70
     1
102
RTVSPropertyOp55
 70
     1
102
RTVSPropertyOp56
 70
     1
102
RTVSPropertyOp57
 70
     1
102
RTVSPropertyOp58
 70
     1
102
RTVSPropertyOp59
 70
     1
102
RTVSPropertyOp60
 70
     1
102
RTVSPropertyOp61
 70
     1
102
RTVSPropertyOp62
 70
     1
  0
XRECORD
  5
116FC
102
{ACAD_REACTORS
330
116FB
102
}
330
116FB
100
AcDbXrecord
280
     1
102
RTVSPost2010Prop28
280
     0
102
RTVSPost2010PropOp28
 70
     1
102
RTVSPost2010Prop29
280
     1
102
RTVSPost2010PropOp29
 70
     1
102
RTVSPost2010Prop30
280
     1
102
RTVSPost2010PropOp30
 70
     1
102
RTVSPost2010Prop31
280
     0
102
RTVSPost2010PropOp31
 70
     1
102
RTVSPost2010Prop32
280
     0
102
RTVSPost2010PropOp32
 70
     1
102
RTVSPost2010Prop33
280
     0
102
RTVSPost2010PropOp33
 70
     1
102
RTVSPost2010Prop34
280
     0
102
RTVSPost2010PropOp34
 70
     1
102
RTVSPost2010Prop35
280
     0
102
RTVSPost2010PropOp35
 70
     1
102
RTVSPost2010Prop36
280
     0
102
RTVSPost2010PropOp36
 70
     1
102
RTVSPost2010Prop37
 90
       50
102
RTVSPost2010PropOp37
 70
     1
102
RTVSPost2010Prop38
140
0.0
102
RTVSPost2010PropOp38
 70
     1
102
RTVSPost2010Prop39
140
1.0
102
RTVSPost2010PropOp39
 70
     1
102
RTVSPost2010Prop40
 90
        0
102
RTVSPost2010PropOp40
 70
     1
102
RTVSPost2010Prop41ColorIndex
 90
       18
102
RTVSPost2010Prop41ColorRGB
 90
        0
102
RTVSPost2010PropOp41
 70
     1
102
RTVSPost2010Prop42
 90
       50
102
RTVSPost2010PropOp42
 70
     1
102
RTVSPost2010Prop43
 90
        3
102
RTVSPost2010PropOp43
 70
     1
102
RTVSPost2010Prop44ColorIndex
 90
        5
102
RTVSPost2010Prop44ColorRGB
 90
      255
102
RTVSPost2010PropOp44
 70
     1
102
RTVSPost2010Prop45
280
     0
102
RTVSPost2010PropOp45
 70
     1
102
RTVSPost2010Prop46
 90
       50
102
RTVSPost2010PropOp46
 70
     1
102
RTVSPost2010Prop47
 90
       50
102
RTVSPost2010PropOp47
 70
     1
102
RTVSPost2010Prop48
 90
       50
102
RTVSPost2010PropOp48
 70
     1
102
RTVSPost2010Prop49
280
     0
102
RTVSPost2010PropOp49
 70
     1
102
RTVSPost2010Prop50
 90
       50
102
RTVSPost2010PropOp50
 70
     1
102
RTVSPost2010Prop51ColorIndex
 90
      256
102
RTVSPost2010Prop51ColorRGB
 90
-16777216
102
RTVSPost2010PropOp51
 70
     0
102
RTVSPost2010Prop52
140
1.0
102
RTVSPost2010PropOp52
 70
     0
102
RTVSPost2010Prop53
 90
        2
102
RTVSPost2010PropOp53
 70
     1
102
RTVSPost2010Prop54
  1
strokes_ogs.tif
102
RTVSPost2010PropOp54
 70
     1
102
RTVSPost2010Prop55
280
     0
102
RTVSPost2010PropOp55
 70
     1
102
RTVSPost2010Prop56
140
1.0
102
RTVSPost2010PropOp56
 70
     1
102
RTVSPost2010Prop57
140
1.0
102
RTVSPost2010PropOp57
 70
     1
102
RTVSPropertyOp0
 70
     0
102
RTVSPropertyOp1
 70
     0
102
RTVSPropertyOp2
 70
     0
102
RTVSPropertyOp3
 70
     0
102
RTVSPropertyOp4
 70
     0
102
RTVSPropertyOp5
 70
     0
102
RTVSPropertyOp6
 70
     0
102
RTVSPropertyOp7
 70
     0
102
RTVSPropertyOp8
 70
     0
102
RTVSPropertyOp9
 70
     0
102
RTVSPropertyOp10
 70
     0
102
RTVSPropertyOp11
 70
     0
102
RTVSPropertyOp12
 70
     0
102
RTVSPropertyOp13
 70
     0
102
RTVSPropertyOp14
 70
     2
102
RTVSPropertyOp15
 70
     0
102
RTVSPropertyOp16
 70
     0
102
RTVSPropertyOp17
 70
     0
102
RTVSPropertyOp18
 70
     0
102
RTVSPropertyOp19
 70
     0
102
RTVSPropertyOp20
 70
     0
102
RTVSPropertyOp21
 70
     0
102
RTVSPropertyOp22
 70
     0
102
RTVSPropertyOp23
 70
     0
102
RTVSPropertyOp24
 70
     0
102
RTVSPropertyOp25
 70
     0
102
RTVSPropertyOp26
 70
     0
102
RTVSPropertyOp27
 70
     0
102
RTVSPropertyOp28
 70
     1
102
RTVSPropertyOp29
 70
     1
102
RTVSPropertyOp30
 70
     1
102
RTVSPropertyOp31
 70
     1
102
RTVSPropertyOp32
 70
     1
102
RTVSPropertyOp33
 70
     1
102
RTVSPropertyOp34
 70
     1
102
RTVSPropertyOp35
 70
     1
102
RTVSPropertyOp36
 70
     1
102
RTVSPropertyOp37
 70
     1
102
RTVSPropertyOp38
 70
     1
102
RTVSPropertyOp39
 70
     1
102
RTVSPropertyOp40
 70
     1
102
RTVSPropertyOp41
 70
     1
102
RTVSPropertyOp42
 70
     1
102
RTVSPropertyOp43
 70
     1
102
RTVSPropertyOp44
 70
     1
102
RTVSPropertyOp45
 70
     1
102
RTVSPropertyOp46
 70
     1
102
RTVSPropertyOp47
 70
     1
102
RTVSPropertyOp48
 70
     1
102
RTVSPropertyOp49
 70
     1
102
RTVSPropertyOp50
 70
     1
102
RTVSPropertyOp51
 70
     0
102
RTVSPropertyOp52
 70
     0
102
RTVSPropertyOp53
 70
     1
102
RTVSPropertyOp54
 70
     1
102
RTVSPropertyOp55
 70
     1
102
RTVSPropertyOp56
 70
     1
102
RTVSPropertyOp57
 70
     1
102
RTVSPropertyOp58
 70
     1
102
RTVSPropertyOp59
 70
     1
102
RTVSPropertyOp60
 70
     1
102
RTVSPropertyOp61
 70
     1
102
RTVSPropertyOp62
 70
     1
  0
XRECORD
  5
116F4
102
{ACAD_REACTORS
330
116F3
102
}
330
116F3
100
AcDbXrecord
280
     1
102
RTVSPost2010Prop28
280
     0
102
RTVSPost2010PropOp28
 70
     1
102
RTVSPost2010Prop29
280
     1
102
RTVSPost2010PropOp29
 70
     1
102
RTVSPost2010Prop30
280
     1
102
RTVSPost2010PropOp30
 70
     1
102
RTVSPost2010Prop31
280
     0
102
RTVSPost2010PropOp31
 70
     1
102
RTVSPost2010Prop32
280
     0
102
RTVSPost2010PropOp32
 70
     1
102
RTVSPost2010Prop33
280
     0
102
RTVSPost2010PropOp33
 70
     1
102
RTVSPost2010Prop34
280
     0
102
RTVSPost2010PropOp34
 70
     1
102
RTVSPost2010Prop35
280
     0
102
RTVSPost2010PropOp35
 70
     1
102
RTVSPost2010Prop36
280
     0
102
RTVSPost2010PropOp36
 70
     1
102
RTVSPost2010Prop37
 90
       50
102
RTVSPost2010PropOp37
 70
     1
102
RTVSPost2010Prop38
140
0.0
102
RTVSPost2010PropOp38
 70
     1
102
RTVSPost2010Prop39
140
1.0
102
RTVSPost2010PropOp39
 70
     1
102
RTVSPost2010Prop40
 90
        0
102
RTVSPost2010PropOp40
 70
     1
102
RTVSPost2010Prop41ColorIndex
 90
       18
102
RTVSPost2010Prop41ColorRGB
 90
        0
102
RTVSPost2010PropOp41
 70
     1
102
RTVSPost2010Prop42
 90
       50
102
RTVSPost2010PropOp42
 70
     1
102
RTVSPost2010Prop43
 90
        3
102
RTVSPost2010PropOp43
 70
     1
102
RTVSPost2010Prop44ColorIndex
 90
        5
102
RTVSPost2010Prop44ColorRGB
 90
      255
102
RTVSPost2010PropOp44
 70
     1
102
RTVSPost2010Prop45
280
     0
102
RTVSPost2010PropOp45
 70
     1
102
RTVSPost2010Prop46
 90
       50
102
RTVSPost2010PropOp46
 70
     1
102
RTVSPost2010Prop47
 90
       50
102
RTVSPost2010PropOp47
 70
     1
102
RTVSPost2010Prop48
 90
       50
102
RTVSPost2010PropOp48
 70
     1
102
RTVSPost2010Prop49
280
     0
102
RTVSPost2010PropOp49
 70
     1
102
RTVSPost2010Prop50
 90
       50
102
RTVSPost2010PropOp50
 70
     1
102
RTVSPost2010Prop51ColorIndex
 90
      256
102
RTVSPost2010Prop51ColorRGB
 90
-16777216
102
RTVSPost2010PropOp51
 70
     0
102
RTVSPost2010Prop52
140
1.0
102
RTVSPost2010PropOp52
 70
     0
102
RTVSPost2010Prop53
 90
        2
102
RTVSPost2010PropOp53
 70
     1
102
RTVSPost2010Prop54
  1
strokes_ogs.tif
102
RTVSPost2010PropOp54
 70
     1
102
RTVSPost2010Prop55
280
     0
102
RTVSPost2010PropOp55
 70
     1
102
RTVSPost2010Prop56
140
1.0
102
RTVSPost2010PropOp56
 70
     1
102
RTVSPost2010Prop57
140
1.0
102
RTVSPost2010PropOp57
 70
     1
102
RTVSPropertyOp0
 70
     1
102
RTVSPropertyOp1
 70
     1
102
RTVSPropertyOp2
 70
     1
102
RTVSPropertyOp3
 70
     1
102
RTVSPropertyOp4
 70
     1
102
RTVSPropertyOp5
 70
     1
102
RTVSPropertyOp6
 70
     1
102
RTVSPropertyOp7
 70
     1
102
RTVSPropertyOp8
 70
     1
102
RTVSPropertyOp9
 70
     1
102
RTVSPropertyOp10
 70
     1
102
RTVSPropertyOp11
 70
     1
102
RTVSPropertyOp12
 70
     1
102
RTVSPropertyOp13
 70
     1
102
RTVSPropertyOp14
 70
     1
102
RTVSPropertyOp15
 70
     1
102
RTVSPropertyOp16
 70
     1
102
RTVSPropertyOp17
 70
     1
102
RTVSPropertyOp18
 70
     1
102
RTVSPropertyOp19
 70
     1
102
RTVSPropertyOp20
 70
     1
102
RTVSPropertyOp21
 70
     1
102
RTVSPropertyOp22
 70
     1
102
RTVSPropertyOp23
 70
     1
102
RTVSPropertyOp24
 70
     1
102
RTVSPropertyOp25
 70
     1
102
RTVSPropertyOp26
 70
     1
102
RTVSPropertyOp27
 70
     1
102
RTVSPropertyOp28
 70
     1
102
RTVSPropertyOp29
 70
     1
102
RTVSPropertyOp30
 70
     1
102
RTVSPropertyOp31
 70
     1
102
RTVSPropertyOp32
 70
     1
102
RTVSPropertyOp33
 70
     1
102
RTVSPropertyOp34
 70
     1
102
RTVSPropertyOp35
 70
     1
102
RTVSPropertyOp36
 70
     1
102
RTVSPropertyOp37
 70
     1
102
RTVSPropertyOp38
 70
     1
102
RTVSPropertyOp39
 70
     1
102
RTVSPropertyOp40
 70
     1
102
RTVSPropertyOp41
 70
     1
102
RTVSPropertyOp42
 70
     1
102
RTVSPropertyOp43
 70
     1
102
RTVSPropertyOp44
 70
     1
102
RTVSPropertyOp45
 70
     1
102
RTVSPropertyOp46
 70
     1
102
RTVSPropertyOp47
 70
     1
102
RTVSPropertyOp48
 70
     1
102
RTVSPropertyOp49
 70
     1
102
RTVSPropertyOp50
 70
     1
102
RTVSPropertyOp51
 70
     0
102
RTVSPropertyOp52
 70
     0
102
RTVSPropertyOp53
 70
     1
102
RTVSPropertyOp54
 70
     1
102
RTVSPropertyOp55
 70
     1
102
RTVSPropertyOp56
 70
     1
102
RTVSPropertyOp57
 70
     1
102
RTVSPropertyOp58
 70
     1
102
RTVSPropertyOp59
 70
     1
102
RTVSPropertyOp60
 70
     1
102
RTVSPropertyOp61
 70
     1
102
RTVSPropertyOp62
 70
     1
  0
XRECORD
  5
116FE
102
{ACAD_REACTORS
330
116FD
102
}
330
116FD
100
AcDbXrecord
280
     1
102
RTVSPost2010Prop28
280
     0
102
RTVSPost2010PropOp28
 70
     1
102
RTVSPost2010Prop29
280
     1
102
RTVSPost2010PropOp29
 70
     1
102
RTVSPost2010Prop30
280
     1
102
RTVSPost2010PropOp30
 70
     1
102
RTVSPost2010Prop31
280
     0
102
RTVSPost2010PropOp31
 70
     1
102
RTVSPost2010Prop32
280
     0
102
RTVSPost2010PropOp32
 70
     1
102
RTVSPost2010Prop33
280
     0
102
RTVSPost2010PropOp33
 70
     1
102
RTVSPost2010Prop34
280
     0
102
RTVSPost2010PropOp34
 70
     1
102
RTVSPost2010Prop35
280
     0
102
RTVSPost2010PropOp35
 70
     1
102
RTVSPost2010Prop36
280
     0
102
RTVSPost2010PropOp36
 70
     1
102
RTVSPost2010Prop37
 90
       50
102
RTVSPost2010PropOp37
 70
     1
102
RTVSPost2010Prop38
140
0.0
102
RTVSPost2010PropOp38
 70
     1
102
RTVSPost2010Prop39
140
1.0
102
RTVSPost2010PropOp39
 70
     1
102
RTVSPost2010Prop40
 90
        0
102
RTVSPost2010PropOp40
 70
     1
102
RTVSPost2010Prop41ColorIndex
 90
       18
102
RTVSPost2010Prop41ColorRGB
 90
        0
102
RTVSPost2010PropOp41
 70
     1
102
RTVSPost2010Prop42
 90
       50
102
RTVSPost2010PropOp42
 70
     1
102
RTVSPost2010Prop43
 90
        3
102
RTVSPost2010PropOp43
 70
     1
102
RTVSPost2010Prop44ColorIndex
 90
        5
102
RTVSPost2010Prop44ColorRGB
 90
      255
102
RTVSPost2010PropOp44
 70
     1
102
RTVSPost2010Prop45
280
     0
102
RTVSPost2010PropOp45
 70
     1
102
RTVSPost2010Prop46
 90
       50
102
RTVSPost2010PropOp46
 70
     1
102
RTVSPost2010Prop47
 90
       50
102
RTVSPost2010PropOp47
 70
     1
102
RTVSPost2010Prop48
 90
       50
102
RTVSPost2010PropOp48
 70
     1
102
RTVSPost2010Prop49
280
     0
102
RTVSPost2010PropOp49
 70
     1
102
RTVSPost2010Prop50
 90
       50
102
RTVSPost2010PropOp50
 70
     1
102
RTVSPost2010Prop51ColorIndex
 90
      256
102
RTVSPost2010Prop51ColorRGB
 90
-16777216
102
RTVSPost2010PropOp51
 70
     0
102
RTVSPost2010Prop52
140
1.0
102
RTVSPost2010PropOp52
 70
     0
102
RTVSPost2010Prop53
 90
        2
102
RTVSPost2010PropOp53
 70
     1
102
RTVSPost2010Prop54
  1
strokes_ogs.tif
102
RTVSPost2010PropOp54
 70
     1
102
RTVSPost2010Prop55
280
     0
102
RTVSPost2010PropOp55
 70
     1
102
RTVSPost2010Prop56
140
1.0
102
RTVSPost2010PropOp56
 70
     1
102
RTVSPost2010Prop57
140
1.0
102
RTVSPost2010PropOp57
 70
     1
102
RTVSPropertyOp0
 70
     0
102
RTVSPropertyOp1
 70
     0
102
RTVSPropertyOp2
 70
     0
102
RTVSPropertyOp3
 70
     0
102
RTVSPropertyOp4
 70
     0
102
RTVSPropertyOp5
 70
     0
102
RTVSPropertyOp6
 70
     0
102
RTVSPropertyOp7
 70
     0
102
RTVSPropertyOp8
 70
     0
102
RTVSPropertyOp9
 70
     0
102
RTVSPropertyOp10
 70
     0
102
RTVSPropertyOp11
 70
     0
102
RTVSPropertyOp12
 70
     0
102
RTVSPropertyOp13
 70
     0
102
RTVSPropertyOp14
 70
     2
102
RTVSPropertyOp15
 70
     0
102
RTVSPropertyOp16
 70
     0
102
RTVSPropertyOp17
 70
     0
102
RTVSPropertyOp18
 70
     0
102
RTVSPropertyOp19
 70
     0
102
RTVSPropertyOp20
 70
     0
102
RTVSPropertyOp21
 70
     0
102
RTVSPropertyOp22
 70
     0
102
RTVSPropertyOp23
 70
     0
102
RTVSPropertyOp24
 70
     0
102
RTVSPropertyOp25
 70
     0
102
RTVSPropertyOp26
 70
     0
102
RTVSPropertyOp27
 70
     0
102
RTVSPropertyOp28
 70
     1
102
RTVSPropertyOp29
 70
     1
102
RTVSPropertyOp30
 70
     1
102
RTVSPropertyOp31
 70
     1
102
RTVSPropertyOp32
 70
     1
102
RTVSPropertyOp33
 70
     1
102
RTVSPropertyOp34
 70
     1
102
RTVSPropertyOp35
 70
     1
102
RTVSPropertyOp36
 70
     1
102
RTVSPropertyOp37
 70
     1
102
RTVSPropertyOp38
 70
     1
102
RTVSPropertyOp39
 70
     1
102
RTVSPropertyOp40
 70
     1
102
RTVSPropertyOp41
 70
     1
102
RTVSPropertyOp42
 70
     1
102
RTVSPropertyOp43
 70
     1
102
RTVSPropertyOp44
 70
     1
102
RTVSPropertyOp45
 70
     1
102
RTVSPropertyOp46
 70
     1
102
RTVSPropertyOp47
 70
     1
102
RTVSPropertyOp48
 70
     1
102
RTVSPropertyOp49
 70
     1
102
RTVSPropertyOp50
 70
     1
102
RTVSPropertyOp51
 70
     0
102
RTVSPropertyOp52
 70
     0
102
RTVSPropertyOp53
 70
     1
102
RTVSPropertyOp54
 70
     1
102
RTVSPropertyOp55
 70
     1
102
RTVSPropertyOp56
 70
     1
102
RTVSPropertyOp57
 70
     1
102
RTVSPropertyOp58
 70
     1
102
RTVSPropertyOp59
 70
     1
102
RTVSPropertyOp60
 70
     1
102
RTVSPropertyOp61
 70
     1
102
RTVSPropertyOp62
 70
     1
  0
XRECORD
  5
116EC
102
{ACAD_REACTORS
330
116EB
102
}
330
116EB
100
AcDbXrecord
280
     1
102
RTVSPost2010Prop28
280
     0
102
RTVSPost2010PropOp28
 70
     1
102
RTVSPost2010Prop29
280
     1
102
RTVSPost2010PropOp29
 70
     1
102
RTVSPost2010Prop30
280
     1
102
RTVSPost2010PropOp30
 70
     1
102
RTVSPost2010Prop31
280
     0
102
RTVSPost2010PropOp31
 70
     1
102
RTVSPost2010Prop32
280
     0
102
RTVSPost2010PropOp32
 70
     1
102
RTVSPost2010Prop33
280
     0
102
RTVSPost2010PropOp33
 70
     1
102
RTVSPost2010Prop34
280
     0
102
RTVSPost2010PropOp34
 70
     1
102
RTVSPost2010Prop35
280
     0
102
RTVSPost2010PropOp35
 70
     1
102
RTVSPost2010Prop36
280
     0
102
RTVSPost2010PropOp36
 70
     1
102
RTVSPost2010Prop37
 90
       50
102
RTVSPost2010PropOp37
 70
     1
102
RTVSPost2010Prop38
140
0.0
102
RTVSPost2010PropOp38
 70
     1
102
RTVSPost2010Prop39
140
1.0
102
RTVSPost2010PropOp39
 70
     1
102
RTVSPost2010Prop40
 90
        0
102
RTVSPost2010PropOp40
 70
     1
102
RTVSPost2010Prop41ColorIndex
 90
       18
102
RTVSPost2010Prop41ColorRGB
 90
        0
102
RTVSPost2010PropOp41
 70
     1
102
RTVSPost2010Prop42
 90
       50
102
RTVSPost2010PropOp42
 70
     1
102
RTVSPost2010Prop43
 90
        3
102
RTVSPost2010PropOp43
 70
     1
102
RTVSPost2010Prop44ColorIndex
 90
        5
102
RTVSPost2010Prop44ColorRGB
 90
      255
102
RTVSPost2010PropOp44
 70
     1
102
RTVSPost2010Prop45
280
     0
102
RTVSPost2010PropOp45
 70
     1
102
RTVSPost2010Prop46
 90
       50
102
RTVSPost2010PropOp46
 70
     1
102
RTVSPost2010Prop47
 90
       50
102
RTVSPost2010PropOp47
 70
     1
102
RTVSPost2010Prop48
 90
       50
102
RTVSPost2010PropOp48
 70
     1
102
RTVSPost2010Prop49
280
     0
102
RTVSPost2010PropOp49
 70
     1
102
RTVSPost2010Prop50
 90
       50
102
RTVSPost2010PropOp50
 70
     1
102
RTVSPost2010Prop51ColorIndex
 90
      256
102
RTVSPost2010Prop51ColorRGB
 90
-16777216
102
RTVSPost2010PropOp51
 70
     0
102
RTVSPost2010Prop52
140
1.0
102
RTVSPost2010PropOp52
 70
     0
102
RTVSPost2010Prop53
 90
        2
102
RTVSPost2010PropOp53
 70
     1
102
RTVSPost2010Prop54
  1
strokes_ogs.tif
102
RTVSPost2010PropOp54
 70
     1
102
RTVSPost2010Prop55
280
     0
102
RTVSPost2010PropOp55
 70
     1
102
RTVSPost2010Prop56
140
1.0
102
RTVSPost2010PropOp56
 70
     1
102
RTVSPost2010Prop57
140
1.0
102
RTVSPost2010PropOp57
 70
     1
102
RTVSPropertyOp0
 70
     1
102
RTVSPropertyOp1
 70
     1
102
RTVSPropertyOp2
 70
     1
102
RTVSPropertyOp3
 70
     1
102
RTVSPropertyOp4
 70
     1
102
RTVSPropertyOp5
 70
     1
102
RTVSPropertyOp6
 70
     1
102
RTVSPropertyOp7
 70
     1
102
RTVSPropertyOp8
 70
     1
102
RTVSPropertyOp9
 70
     1
102
RTVSPropertyOp10
 70
     1
102
RTVSPropertyOp11
 70
     1
102
RTVSPropertyOp12
 70
     1
102
RTVSPropertyOp13
 70
     1
102
RTVSPropertyOp14
 70
     1
102
RTVSPropertyOp15
 70
     1
102
RTVSPropertyOp16
 70
     1
102
RTVSPropertyOp17
 70
     1
102
RTVSPropertyOp18
 70
     1
102
RTVSPropertyOp19
 70
     1
102
RTVSPropertyOp20
 70
     1
102
RTVSPropertyOp21
 70
     1
102
RTVSPropertyOp22
 70
     1
102
RTVSPropertyOp23
 70
     1
102
RTVSPropertyOp24
 70
     1
102
RTVSPropertyOp25
 70
     1
102
RTVSPropertyOp26
 70
     1
102
RTVSPropertyOp27
 70
     1
102
RTVSPropertyOp28
 70
     1
102
RTVSPropertyOp29
 70
     1
102
RTVSPropertyOp30
 70
     1
102
RTVSPropertyOp31
 70
     1
102
RTVSPropertyOp32
 70
     1
102
RTVSPropertyOp33
 70
     1
102
RTVSPropertyOp34
 70
     1
102
RTVSPropertyOp35
 70
     1
102
RTVSPropertyOp36
 70
     1
102
RTVSPropertyOp37
 70
     1
102
RTVSPropertyOp38
 70
     1
102
RTVSPropertyOp39
 70
     1
102
RTVSPropertyOp40
 70
     1
102
RTVSPropertyOp41
 70
     1
102
RTVSPropertyOp42
 70
     1
102
RTVSPropertyOp43
 70
     1
102
RTVSPropertyOp44
 70
     1
102
RTVSPropertyOp45
 70
     1
102
RTVSPropertyOp46
 70
     1
102
RTVSPropertyOp47
 70
     1
102
RTVSPropertyOp48
 70
     1
102
RTVSPropertyOp49
 70
     1
102
RTVSPropertyOp50
 70
     1
102
RTVSPropertyOp51
 70
     0
102
RTVSPropertyOp52
 70
     0
102
RTVSPropertyOp53
 70
     1
102
RTVSPropertyOp54
 70
     1
102
RTVSPropertyOp55
 70
     1
102
RTVSPropertyOp56
 70
     1
102
RTVSPropertyOp57
 70
     1
102
RTVSPropertyOp58
 70
     1
102
RTVSPropertyOp59
 70
     1
102
RTVSPropertyOp60
 70
     1
102
RTVSPropertyOp61
 70
     1
102
RTVSPropertyOp62
 70
     1
  0
XRECORD
  5
1170A
102
{ACAD_REACTORS
330
11709
102
}
330
11709
100
AcDbXrecord
280
     1
102
RTVSPost2010Prop28
280
     0
102
RTVSPost2010PropOp28
 70
     1
102
RTVSPost2010Prop29
280
     1
102
RTVSPost2010PropOp29
 70
     1
102
RTVSPost2010Prop30
280
     1
102
RTVSPost2010PropOp30
 70
     1
102
RTVSPost2010Prop31
280
     0
102
RTVSPost2010PropOp31
 70
     1
102
RTVSPost2010Prop32
280
     0
102
RTVSPost2010PropOp32
 70
     1
102
RTVSPost2010Prop33
280
     0
102
RTVSPost2010PropOp33
 70
     1
102
RTVSPost2010Prop34
280
     0
102
RTVSPost2010PropOp34
 70
     1
102
RTVSPost2010Prop35
280
     0
102
RTVSPost2010PropOp35
 70
     1
102
RTVSPost2010Prop36
280
     0
102
RTVSPost2010PropOp36
 70
     1
102
RTVSPost2010Prop37
 90
       50
102
RTVSPost2010PropOp37
 70
     1
102
RTVSPost2010Prop38
140
0.0
102
RTVSPost2010PropOp38
 70
     1
102
RTVSPost2010Prop39
140
1.0
102
RTVSPost2010PropOp39
 70
     1
102
RTVSPost2010Prop40
 90
        0
102
RTVSPost2010PropOp40
 70
     1
102
RTVSPost2010Prop41ColorIndex
 90
       18
102
RTVSPost2010Prop41ColorRGB
 90
        0
102
RTVSPost2010PropOp41
 70
     1
102
RTVSPost2010Prop42
 90
       50
102
RTVSPost2010PropOp42
 70
     1
102
RTVSPost2010Prop43
 90
        3
102
RTVSPost2010PropOp43
 70
     1
102
RTVSPost2010Prop44ColorIndex
 90
        5
102
RTVSPost2010Prop44ColorRGB
 90
      255
102
RTVSPost2010PropOp44
 70
     1
102
RTVSPost2010Prop45
280
     0
102
RTVSPost2010PropOp45
 70
     1
102
RTVSPost2010Prop46
 90
       50
102
RTVSPost2010PropOp46
 70
     1
102
RTVSPost2010Prop47
 90
       50
102
RTVSPost2010PropOp47
 70
     1
102
RTVSPost2010Prop48
 90
       50
102
RTVSPost2010PropOp48
 70
     1
102
RTVSPost2010Prop49
280
     0
102
RTVSPost2010PropOp49
 70
     1
102
RTVSPost2010Prop50
 90
       50
102
RTVSPost2010PropOp50
 70
     1
102
RTVSPost2010Prop51ColorIndex
 90
      256
102
RTVSPost2010Prop51ColorRGB
 90
-16777216
102
RTVSPost2010PropOp51
 70
     0
102
RTVSPost2010Prop52
140
1.0
102
RTVSPost2010PropOp52
 70
     0
102
RTVSPost2010Prop53
 90
        2
102
RTVSPost2010PropOp53
 70
     1
102
RTVSPost2010Prop54
  1
strokes_ogs.tif
102
RTVSPost2010PropOp54
 70
     1
102
RTVSPost2010Prop55
280
     0
102
RTVSPost2010PropOp55
 70
     1
102
RTVSPost2010Prop56
140
1.0
102
RTVSPost2010PropOp56
 70
     1
102
RTVSPost2010Prop57
140
1.0
102
RTVSPost2010PropOp57
 70
     1
102
RTVSPropertyOp0
 70
     1
102
RTVSPropertyOp1
 70
     1
102
RTVSPropertyOp2
 70
     1
102
RTVSPropertyOp3
 70
     1
102
RTVSPropertyOp4
 70
     1
102
RTVSPropertyOp5
 70
     1
102
RTVSPropertyOp6
 70
     1
102
RTVSPropertyOp7
 70
     1
102
RTVSPropertyOp8
 70
     1
102
RTVSPropertyOp9
 70
     1
102
RTVSPropertyOp10
 70
     1
102
RTVSPropertyOp11
 70
     1
102
RTVSPropertyOp12
 70
     1
102
RTVSPropertyOp13
 70
     1
102
RTVSPropertyOp14
 70
     1
102
RTVSPropertyOp15
 70
     1
102
RTVSPropertyOp16
 70
     1
102
RTVSPropertyOp17
 70
     1
102
RTVSPropertyOp18
 70
     1
102
RTVSPropertyOp19
 70
     1
102
RTVSPropertyOp20
 70
     1
102
RTVSPropertyOp21
 70
     1
102
RTVSPropertyOp22
 70
     1
102
RTVSPropertyOp23
 70
     1
102
RTVSPropertyOp24
 70
     1
102
RTVSPropertyOp25
 70
     1
102
RTVSPropertyOp26
 70
     1
102
RTVSPropertyOp27
 70
     1
102
RTVSPropertyOp28
 70
     1
102
RTVSPropertyOp29
 70
     1
102
RTVSPropertyOp30
 70
     1
102
RTVSPropertyOp31
 70
     1
102
RTVSPropertyOp32
 70
     1
102
RTVSPropertyOp33
 70
     1
102
RTVSPropertyOp34
 70
     1
102
RTVSPropertyOp35
 70
     1
102
RTVSPropertyOp36
 70
     1
102
RTVSPropertyOp37
 70
     1
102
RTVSPropertyOp38
 70
     1
102
RTVSPropertyOp39
 70
     1
102
RTVSPropertyOp40
 70
     1
102
RTVSPropertyOp41
 70
     1
102
RTVSPropertyOp42
 70
     1
102
RTVSPropertyOp43
 70
     1
102
RTVSPropertyOp44
 70
     1
102
RTVSPropertyOp45
 70
     1
102
RTVSPropertyOp46
 70
     1
102
RTVSPropertyOp47
 70
     1
102
RTVSPropertyOp48
 70
     1
102
RTVSPropertyOp49
 70
     1
102
RTVSPropertyOp50
 70
     1
102
RTVSPropertyOp51
 70
     0
102
RTVSPropertyOp52
 70
     0
102
RTVSPropertyOp53
 70
     1
102
RTVSPropertyOp54
 70
     1
102
RTVSPropertyOp55
 70
     1
102
RTVSPropertyOp56
 70
     1
102
RTVSPropertyOp57
 70
     1
102
RTVSPropertyOp58
 70
     1
102
RTVSPropertyOp59
 70
     1
102
RTVSPropertyOp60
 70
     1
102
RTVSPropertyOp61
 70
     1
102
RTVSPropertyOp62
 70
     1
  0
XRECORD
  5
11708
102
{ACAD_REACTORS
330
11707
102
}
330
11707
100
AcDbXrecord
280
     1
102
RTVSPost2010Prop28
280
     0
102
RTVSPost2010PropOp28
 70
     1
102
RTVSPost2010Prop29
280
     1
102
RTVSPost2010PropOp29
 70
     1
102
RTVSPost2010Prop30
280
     1
102
RTVSPost2010PropOp30
 70
     1
102
RTVSPost2010Prop31
280
     0
102
RTVSPost2010PropOp31
 70
     1
102
RTVSPost2010Prop32
280
     0
102
RTVSPost2010PropOp32
 70
     1
102
RTVSPost2010Prop33
280
     0
102
RTVSPost2010PropOp33
 70
     1
102
RTVSPost2010Prop34
280
     0
102
RTVSPost2010PropOp34
 70
     1
102
RTVSPost2010Prop35
280
     0
102
RTVSPost2010PropOp35
 70
     1
102
RTVSPost2010Prop36
280
     0
102
RTVSPost2010PropOp36
 70
     1
102
RTVSPost2010Prop37
 90
       50
102
RTVSPost2010PropOp37
 70
     1
102
RTVSPost2010Prop38
140
0.0
102
RTVSPost2010PropOp38
 70
     1
102
RTVSPost2010Prop39
140
1.0
102
RTVSPost2010PropOp39
 70
     1
102
RTVSPost2010Prop40
 90
        0
102
RTVSPost2010PropOp40
 70
     1
102
RTVSPost2010Prop41ColorIndex
 90
       18
102
RTVSPost2010Prop41ColorRGB
 90
        0
102
RTVSPost2010PropOp41
 70
     1
102
RTVSPost2010Prop42
 90
       50
102
RTVSPost2010PropOp42
 70
     1
102
RTVSPost2010Prop43
 90
        3
102
RTVSPost2010PropOp43
 70
     1
102
RTVSPost2010Prop44ColorIndex
 90
        5
102
RTVSPost2010Prop44ColorRGB
 90
      255
102
RTVSPost2010PropOp44
 70
     1
102
RTVSPost2010Prop45
280
     0
102
RTVSPost2010PropOp45
 70
     1
102
RTVSPost2010Prop46
 90
       50
102
RTVSPost2010PropOp46
 70
     1
102
RTVSPost2010Prop47
 90
       50
102
RTVSPost2010PropOp47
 70
     1
102
RTVSPost2010Prop48
 90
       50
102
RTVSPost2010PropOp48
 70
     1
102
RTVSPost2010Prop49
280
     0
102
RTVSPost2010PropOp49
 70
     1
102
RTVSPost2010Prop50
 90
       50
102
RTVSPost2010PropOp50
 70
     1
102
RTVSPost2010Prop51ColorIndex
 90
      256
102
RTVSPost2010Prop51ColorRGB
 90
-16777216
102
RTVSPost2010PropOp51
 70
     0
102
RTVSPost2010Prop52
140
1.0
102
RTVSPost2010PropOp52
 70
     0
102
RTVSPost2010Prop53
 90
        2
102
RTVSPost2010PropOp53
 70
     1
102
RTVSPost2010Prop54
  1
strokes_ogs.tif
102
RTVSPost2010PropOp54
 70
     1
102
RTVSPost2010Prop55
280
     0
102
RTVSPost2010PropOp55
 70
     1
102
RTVSPost2010Prop56
140
1.0
102
RTVSPost2010PropOp56
 70
     1
102
RTVSPost2010Prop57
140
1.0
102
RTVSPost2010PropOp57
 70
     1
102
RTVSPropertyOp0
 70
     1
102
RTVSPropertyOp1
 70
     1
102
RTVSPropertyOp2
 70
     1
102
RTVSPropertyOp3
 70
     1
102
RTVSPropertyOp4
 70
     1
102
RTVSPropertyOp5
 70
     1
102
RTVSPropertyOp6
 70
     1
102
RTVSPropertyOp7
 70
     1
102
RTVSPropertyOp8
 70
     1
102
RTVSPropertyOp9
 70
     1
102
RTVSPropertyOp10
 70
     1
102
RTVSPropertyOp11
 70
     1
102
RTVSPropertyOp12
 70
     1
102
RTVSPropertyOp13
 70
     1
102
RTVSPropertyOp14
 70
     1
102
RTVSPropertyOp15
 70
     1
102
RTVSPropertyOp16
 70
     1
102
RTVSPropertyOp17
 70
     1
102
RTVSPropertyOp18
 70
     1
102
RTVSPropertyOp19
 70
     1
102
RTVSPropertyOp20
 70
     1
102
RTVSPropertyOp21
 70
     1
102
RTVSPropertyOp22
 70
     1
102
RTVSPropertyOp23
 70
     1
102
RTVSPropertyOp24
 70
     1
102
RTVSPropertyOp25
 70
     1
102
RTVSPropertyOp26
 70
     1
102
RTVSPropertyOp27
 70
     1
102
RTVSPropertyOp28
 70
     1
102
RTVSPropertyOp29
 70
     1
102
RTVSPropertyOp30
 70
     1
102
RTVSPropertyOp31
 70
     1
102
RTVSPropertyOp32
 70
     1
102
RTVSPropertyOp33
 70
     1
102
RTVSPropertyOp34
 70
     1
102
RTVSPropertyOp35
 70
     1
102
RTVSPropertyOp36
 70
     1
102
RTVSPropertyOp37
 70
     1
102
RTVSPropertyOp38
 70
     1
102
RTVSPropertyOp39
 70
     1
102
RTVSPropertyOp40
 70
     1
102
RTVSPropertyOp41
 70
     1
102
RTVSPropertyOp42
 70
     1
102
RTVSPropertyOp43
 70
     1
102
RTVSPropertyOp44
 70
     1
102
RTVSPropertyOp45
 70
     1
102
RTVSPropertyOp46
 70
     1
102
RTVSPropertyOp47
 70
     1
102
RTVSPropertyOp48
 70
     1
102
RTVSPropertyOp49
 70
     1
102
RTVSPropertyOp50
 70
     1
102
RTVSPropertyOp51
 70
     0
102
RTVSPropertyOp52
 70
     0
102
RTVSPropertyOp53
 70
     1
102
RTVSPropertyOp54
 70
     1
102
RTVSPropertyOp55
 70
     1
102
RTVSPropertyOp56
 70
     1
102
RTVSPropertyOp57
 70
     1
102
RTVSPropertyOp58
 70
     1
102
RTVSPropertyOp59
 70
     1
102
RTVSPropertyOp60
 70
     1
102
RTVSPropertyOp61
 70
     1
102
RTVSPropertyOp62
 70
     1
  0
XRECORD
  5
11702
102
{ACAD_REACTORS
330
11701
102
}
330
11701
100
AcDbXrecord
280
     1
102
RTVSPost2010Prop28
280
     0
102
RTVSPost2010PropOp28
 70
     1
102
RTVSPost2010Prop29
280
     1
102
RTVSPost2010PropOp29
 70
     1
102
RTVSPost2010Prop30
280
     1
102
RTVSPost2010PropOp30
 70
     1
102
RTVSPost2010Prop31
280
     0
102
RTVSPost2010PropOp31
 70
     1
102
RTVSPost2010Prop32
280
     0
102
RTVSPost2010PropOp32
 70
     1
102
RTVSPost2010Prop33
280
     0
102
RTVSPost2010PropOp33
 70
     1
102
RTVSPost2010Prop34
280
     0
102
RTVSPost2010PropOp34
 70
     1
102
RTVSPost2010Prop35
280
     0
102
RTVSPost2010PropOp35
 70
     1
102
RTVSPost2010Prop36
280
     0
102
RTVSPost2010PropOp36
 70
     1
102
RTVSPost2010Prop37
 90
       50
102
RTVSPost2010PropOp37
 70
     1
102
RTVSPost2010Prop38
140
0.0
102
RTVSPost2010PropOp38
 70
     1
102
RTVSPost2010Prop39
140
1.0
102
RTVSPost2010PropOp39
 70
     1
102
RTVSPost2010Prop40
 90
        0
102
RTVSPost2010PropOp40
 70
     1
102
RTVSPost2010Prop41ColorIndex
 90
       18
102
RTVSPost2010Prop41ColorRGB
 90
        0
102
RTVSPost2010PropOp41
 70
     1
102
RTVSPost2010Prop42
 90
       50
102
RTVSPost2010PropOp42
 70
     1
102
RTVSPost2010Prop43
 90
        3
102
RTVSPost2010PropOp43
 70
     1
102
RTVSPost2010Prop44ColorIndex
 90
        5
102
RTVSPost2010Prop44ColorRGB
 90
      255
102
RTVSPost2010PropOp44
 70
     1
102
RTVSPost2010Prop45
280
     0
102
RTVSPost2010PropOp45
 70
     1
102
RTVSPost2010Prop46
 90
       50
102
RTVSPost2010PropOp46
 70
     1
102
RTVSPost2010Prop47
 90
       50
102
RTVSPost2010PropOp47
 70
     1
102
RTVSPost2010Prop48
 90
       50
102
RTVSPost2010PropOp48
 70
     1
102
RTVSPost2010Prop49
280
     0
102
RTVSPost2010PropOp49
 70
     1
102
RTVSPost2010Prop50
 90
       50
102
RTVSPost2010PropOp50
 70
     1
102
RTVSPost2010Prop51ColorIndex
 90
      256
102
RTVSPost2010Prop51ColorRGB
 90
-16777216
102
RTVSPost2010PropOp51
 70
     0
102
RTVSPost2010Prop52
140
1.0
102
RTVSPost2010PropOp52
 70
     0
102
RTVSPost2010Prop53
 90
        2
102
RTVSPost2010PropOp53
 70
     1
102
RTVSPost2010Prop54
  1
strokes_ogs.tif
102
RTVSPost2010PropOp54
 70
     1
102
RTVSPost2010Prop55
280
     0
102
RTVSPost2010PropOp55
 70
     1
102
RTVSPost2010Prop56
140
1.0
102
RTVSPost2010PropOp56
 70
     1
102
RTVSPost2010Prop57
140
1.0
102
RTVSPost2010PropOp57
 70
     1
102
RTVSPropertyOp0
 70
     1
102
RTVSPropertyOp1
 70
     1
102
RTVSPropertyOp2
 70
     1
102
RTVSPropertyOp3
 70
     1
102
RTVSPropertyOp4
 70
     1
102
RTVSPropertyOp5
 70
     1
102
RTVSPropertyOp6
 70
     1
102
RTVSPropertyOp7
 70
     1
102
RTVSPropertyOp8
 70
     1
102
RTVSPropertyOp9
 70
     1
102
RTVSPropertyOp10
 70
     1
102
RTVSPropertyOp11
 70
     1
102
RTVSPropertyOp12
 70
     1
102
RTVSPropertyOp13
 70
     1
102
RTVSPropertyOp14
 70
     1
102
RTVSPropertyOp15
 70
     1
102
RTVSPropertyOp16
 70
     1
102
RTVSPropertyOp17
 70
     1
102
RTVSPropertyOp18
 70
     1
102
RTVSPropertyOp19
 70
     1
102
RTVSPropertyOp20
 70
     1
102
RTVSPropertyOp21
 70
     1
102
RTVSPropertyOp22
 70
     1
102
RTVSPropertyOp23
 70
     1
102
RTVSPropertyOp24
 70
     1
102
RTVSPropertyOp25
 70
     1
102
RTVSPropertyOp26
 70
     1
102
RTVSPropertyOp27
 70
     1
102
RTVSPropertyOp28
 70
     1
102
RTVSPropertyOp29
 70
     1
102
RTVSPropertyOp30
 70
     1
102
RTVSPropertyOp31
 70
     1
102
RTVSPropertyOp32
 70
     1
102
RTVSPropertyOp33
 70
     1
102
RTVSPropertyOp34
 70
     1
102
RTVSPropertyOp35
 70
     1
102
RTVSPropertyOp36
 70
     1
102
RTVSPropertyOp37
 70
     1
102
RTVSPropertyOp38
 70
     1
102
RTVSPropertyOp39
 70
     1
102
RTVSPropertyOp40
 70
     1
102
RTVSPropertyOp41
 70
     1
102
RTVSPropertyOp42
 70
     1
102
RTVSPropertyOp43
 70
     1
102
RTVSPropertyOp44
 70
     1
102
RTVSPropertyOp45
 70
     1
102
RTVSPropertyOp46
 70
     1
102
RTVSPropertyOp47
 70
     1
102
RTVSPropertyOp48
 70
     1
102
RTVSPropertyOp49
 70
     1
102
RTVSPropertyOp50
 70
     1
102
RTVSPropertyOp51
 70
     0
102
RTVSPropertyOp52
 70
     0
102
RTVSPropertyOp53
 70
     1
102
RTVSPropertyOp54
 70
     1
102
RTVSPropertyOp55
 70
     1
102
RTVSPropertyOp56
 70
     1
102
RTVSPropertyOp57
 70
     1
102
RTVSPropertyOp58
 70
     1
102
RTVSPropertyOp59
 70
     1
102
RTVSPropertyOp60
 70
     1
102
RTVSPropertyOp61
 70
     1
102
RTVSPropertyOp62
 70
     1
  0
XRECORD
  5
11704
102
{ACAD_REACTORS
330
11703
102
}
330
11703
100
AcDbXrecord
280
     1
102
RTVSPost2010Prop28
280
     0
102
RTVSPost2010PropOp28
 70
     1
102
RTVSPost2010Prop29
280
     1
102
RTVSPost2010PropOp29
 70
     1
102
RTVSPost2010Prop30
280
     1
102
RTVSPost2010PropOp30
 70
     1
102
RTVSPost2010Prop31
280
     0
102
RTVSPost2010PropOp31
 70
     1
102
RTVSPost2010Prop32
280
     0
102
RTVSPost2010PropOp32
 70
     1
102
RTVSPost2010Prop33
280
     0
102
RTVSPost2010PropOp33
 70
     1
102
RTVSPost2010Prop34
280
     0
102
RTVSPost2010PropOp34
 70
     1
102
RTVSPost2010Prop35
280
     0
102
RTVSPost2010PropOp35
 70
     1
102
RTVSPost2010Prop36
280
     0
102
RTVSPost2010PropOp36
 70
     1
102
RTVSPost2010Prop37
 90
       50
102
RTVSPost2010PropOp37
 70
     1
102
RTVSPost2010Prop38
140
0.0
102
RTVSPost2010PropOp38
 70
     1
102
RTVSPost2010Prop39
140
1.0
102
RTVSPost2010PropOp39
 70
     1
102
RTVSPost2010Prop40
 90
        0
102
RTVSPost2010PropOp40
 70
     1
102
RTVSPost2010Prop41ColorIndex
 90
       18
102
RTVSPost2010Prop41ColorRGB
 90
        0
102
RTVSPost2010PropOp41
 70
     1
102
RTVSPost2010Prop42
 90
       50
102
RTVSPost2010PropOp42
 70
     1
102
RTVSPost2010Prop43
 90
        3
102
RTVSPost2010PropOp43
 70
     1
102
RTVSPost2010Prop44ColorIndex
 90
        5
102
RTVSPost2010Prop44ColorRGB
 90
      255
102
RTVSPost2010PropOp44
 70
     1
102
RTVSPost2010Prop45
280
     0
102
RTVSPost2010PropOp45
 70
     1
102
RTVSPost2010Prop46
 90
       50
102
RTVSPost2010PropOp46
 70
     1
102
RTVSPost2010Prop47
 90
       50
102
RTVSPost2010PropOp47
 70
     1
102
RTVSPost2010Prop48
 90
       50
102
RTVSPost2010PropOp48
 70
     1
102
RTVSPost2010Prop49
280
     0
102
RTVSPost2010PropOp49
 70
     1
102
RTVSPost2010Prop50
 90
       50
102
RTVSPost2010PropOp50
 70
     1
102
RTVSPost2010Prop51ColorIndex
 90
      256
102
RTVSPost2010Prop51ColorRGB
 90
-16777216
102
RTVSPost2010PropOp51
 70
     0
102
RTVSPost2010Prop52
140
1.0
102
RTVSPost2010PropOp52
 70
     0
102
RTVSPost2010Prop53
 90
        2
102
RTVSPost2010PropOp53
 70
     1
102
RTVSPost2010Prop54
  1
strokes_ogs.tif
102
RTVSPost2010PropOp54
 70
     1
102
RTVSPost2010Prop55
280
     0
102
RTVSPost2010PropOp55
 70
     1
102
RTVSPost2010Prop56
140
1.0
102
RTVSPost2010PropOp56
 70
     1
102
RTVSPost2010Prop57
140
1.0
102
RTVSPost2010PropOp57
 70
     1
102
RTVSPropertyOp0
 70
     1
102
RTVSPropertyOp1
 70
     1
102
RTVSPropertyOp2
 70
     1
102
RTVSPropertyOp3
 70
     1
102
RTVSPropertyOp4
 70
     1
102
RTVSPropertyOp5
 70
     1
102
RTVSPropertyOp6
 70
     1
102
RTVSPropertyOp7
 70
     1
102
RTVSPropertyOp8
 70
     1
102
RTVSPropertyOp9
 70
     1
102
RTVSPropertyOp10
 70
     1
102
RTVSPropertyOp11
 70
     1
102
RTVSPropertyOp12
 70
     1
102
RTVSPropertyOp13
 70
     1
102
RTVSPropertyOp14
 70
     1
102
RTVSPropertyOp15
 70
     1
102
RTVSPropertyOp16
 70
     1
102
RTVSPropertyOp17
 70
     1
102
RTVSPropertyOp18
 70
     1
102
RTVSPropertyOp19
 70
     1
102
RTVSPropertyOp20
 70
     1
102
RTVSPropertyOp21
 70
     1
102
RTVSPropertyOp22
 70
     1
102
RTVSPropertyOp23
 70
     1
102
RTVSPropertyOp24
 70
     1
102
RTVSPropertyOp25
 70
     1
102
RTVSPropertyOp26
 70
     1
102
RTVSPropertyOp27
 70
     1
102
RTVSPropertyOp28
 70
     1
102
RTVSPropertyOp29
 70
     1
102
RTVSPropertyOp30
 70
     1
102
RTVSPropertyOp31
 70
     1
102
RTVSPropertyOp32
 70
     1
102
RTVSPropertyOp33
 70
     1
102
RTVSPropertyOp34
 70
     1
102
RTVSPropertyOp35
 70
     1
102
RTVSPropertyOp36
 70
     1
102
RTVSPropertyOp37
 70
     1
102
RTVSPropertyOp38
 70
     1
102
RTVSPropertyOp39
 70
     1
102
RTVSPropertyOp40
 70
     1
102
RTVSPropertyOp41
 70
     1
102
RTVSPropertyOp42
 70
     1
102
RTVSPropertyOp43
 70
     1
102
RTVSPropertyOp44
 70
     1
102
RTVSPropertyOp45
 70
     1
102
RTVSPropertyOp46
 70
     1
102
RTVSPropertyOp47
 70
     1
102
RTVSPropertyOp48
 70
     1
102
RTVSPropertyOp49
 70
     1
102
RTVSPropertyOp50
 70
     1
102
RTVSPropertyOp51
 70
     0
102
RTVSPropertyOp52
 70
     0
102
RTVSPropertyOp53
 70
     1
102
RTVSPropertyOp54
 70
     1
102
RTVSPropertyOp55
 70
     1
102
RTVSPropertyOp56
 70
     1
102
RTVSPropertyOp57
 70
     1
102
RTVSPropertyOp58
 70
     1
102
RTVSPropertyOp59
 70
     1
102
RTVSPropertyOp60
 70
     1
102
RTVSPropertyOp61
 70
     1
102
RTVSPropertyOp62
 70
     1
  0
XRECORD
  5
116F2
102
{ACAD_REACTORS
330
116F1
102
}
330
116F1
100
AcDbXrecord
280
     1
102
RTVSPost2010Prop28
280
     0
102
RTVSPost2010PropOp28
 70
     1
102
RTVSPost2010Prop29
280
     1
102
RTVSPost2010PropOp29
 70
     1
102
RTVSPost2010Prop30
280
     1
102
RTVSPost2010PropOp30
 70
     1
102
RTVSPost2010Prop31
280
     0
102
RTVSPost2010PropOp31
 70
     1
102
RTVSPost2010Prop32
280
     0
102
RTVSPost2010PropOp32
 70
     1
102
RTVSPost2010Prop33
280
     0
102
RTVSPost2010PropOp33
 70
     1
102
RTVSPost2010Prop34
280
     0
102
RTVSPost2010PropOp34
 70
     1
102
RTVSPost2010Prop35
280
     0
102
RTVSPost2010PropOp35
 70
     1
102
RTVSPost2010Prop36
280
     0
102
RTVSPost2010PropOp36
 70
     1
102
RTVSPost2010Prop37
 90
       50
102
RTVSPost2010PropOp37
 70
     1
102
RTVSPost2010Prop38
140
0.0
102
RTVSPost2010PropOp38
 70
     1
102
RTVSPost2010Prop39
140
1.0
102
RTVSPost2010PropOp39
 70
     1
102
RTVSPost2010Prop40
 90
        0
102
RTVSPost2010PropOp40
 70
     1
102
RTVSPost2010Prop41ColorIndex
 90
       18
102
RTVSPost2010Prop41ColorRGB
 90
        0
102
RTVSPost2010PropOp41
 70
     1
102
RTVSPost2010Prop42
 90
       50
102
RTVSPost2010PropOp42
 70
     1
102
RTVSPost2010Prop43
 90
        3
102
RTVSPost2010PropOp43
 70
     1
102
RTVSPost2010Prop44ColorIndex
 90
        5
102
RTVSPost2010Prop44ColorRGB
 90
      255
102
RTVSPost2010PropOp44
 70
     1
102
RTVSPost2010Prop45
280
     0
102
RTVSPost2010PropOp45
 70
     1
102
RTVSPost2010Prop46
 90
       50
102
RTVSPost2010PropOp46
 70
     1
102
RTVSPost2010Prop47
 90
       50
102
RTVSPost2010PropOp47
 70
     1
102
RTVSPost2010Prop48
 90
       50
102
RTVSPost2010PropOp48
 70
     1
102
RTVSPost2010Prop49
280
     0
102
RTVSPost2010PropOp49
 70
     1
102
RTVSPost2010Prop50
 90
       50
102
RTVSPost2010PropOp50
 70
     1
102
RTVSPost2010Prop51ColorIndex
 90
      256
102
RTVSPost2010Prop51ColorRGB
 90
-16777216
102
RTVSPost2010PropOp51
 70
     0
102
RTVSPost2010Prop52
140
1.0
102
RTVSPost2010PropOp52
 70
     0
102
RTVSPost2010Prop53
 90
        2
102
RTVSPost2010PropOp53
 70
     1
102
RTVSPost2010Prop54
  1
strokes_ogs.tif
102
RTVSPost2010PropOp54
 70
     1
102
RTVSPost2010Prop55
280
     0
102
RTVSPost2010PropOp55
 70
     1
102
RTVSPost2010Prop56
140
1.0
102
RTVSPost2010PropOp56
 70
     1
102
RTVSPost2010Prop57
140
1.0
102
RTVSPost2010PropOp57
 70
     1
102
RTVSPropertyOp0
 70
     1
102
RTVSPropertyOp1
 70
     1
102
RTVSPropertyOp2
 70
     1
102
RTVSPropertyOp3
 70
     1
102
RTVSPropertyOp4
 70
     1
102
RTVSPropertyOp5
 70
     1
102
RTVSPropertyOp6
 70
     1
102
RTVSPropertyOp7
 70
     1
102
RTVSPropertyOp8
 70
     1
102
RTVSPropertyOp9
 70
     1
102
RTVSPropertyOp10
 70
     1
102
RTVSPropertyOp11
 70
     1
102
RTVSPropertyOp12
 70
     1
102
RTVSPropertyOp13
 70
     1
102
RTVSPropertyOp14
 70
     1
102
RTVSPropertyOp15
 70
     1
102
RTVSPropertyOp16
 70
     1
102
RTVSPropertyOp17
 70
     1
102
RTVSPropertyOp18
 70
     1
102
RTVSPropertyOp19
 70
     1
102
RTVSPropertyOp20
 70
     1
102
RTVSPropertyOp21
 70
     1
102
RTVSPropertyOp22
 70
     1
102
RTVSPropertyOp23
 70
     1
102
RTVSPropertyOp24
 70
     1
102
RTVSPropertyOp25
 70
     1
102
RTVSPropertyOp26
 70
     1
102
RTVSPropertyOp27
 70
     1
102
RTVSPropertyOp28
 70
     1
102
RTVSPropertyOp29
 70
     1
102
RTVSPropertyOp30
 70
     1
102
RTVSPropertyOp31
 70
     1
102
RTVSPropertyOp32
 70
     1
102
RTVSPropertyOp33
 70
     1
102
RTVSPropertyOp34
 70
     1
102
RTVSPropertyOp35
 70
     1
102
RTVSPropertyOp36
 70
     1
102
RTVSPropertyOp37
 70
     1
102
RTVSPropertyOp38
 70
     1
102
RTVSPropertyOp39
 70
     1
102
RTVSPropertyOp40
 70
     1
102
RTVSPropertyOp41
 70
     1
102
RTVSPropertyOp42
 70
     1
102
RTVSPropertyOp43
 70
     1
102
RTVSPropertyOp44
 70
     1
102
RTVSPropertyOp45
 70
     1
102
RTVSPropertyOp46
 70
     1
102
RTVSPropertyOp47
 70
     1
102
RTVSPropertyOp48
 70
     1
102
RTVSPropertyOp49
 70
     1
102
RTVSPropertyOp50
 70
     1
102
RTVSPropertyOp51
 70
     0
102
RTVSPropertyOp52
 70
     0
102
RTVSPropertyOp53
 70
     1
102
RTVSPropertyOp54
 70
     1
102
RTVSPropertyOp55
 70
     1
102
RTVSPropertyOp56
 70
     1
102
RTVSPropertyOp57
 70
     1
102
RTVSPropertyOp58
 70
     1
102
RTVSPropertyOp59
 70
     1
102
RTVSPropertyOp60
 70
     1
102
RTVSPropertyOp61
 70
     1
102
RTVSPropertyOp62
 70
     1
  0
XRECORD
  5
116E6
102
{ACAD_REACTORS
330
116E5
102
}
330
116E5
100
AcDbXrecord
280
     1
102
RTVSPost2010Prop28
280
     0
102
RTVSPost2010PropOp28
 70
     1
102
RTVSPost2010Prop29
280
     1
102
RTVSPost2010PropOp29
 70
     1
102
RTVSPost2010Prop30
280
     1
102
RTVSPost2010PropOp30
 70
     1
102
RTVSPost2010Prop31
280
     0
102
RTVSPost2010PropOp31
 70
     1
102
RTVSPost2010Prop32
280
     0
102
RTVSPost2010PropOp32
 70
     1
102
RTVSPost2010Prop33
280
     0
102
RTVSPost2010PropOp33
 70
     1
102
RTVSPost2010Prop34
280
     0
102
RTVSPost2010PropOp34
 70
     1
102
RTVSPost2010Prop35
280
     0
102
RTVSPost2010PropOp35
 70
     1
102
RTVSPost2010Prop36
280
     0
102
RTVSPost2010PropOp36
 70
     1
102
RTVSPost2010Prop37
 90
       50
102
RTVSPost2010PropOp37
 70
     1
102
RTVSPost2010Prop38
140
0.0
102
RTVSPost2010PropOp38
 70
     1
102
RTVSPost2010Prop39
140
1.0
102
RTVSPost2010PropOp39
 70
     1
102
RTVSPost2010Prop40
 90
        0
102
RTVSPost2010PropOp40
 70
     1
102
RTVSPost2010Prop41ColorIndex
 90
       18
102
RTVSPost2010Prop41ColorRGB
 90
        0
102
RTVSPost2010PropOp41
 70
     1
102
RTVSPost2010Prop42
 90
       50
102
RTVSPost2010PropOp42
 70
     1
102
RTVSPost2010Prop43
 90
        3
102
RTVSPost2010PropOp43
 70
     1
102
RTVSPost2010Prop44ColorIndex
 90
        5
102
RTVSPost2010Prop44ColorRGB
 90
      255
102
RTVSPost2010PropOp44
 70
     1
102
RTVSPost2010Prop45
280
     0
102
RTVSPost2010PropOp45
 70
     1
102
RTVSPost2010Prop46
 90
       50
102
RTVSPost2010PropOp46
 70
     1
102
RTVSPost2010Prop47
 90
       50
102
RTVSPost2010PropOp47
 70
     1
102
RTVSPost2010Prop48
 90
       50
102
RTVSPost2010PropOp48
 70
     1
102
RTVSPost2010Prop49
280
     0
102
RTVSPost2010PropOp49
 70
     1
102
RTVSPost2010Prop50
 90
       50
102
RTVSPost2010PropOp50
 70
     1
102
RTVSPost2010Prop51ColorIndex
 90
      256
102
RTVSPost2010Prop51ColorRGB
 90
-16777216
102
RTVSPost2010PropOp51
 70
     0
102
RTVSPost2010Prop52
140
1.0
102
RTVSPost2010PropOp52
 70
     0
102
RTVSPost2010Prop53
 90
        2
102
RTVSPost2010PropOp53
 70
     1
102
RTVSPost2010Prop54
  1
strokes_ogs.tif
102
RTVSPost2010PropOp54
 70
     1
102
RTVSPost2010Prop55
280
     0
102
RTVSPost2010PropOp55
 70
     1
102
RTVSPost2010Prop56
140
1.0
102
RTVSPost2010PropOp56
 70
     1
102
RTVSPost2010Prop57
140
1.0
102
RTVSPost2010PropOp57
 70
     1
102
RTVSPropertyOp0
 70
     1
102
RTVSPropertyOp1
 70
     1
102
RTVSPropertyOp2
 70
     1
102
RTVSPropertyOp3
 70
     1
102
RTVSPropertyOp4
 70
     1
102
RTVSPropertyOp5
 70
     1
102
RTVSPropertyOp6
 70
     1
102
RTVSPropertyOp7
 70
     1
102
RTVSPropertyOp8
 70
     1
102
RTVSPropertyOp9
 70
     1
102
RTVSPropertyOp10
 70
     1
102
RTVSPropertyOp11
 70
     1
102
RTVSPropertyOp12
 70
     1
102
RTVSPropertyOp13
 70
     1
102
RTVSPropertyOp14
 70
     1
102
RTVSPropertyOp15
 70
     1
102
RTVSPropertyOp16
 70
     1
102
RTVSPropertyOp17
 70
     1
102
RTVSPropertyOp18
 70
     1
102
RTVSPropertyOp19
 70
     1
102
RTVSPropertyOp20
 70
     1
102
RTVSPropertyOp21
 70
     1
102
RTVSPropertyOp22
 70
     1
102
RTVSPropertyOp23
 70
     1
102
RTVSPropertyOp24
 70
     1
102
RTVSPropertyOp25
 70
     1
102
RTVSPropertyOp26
 70
     1
102
RTVSPropertyOp27
 70
     1
102
RTVSPropertyOp28
 70
     1
102
RTVSPropertyOp29
 70
     1
102
RTVSPropertyOp30
 70
     1
102
RTVSPropertyOp31
 70
     1
102
RTVSPropertyOp32
 70
     1
102
RTVSPropertyOp33
 70
     1
102
RTVSPropertyOp34
 70
     1
102
RTVSPropertyOp35
 70
     1
102
RTVSPropertyOp36
 70
     1
102
RTVSPropertyOp37
 70
     1
102
RTVSPropertyOp38
 70
     1
102
RTVSPropertyOp39
 70
     1
102
RTVSPropertyOp40
 70
     1
102
RTVSPropertyOp41
 70
     1
102
RTVSPropertyOp42
 70
     1
102
RTVSPropertyOp43
 70
     1
102
RTVSPropertyOp44
 70
     1
102
RTVSPropertyOp45
 70
     1
102
RTVSPropertyOp46
 70
     1
102
RTVSPropertyOp47
 70
     1
102
RTVSPropertyOp48
 70
     1
102
RTVSPropertyOp49
 70
     1
102
RTVSPropertyOp50
 70
     1
102
RTVSPropertyOp51
 70
     0
102
RTVSPropertyOp52
 70
     0
102
RTVSPropertyOp53
 70
     1
102
RTVSPropertyOp54
 70
     1
102
RTVSPropertyOp55
 70
     1
102
RTVSPropertyOp56
 70
     1
102
RTVSPropertyOp57
 70
     1
102
RTVSPropertyOp58
 70
     1
102
RTVSPropertyOp59
 70
     1
102
RTVSPropertyOp60
 70
     1
102
RTVSPropertyOp61
 70
     1
102
RTVSPropertyOp62
 70
     1
  0
XRECORD
  5
11706
102
{ACAD_REACTORS
330
11705
102
}
330
11705
100
AcDbXrecord
280
     1
102
RTVSPost2010Prop28
280
     0
102
RTVSPost2010PropOp28
 70
     1
102
RTVSPost2010Prop29
280
     1
102
RTVSPost2010PropOp29
 70
     1
102
RTVSPost2010Prop30
280
     1
102
RTVSPost2010PropOp30
 70
     1
102
RTVSPost2010Prop31
280
     0
102
RTVSPost2010PropOp31
 70
     1
102
RTVSPost2010Prop32
280
     0
102
RTVSPost2010PropOp32
 70
     1
102
RTVSPost2010Prop33
280
     0
102
RTVSPost2010PropOp33
 70
     1
102
RTVSPost2010Prop34
280
     0
102
RTVSPost2010PropOp34
 70
     1
102
RTVSPost2010Prop35
280
     0
102
RTVSPost2010PropOp35
 70
     1
102
RTVSPost2010Prop36
280
     0
102
RTVSPost2010PropOp36
 70
     1
102
RTVSPost2010Prop37
 90
       50
102
RTVSPost2010PropOp37
 70
     1
102
RTVSPost2010Prop38
140
0.0
102
RTVSPost2010PropOp38
 70
     1
102
RTVSPost2010Prop39
140
1.0
102
RTVSPost2010PropOp39
 70
     1
102
RTVSPost2010Prop40
 90
        0
102
RTVSPost2010PropOp40
 70
     1
102
RTVSPost2010Prop41ColorIndex
 90
       18
102
RTVSPost2010Prop41ColorRGB
 90
        0
102
RTVSPost2010PropOp41
 70
     1
102
RTVSPost2010Prop42
 90
       50
102
RTVSPost2010PropOp42
 70
     1
102
RTVSPost2010Prop43
 90
        3
102
RTVSPost2010PropOp43
 70
     1
102
RTVSPost2010Prop44ColorIndex
 90
        5
102
RTVSPost2010Prop44ColorRGB
 90
      255
102
RTVSPost2010PropOp44
 70
     1
102
RTVSPost2010Prop45
280
     0
102
RTVSPost2010PropOp45
 70
     1
102
RTVSPost2010Prop46
 90
       50
102
RTVSPost2010PropOp46
 70
     1
102
RTVSPost2010Prop47
 90
       50
102
RTVSPost2010PropOp47
 70
     1
102
RTVSPost2010Prop48
 90
       50
102
RTVSPost2010PropOp48
 70
     1
102
RTVSPost2010Prop49
280
     0
102
RTVSPost2010PropOp49
 70
     1
102
RTVSPost2010Prop50
 90
       50
102
RTVSPost2010PropOp50
 70
     1
102
RTVSPost2010Prop51ColorIndex
 90
      256
102
RTVSPost2010Prop51ColorRGB
 90
-16777216
102
RTVSPost2010PropOp51
 70
     0
102
RTVSPost2010Prop52
140
1.0
102
RTVSPost2010PropOp52
 70
     0
102
RTVSPost2010Prop53
 90
        2
102
RTVSPost2010PropOp53
 70
     1
102
RTVSPost2010Prop54
  1
strokes_ogs.tif
102
RTVSPost2010PropOp54
 70
     1
102
RTVSPost2010Prop55
280
     0
102
RTVSPost2010PropOp55
 70
     1
102
RTVSPost2010Prop56
140
1.0
102
RTVSPost2010PropOp56
 70
     1
102
RTVSPost2010Prop57
140
1.0
102
RTVSPost2010PropOp57
 70
     1
102
RTVSPropertyOp0
 70
     1
102
RTVSPropertyOp1
 70
     1
102
RTVSPropertyOp2
 70
     1
102
RTVSPropertyOp3
 70
     1
102
RTVSPropertyOp4
 70
     1
102
RTVSPropertyOp5
 70
     1
102
RTVSPropertyOp6
 70
     1
102
RTVSPropertyOp7
 70
     1
102
RTVSPropertyOp8
 70
     1
102
RTVSPropertyOp9
 70
     1
102
RTVSPropertyOp10
 70
     1
102
RTVSPropertyOp11
 70
     1
102
RTVSPropertyOp12
 70
     1
102
RTVSPropertyOp13
 70
     1
102
RTVSPropertyOp14
 70
     1
102
RTVSPropertyOp15
 70
     1
102
RTVSPropertyOp16
 70
     1
102
RTVSPropertyOp17
 70
     1
102
RTVSPropertyOp18
 70
     1
102
RTVSPropertyOp19
 70
     1
102
RTVSPropertyOp20
 70
     1
102
RTVSPropertyOp21
 70
     1
102
RTVSPropertyOp22
 70
     1
102
RTVSPropertyOp23
 70
     1
102
RTVSPropertyOp24
 70
     1
102
RTVSPropertyOp25
 70
     1
102
RTVSPropertyOp26
 70
     1
102
RTVSPropertyOp27
 70
     1
102
RTVSPropertyOp28
 70
     1
102
RTVSPropertyOp29
 70
     1
102
RTVSPropertyOp30
 70
     1
102
RTVSPropertyOp31
 70
     1
102
RTVSPropertyOp32
 70
     1
102
RTVSPropertyOp33
 70
     1
102
RTVSPropertyOp34
 70
     1
102
RTVSPropertyOp35
 70
     1
102
RTVSPropertyOp36
 70
     1
102
RTVSPropertyOp37
 70
     1
102
RTVSPropertyOp38
 70
     1
102
RTVSPropertyOp39
 70
     1
102
RTVSPropertyOp40
 70
     1
102
RTVSPropertyOp41
 70
     1
102
RTVSPropertyOp42
 70
     1
102
RTVSPropertyOp43
 70
     1
102
RTVSPropertyOp44
 70
     1
102
RTVSPropertyOp45
 70
     1
102
RTVSPropertyOp46
 70
     1
102
RTVSPropertyOp47
 70
     1
102
RTVSPropertyOp48
 70
     1
102
RTVSPropertyOp49
 70
     1
102
RTVSPropertyOp50
 70
     1
102
RTVSPropertyOp51
 70
     0
102
RTVSPropertyOp52
 70
     0
102
RTVSPropertyOp53
 70
     1
102
RTVSPropertyOp54
 70
     1
102
RTVSPropertyOp55
 70
     1
102
RTVSPropertyOp56
 70
     1
102
RTVSPropertyOp57
 70
     1
102
RTVSPropertyOp58
 70
     1
102
RTVSPropertyOp59
 70
     1
102
RTVSPropertyOp60
 70
     1
102
RTVSPropertyOp61
 70
     1
102
RTVSPropertyOp62
 70
     1
  0
ENDSEC
  0
EOF
