  0
SECTION
  2
HEADER
  9
$ACADVER
  1
AC1015
  9
$ACADMAINTVER
 70
    18
  9
$DWGCODEPAGE
  3
ANSI_1252
  9
$INSBASE
 10
0.0
 20
0.0
 30
0.0
  9
$EXTMIN
 10
-282.1500000000009
 20
-601.9581455344185
 30
0.0
  9
$EXTMAX
 10
311.5087624671547
 20
709.6500000000019
 30
0.0
  9
$LIMMIN
 10
0.0
 20
0.0
  9
$LIMMAX
 10
12.0
 20
9.0
  9
$ORTHOMODE
 70
     0
  9
$REGENMODE
 70
     1
  9
$FILLMODE
 70
     1
  9
$QTEXTMODE
 70
     0
  9
$MIRRTEXT
 70
     0
  9
$LTSCALE
 40
1.0
  9
$ATTMODE
 70
     1
  9
$TEXTSIZE
 40
0.2
  9
$TRACEWID
 40
0.05
  9
$TEXTSTYLE
  7
Standard
  9
$CLAYER
  8
0
  9
$CELTYPE
  6
ByLayer
  9
$CECOLOR
 62
   256
  9
$CELTSCALE
 40
1.0
  9
$DISPSILH
 70
     0
  9
$DIMSCALE
 40
1.0
  9
$DIMASZ
 40
0.18
  9
$DIMEXO
 40
0.0625
  9
$DIMDLI
 40
0.38
  9
$DIMRND
 40
0.0
  9
$DIMDLE
 40
0.0
  9
$DIMEXE
 40
0.18
  9
$DIMTP
 40
0.0
  9
$DIMTM
 40
0.0
  9
$DIMTXT
 40
0.18
  9
$DIMCEN
 40
0.09
  9
$DIMTSZ
 40
0.0
  9
$DIMTOL
 70
     0
  9
$DIMLIM
 70
     0
  9
$DIMTIH
 70
     1
  9
$DIMTOH
 70
     1
  9
$DIMSE1
 70
     0
  9
$DIMSE2
 70
     0
  9
$DIMTAD
 70
     0
  9
$DIMZIN
 70
     0
  9
$DIMBLK
  1

  9
$DIMASO
 70
     1
  9
$DIMSHO
 70
     1
  9
$DIMPOST
  1

  9
$DIMAPOST
  1

  9
$DIMALT
 70
     0
  9
$DIMALTD
 70
     2
  9
$DIMALTF
 40
25.4
  9
$DIMLFAC
 40
1.0
  9
$DIMTOFL
 70
     0
  9
$DIMTVP
 40
0.0
  9
$DIMTIX
 70
     0
  9
$DIMSOXD
 70
     0
  9
$DIMSAH
 70
     0
  9
$DIMBLK1
  1

  9
$DIMBLK2
  1

  9
$DIMSTYLE
  2
Standard
  9
$DIMCLRD
 70
     0
  9
$DIMCLRE
 70
     0
  9
$DIMCLRT
 70
     0
  9
$DIMTFAC
 40
1.0
  9
$DIMGAP
 40
0.09
  9
$DIMJUST
 70
     0
  9
$DIMSD1
 70
     0
  9
$DIMSD2
 70
     0
  9
$DIMTOLJ
 70
     1
  9
$DIMTZIN
 70
     0
  9
$DIMALTZ
 70
     0
  9
$DIMALTTZ
 70
     0
  9
$DIMUPT
 70
     0
  9
$DIMDEC
 70
     4
  9
$DIMTDEC
 70
     4
  9
$DIMALTU
 70
     2
  9
$DIMALTTD
 70
     2
  9
$DIMTXSTY
  7
Standard
  9
$DIMAUNIT
 70
     0
  9
$DIMADEC
 70
     0
  9
$DIMALTRND
 40
0.0
  9
$DIMAZIN
 70
     0
  9
$DIMDSEP
 70
    46
  9
$DIMATFIT
 70
     3
  9
$DIMFRAC
 70
     0
  9
$DIMLDRBLK
  1

  9
$DIMLUNIT
 70
     2
  9
$DIMLWD
 70
    -2
  9
$DIMLWE
 70
    -2
  9
$DIMTMOVE
 70
     0
  9
$LUNITS
 70
     2
  9
$LUPREC
 70
     4
  9
$SKETCHINC
 40
0.1
  9
$FILLETRAD
 40
0.0
  9
$AUNITS
 70
     0
  9
$AUPREC
 70
     0
  9
$MENU
  1
.
  9
$ELEVATION
 40
0.0
  9
$PELEVATION
 40
0.0
  9
$THICKNESS
 40
0.0
  9
$LIMCHECK
 70
     0
  9
$CHAMFERA
 40
0.0
  9
$CHAMFERB
 40
0.0
  9
$CHAMFERC
 40
0.0
  9
$CHAMFERD
 40
0.0
  9
$SKPOLY
 70
     0
  9
$TDCREATE
 40
2460384.667083333
  9
$TDUCREATE
 40
2460384.375416667
  9
$TDUPDATE
 40
2460384.682905093
  9
$TDUUPDATE
 40
2460384.391238426
  9
$TDINDWG
 40
0.0028587963
  9
$TDUSRTIMER
 40
0.0028587963
  9
$USRTIMER
 70
     1
  9
$ANGBASE
 50
0.0
  9
$ANGDIR
 70
     0
  9
$PDMODE
 70
     0
  9
$PDSIZE
 40
0.0
  9
$PLINEWID
 40
0.0
  9
$SPLFRAME
 70
     0
  9
$SPLINETYPE
 70
     6
  9
$SPLINESEGS
 70
     8
  9
$HANDSEED
  5
15B5B
  9
$SURFTAB1
 70
     6
  9
$SURFTAB2
 70
     6
  9
$SURFTYPE
 70
     6
  9
$SURFU
 70
     6
  9
$SURFV
 70
     6
  9
$UCSBASE
  2

  9
$UCSNAME
  2

  9
$UCSORG
 10
0.0
 20
0.0
 30
0.0
  9
$UCSXDIR
 10
1.0
 20
0.0
 30
0.0
  9
$UCSYDIR
 10
0.0
 20
1.0
 30
0.0
  9
$UCSORTHOREF
  2

  9
$UCSORTHOVIEW
 70
     0
  9
$UCSORGTOP
 10
0.0
 20
0.0
 30
0.0
  9
$UCSORGBOTTOM
 10
0.0
 20
0.0
 30
0.0
  9
$UCSORGLEFT
 10
0.0
 20
0.0
 30
0.0
  9
$UCSORGRIGHT
 10
0.0
 20
0.0
 30
0.0
  9
$UCSORGFRONT
 10
0.0
 20
0.0
 30
0.0
  9
$UCSORGBACK
 10
0.0
 20
0.0
 30
0.0
  9
$PUCSBASE
  2

  9
$PUCSNAME
  2

  9
$PUCSORG
 10
0.0
 20
0.0
 30
0.0
  9
$PUCSXDIR
 10
1.0
 20
0.0
 30
0.0
  9
$PUCSYDIR
 10
0.0
 20
1.0
 30
0.0
  9
$PUCSORTHOREF
  2

  9
$PUCSORTHOVIEW
 70
     0
  9
$PUCSORGTOP
 10
0.0
 20
0.0
 30
0.0
  9
$PUCSORGBOTTOM
 10
0.0
 20
0.0
 30
0.0
  9
$PUCSORGLEFT
 10
0.0
 20
0.0
 30
0.0
  9
$PUCSORGRIGHT
 10
0.0
 20
0.0
 30
0.0
  9
$PUCSORGFRONT
 10
0.0
 20
0.0
 30
0.0
  9
$PUCSORGBACK
 10
0.0
 20
0.0
 30
0.0
  9
$USERI1
 70
     0
  9
$USERI2
 70
     0
  9
$USERI3
 70
     0
  9
$USERI4
 70
     0
  9
$USERI5
 70
     0
  9
$USERR1
 40
0.0
  9
$USERR2
 40
0.0
  9
$USERR3
 40
0.0
  9
$USERR4
 40
0.0
  9
$USERR5
 40
0.0
  9
$WORLDVIEW
 70
     1
  9
$SHADEDGE
 70
     3
  9
$SHADEDIF
 70
    70
  9
$TILEMODE
 70
     1
  9
$MAXACTVP
 70
    48
  9
$PINSBASE
 10
0.0
 20
0.0
 30
0.0
  9
$PLIMCHECK
 70
     0
  9
$PEXTMIN
 10
0.0
 20
0.0
 30
0.0
  9
$PEXTMAX
 10
0.0
 20
0.0
 30
0.0
  9
$PLIMMIN
 10
0.0
 20
0.0
  9
$PLIMMAX
 10
12.0
 20
9.0
  9
$UNITMODE
 70
     0
  9
$VISRETAIN
 70
     1
  9
$PLINEGEN
 70
     0
  9
$PSLTSCALE
 70
     1
  9
$TREEDEPTH
 70
  3020
  9
$CMLSTYLE
  2
Standard
  9
$CMLJUST
 70
     0
  9
$CMLSCALE
 40
1.0
  9
$PROXYGRAPHICS
 70
     1
  9
$MEASUREMENT
 70
     0
  9
$CELWEIGHT
370
    -1
  9
$ENDCAPS
280
     0
  9
$JOINSTYLE
280
     0
  9
$LWDISPLAY
290
     0
  9
$INSUNITS
 70
     1
  9
$HYPERLINKBASE
  1

  9
$STYLESHEET
  1

  9
$XEDIT
290
     1
  9
$CEPSNTYPE
380
     0
  9
$PSTYLEMODE
290
     1
  9
$FINGERPRINTGUID
  2
{B5591625-B9A0-E541-A7F7-CC74BD99FB5D}
  9
$VERSIONGUID
  2
{5DD48900-1DA0-F74C-8117-4E885DDE9F23}
  9
$EXTNAMES
290
     1
  9
$PSVPSCALE
 40
0.0
  9
$OLESTARTUP
290
     0
  0
ENDSEC
  0
SECTION
  2
CLASSES
  0
CLASS
  1
ACDBDICTIONARYWDFLT
  2
AcDbDictionaryWithDefault
  3
ObjectDBX Classes
 90
        0
280
     0
281
     0
  0
CLASS
  1
ACDBPLACEHOLDER
  2
AcDbPlaceHolder
  3
ObjectDBX Classes
 90
        0
280
     0
281
     0
  0
CLASS
  1
LAYOUT
  2
AcDbLayout
  3
ObjectDBX Classes
 90
        0
280
     0
281
     0
  0
CLASS
  1
DICTIONARYVAR
  2
AcDbDictionaryVar
  3
ObjectDBX Classes
 90
        0
280
     0
281
     0
  0
CLASS
  1
TABLESTYLE
  2
AcDbTableStyle
  3
ObjectDBX Classes
 90
     4095
280
     0
281
     0
  0
CLASS
  1
MATERIAL
  2
AcDbMaterial
  3
ObjectDBX Classes
 90
     1153
280
     0
281
     0
  0
CLASS
  1
VISUALSTYLE
  2
AcDbVisualStyle
  3
ObjectDBX Classes
 90
     4095
280
     0
281
     0
  0
CLASS
  1
SCALE
  2
AcDbScale
  3
ObjectDBX Classes
 90
     1153
280
     0
281
     0
  0
CLASS
  1
MLEADERSTYLE
  2
AcDbMLeaderStyle
  3
ACDB_MLEADERSTYLE_CLASS
 90
     4095
280
     0
281
     0
  0
CLASS
  1
CELLSTYLEMAP
  2
AcDbCellStyleMap
  3
ObjectDBX Classes
 90
     1152
280
     0
281
     0
  0
CLASS
  1
EXACXREFPANELOBJECT
  2
ExAcXREFPanelObject
  3
EXAC_ESW
 90
    33793
280
     0
281
     0
  0
CLASS
  1
NPOCOLLECTION
  2
AcDbImpNonPersistentObjectsCollection
  3
ObjectDBX Classes
 90
    33921
280
     0
281
     0
  0
CLASS
  1
LAYER_INDEX
  2
AcDbLayerIndex
  3
ObjectDBX Classes
 90
    32768
280
     0
281
     0
  0
CLASS
  1
SPATIAL_INDEX
  2
AcDbSpatialIndex
  3
ObjectDBX Classes
 90
    32768
280
     0
281
     0
  0
CLASS
  1
IDBUFFER
  2
AcDbIdBuffer
  3
ObjectDBX Classes
 90
    32768
280
     0
281
     0
  0
CLASS
  1
ACDBSECTIONVIEWSTYLE
  2
AcDbSectionViewStyle
  3
ObjectDBX Classes
 90
     1025
280
     0
281
     0
  0
CLASS
  1
ACDBDETAILVIEWSTYLE
  2
AcDbDetailViewStyle
  3
ObjectDBX Classes
 90
     1025
280
     0
281
     0
  0
CLASS
  1
XRECORD
  2
AcDbXrecord
  3
ObjectDBX Classes
 90
        0
280
     0
281
     0
  0
ENDSEC
  0
SECTION
  2
TABLES
  0
TABLE
  2
VPORT
  5
8
102
{ACAD_XDICTIONARY
360
15A71
102
}
330
0
100
AcDbSymbolTable
 70
     1
  0
VPORT
  5
94
330
8
100
AcDbSymbolTableRecord
100
AcDbViewportTableRecord
  2
*Active
 70
     0
 10
0.0
 20
0.0
 11
1.0
 21
1.0
 12
14.67938123357692
 22
53.84592723279173
 13
0.0
 23
0.0
 14
0.5
 24
0.5
 15
0.5
 25
0.5
 16
0.0
 26
0.0
 36
1.0
 17
0.0
 27
0.0
 37
0.0
 40
1394.776400496456
 41
0.9846153846153848
 42
50.0
 43
0.0
 44
0.0
 50
0.0
 51
0.0
 71
     0
 72
  1000
 73
     1
 74
     3
 75
     0
 76
     1
 77
     0
 78
     0
281
     0
 65
     1
110
0.0
120
0.0
130
0.0
111
1.0
121
0.0
131
0.0
112
0.0
122
1.0
132
0.0
 79
     0
146
0.0
1001
ACAD_NAV_VCDISPLAY
1070
     3
  0
ENDTAB
  0
TABLE
  2
LTYPE
  5
5
330
0
100
AcDbSymbolTable
 70
     1
  0
LTYPE
  5
14
330
5
100
AcDbSymbolTableRecord
100
AcDbLinetypeTableRecord
  2
ByBlock
 70
     0
  3

 72
    65
 73
     0
 40
0.0
  0
LTYPE
  5
15
330
5
100
AcDbSymbolTableRecord
100
AcDbLinetypeTableRecord
  2
ByLayer
 70
     0
  3

 72
    65
 73
     0
 40
0.0
  0
LTYPE
  5
16
330
5
100
AcDbSymbolTableRecord
100
AcDbLinetypeTableRecord
  2
Continuous
 70
     0
  3
Solid line
 72
    65
 73
     0
 40
0.0
  0
ENDTAB
  0
TABLE
  2
LAYER
  5
2
102
{ACAD_XDICTIONARY
360
18E
102
}
330
0
100
AcDbSymbolTable
 70
     1
  0
LAYER
  5
10
102
{ACAD_XDICTIONARY
360
E6
102
}
330
2
100
AcDbSymbolTableRecord
100
AcDbLayerTableRecord
  2
0
 70
     0
 62
     7
  6
Continuous
370
    -3
390
F
  0
ENDTAB
  0
TABLE
  2
STYLE
  5
3
330
0
100
AcDbSymbolTable
 70
     1
  0
STYLE
  5
11
330
3
100
AcDbSymbolTableRecord
100
AcDbTextStyleTableRecord
  2
Standard
 70
     0
 40
0.0
 41
1.0
 50
0.0
 71
     0
 42
0.2
  3
arial.ttf
  4

1001
ACAD
1000
Arial
1071
       34
  0
ENDTAB
  0
TABLE
  2
VIEW
  5
6
330
0
100
AcDbSymbolTable
 70
     0
  0
ENDTAB
  0
TABLE
  2
UCS
  5
7
330
0
100
AcDbSymbolTable
 70
     0
  0
ENDTAB
  0
TABLE
  2
APPID
  5
9
330
0
100
AcDbSymbolTable
 70
     7
  0
APPID
  5
12
330
9
100
AcDbSymbolTableRecord
100
AcDbRegAppTableRecord
  2
ACAD
 70
     0
  0
APPID
  5
DD
330
9
100
AcDbSymbolTableRecord
100
AcDbRegAppTableRecord
  2
AcadAnnoPO
 70
     0
  0
APPID
  5
DE
330
9
100
AcDbSymbolTableRecord
100
AcDbRegAppTableRecord
  2
AcadAnnotative
 70
     0
  0
APPID
  5
DF
330
9
100
AcDbSymbolTableRecord
100
AcDbRegAppTableRecord
  2
ACAD_DSTYLE_DIMJAG
 70
     0
  0
APPID
  5
E0
330
9
100
AcDbSymbolTableRecord
100
AcDbRegAppTableRecord
  2
ACAD_DSTYLE_DIMTALN
 70
     0
  0
APPID
  5
107
330
9
100
AcDbSymbolTableRecord
100
AcDbRegAppTableRecord
  2
ACAD_MLEADERVER
 70
     0
  0
APPID
  5
1A6
330
9
100
AcDbSymbolTableRecord
100
AcDbRegAppTableRecord
  2
ACAD_NAV_VCDISPLAY
 70
     0
  0
ENDTAB
  0
TABLE
  2
DIMSTYLE
  5
A
330
0
100
AcDbSymbolTable
 70
     1
100
AcDbDimStyleTable
 71
     0
  0
DIMSTYLE
105
27
330
A
100
AcDbSymbolTableRecord
100
AcDbDimStyleTableRecord
  2
Standard
 70
     0
340
11
  0
ENDTAB
  0
TABLE
  2
BLOCK_RECORD
  5
1
330
0
100
AcDbSymbolTable
 70
     7
  0
BLOCK_RECORD
  5
1F
102
{ACAD_XDICTIONARY
360
15D
102
}
330
1
100
AcDbSymbolTableRecord
100
AcDbBlockTableRecord
  2
*Model_Space
340
22
  0
BLOCK_RECORD
  5
58
102
{ACAD_XDICTIONARY
360
15A25
102
}
330
1
100
AcDbSymbolTableRecord
100
AcDbBlockTableRecord
  2
*Paper_Space
340
59
  0
BLOCK_RECORD
  5
5D
102
{ACAD_XDICTIONARY
360
15A27
102
}
330
1
100
AcDbSymbolTableRecord
100
AcDbBlockTableRecord
  2
*Paper_Space0
340
5E
  0
BLOCK_RECORD
  5
15823
330
1
100
AcDbSymbolTableRecord
100
AcDbBlockTableRecord
  2
GLI1020_80_25-Front
340
0
102
{BLKREFS
331
15A1B
102
}
  0
BLOCK_RECORD
  5
1589E
330
1
100
AcDbSymbolTableRecord
100
AcDbBlockTableRecord
  2
GLI1020_80_25-Left
340
0
102
{BLKREFS
331
15A1C
102
}
  0
BLOCK_RECORD
  5
158C3
330
1
100
AcDbSymbolTableRecord
100
AcDbBlockTableRecord
  2
GLI1020_80_25-Right
340
0
102
{BLKREFS
331
15A1D
102
}
  0
BLOCK_RECORD
  5
158E7
330
1
100
AcDbSymbolTableRecord
100
AcDbBlockTableRecord
  2
GLI1020_80_25-Top
340
0
102
{BLKREFS
331
15A1E
102
}
  0
BLOCK_RECORD
  5
1590E
330
1
100
AcDbSymbolTableRecord
100
AcDbBlockTableRecord
  2
GLI1020_80_25-Bottom
340
0
102
{BLKREFS
331
15A1F
102
}
  0
BLOCK_RECORD
  5
15937
330
1
100
AcDbSymbolTableRecord
100
AcDbBlockTableRecord
  2
GLI1020_80_25-ISO
340
0
102
{BLKREFS
331
15A20
102
}
  0
ENDTAB
  0
ENDSEC
  0
SECTION
  2
BLOCKS
  0
BLOCK
  5
20
330
1F
100
AcDbEntity
  8
0
100
AcDbBlockBegin
  2
*Model_Space
 70
     0
 10
0.0
 20
0.0
 30
0.0
  3
*Model_Space
  1

  0
ENDBLK
  5
21
330
1F
100
AcDbEntity
  8
0
100
AcDbBlockEnd
  0
BLOCK
  5
5A
330
58
100
AcDbEntity
 67
     1
  8
0
100
AcDbBlockBegin
  2
*Paper_Space
 70
     0
 10
0.0
 20
0.0
 30
0.0
  3
*Paper_Space
  1

  0
ENDBLK
  5
5B
330
58
100
AcDbEntity
 67
     1
  8
0
100
AcDbBlockEnd
  0
BLOCK
  5
5F
330
5D
100
AcDbEntity
 67
     1
  8
0
100
AcDbBlockBegin
  2
*Paper_Space0
 70
     0
 10
0.0
 20
0.0
 30
0.0
  3
*Paper_Space0
  1

  0
ENDBLK
  5
60
330
5D
100
AcDbEntity
 67
     1
  8
0
100
AcDbBlockEnd
  0
BLOCK
  5
15824
330
15823
100
AcDbEntity
  8
0
100
AcDbBlockBegin
  2
GLI1020_80_25-Front
 70
     0
 10
0.0
 20
0.0
 30
0.0
  3
GLI1020_80_25-Front
  1

  0
ARC
  5
15826
330
15823
100
AcDbEntity
  8
0
100
AcDbCircle
 10
37.5000000000001
 20
2.500000000000012
 30
0.0
 40
2.5
100
AcDbArc
 50
270.0
 51
0.0
  0
ARC
  5
15827
330
15823
100
AcDbEntity
  8
0
100
AcDbCircle
 10
37.5000000000001
 20
2.500000000000012
 30
0.0
 40
5.0
100
AcDbArc
 50
270.0
 51
0.0
  0
LINE
  5
15828
330
15823
100
AcDbEntity
  8
0
100
AcDbLine
 10
-37.50000000000003
 20
-2.499999999999988
 30
0.0
 11
37.5000000000001
 21
-2.499999999999988
 31
0.0
  0
LINE
  5
15829
330
15823
100
AcDbEntity
  8
0
100
AcDbLine
 10
-37.50000000000003
 20
0.0
 30
0.0
 11
37.5000000000001
 21
0.0
 31
0.0
  0
LINE
  5
1582A
330
15823
100
AcDbEntity
  8
0
100
AcDbLine
 10
-42.50000000000001
 20
50.30641096082086
 30
0.0
 11
-42.50000000000002
 21
2.5
 31
0.0
  0
LINE
  5
1582B
330
15823
100
AcDbEntity
  8
0
100
AcDbLine
 10
-40.00000000000001
 20
50.30641096082086
 30
0.0
 11
-40.00000000000002
 21
2.5
 31
0.0
  0
LINE
  5
1582C
330
15823
100
AcDbEntity
  8
0
100
AcDbLine
 10
21.5910136408024
 20
60.76000000000004
 30
0.0
 11
37.50000000000001
 21
56.91121114160418
 31
0.0
  0
LINE
  5
1582D
330
15823
100
AcDbEntity
  8
0
100
AcDbLine
 10
37.49999999999992
 20
470.0000000000001
 30
0.0
 11
3.999999999999834
 21
470.0000000000001
 31
0.0
  0
LINE
  5
1582E
330
15823
100
AcDbEntity
  8
0
100
AcDbLine
 10
3.999999999999836
 20
470.0000000000001
 30
0.0
 11
3.999999999999885
 21
72.18373783037819
 31
0.0
  0
LINE
  5
1582F
330
15823
100
AcDbEntity
  8
0
100
AcDbLine
 10
3.999999999999885
 20
72.18373783037819
 30
0.0
 11
21.5910136408024
 21
60.76000000000004
 31
0.0
  0
LINE
  5
15830
330
15823
100
AcDbEntity
  8
0
100
AcDbLine
 10
42.50000000000006
 20
69.00000000000002
 30
0.0
 11
42.49999999999996
 21
470.0000000000001
 31
0.0
  0
LINE
  5
15831
330
15823
100
AcDbEntity
  8
0
100
AcDbLine
 10
39.99999999999996
 20
470.0000000000001
 30
0.0
 11
42.49999999999996
 21
470.0000000000001
 31
0.0
  0
LINE
  5
15832
330
15823
100
AcDbEntity
  8
0
100
AcDbLine
 10
40.00000000000006
 20
69.00000000000002
 30
0.0
 11
39.99999999999996
 21
470.0000000000001
 31
0.0
  0
LINE
  5
15833
330
15823
100
AcDbEntity
  8
0
100
AcDbLine
 10
40.00000000000006
 20
69.00000000000002
 30
0.0
 11
42.50000000000006
 21
69.00000000000002
 31
0.0
  0
LINE
  5
15834
330
15823
100
AcDbEntity
  8
0
100
AcDbLine
 10
42.50000000000007
 20
55.16999999999996
 30
0.0
 11
42.50000000000006
 21
69.00000000000002
 31
0.0
  0
LINE
  5
15835
330
15823
100
AcDbEntity
  8
0
100
AcDbLine
 10
40.00000000000007
 20
55.16999999999996
 30
0.0
 11
40.00000000000006
 21
69.00000000000002
 31
0.0
  0
LINE
  5
15836
330
15823
100
AcDbEntity
  8
0
100
AcDbLine
 10
40.00000000000007
 20
55.16999999999996
 30
0.0
 11
42.50000000000007
 21
55.16999999999996
 31
0.0
  0
LINE
  5
15837
330
15823
100
AcDbEntity
  8
0
100
AcDbLine
 10
42.50000000000008
 20
50.30641096082082
 30
0.0
 11
42.50000000000007
 21
55.16999999999996
 31
0.0
  0
LINE
  5
15838
330
15823
100
AcDbEntity
  8
0
100
AcDbLine
 10
40.00000000000008
 20
50.30641096082082
 30
0.0
 11
40.00000000000007
 21
55.16999999999996
 31
0.0
  0
LINE
  5
15839
330
15823
100
AcDbEntity
  8
0
100
AcDbLine
 10
40.00000000000008
 20
50.30641096082082
 30
0.0
 11
42.50000000000008
 21
50.30641096082082
 31
0.0
  0
LINE
  5
1583A
330
15823
100
AcDbEntity
  8
0
100
AcDbLine
 10
42.50000000000009
 20
2.500000000000007
 30
0.0
 11
42.50000000000008
 21
50.30641096082082
 31
0.0
  0
LINE
  5
1583B
330
15823
100
AcDbEntity
  8
0
100
AcDbLine
 10
40.00000000000009
 20
2.500000000000007
 30
0.0
 11
40.00000000000008
 21
50.30641096082082
 31
0.0
  0
ARC
  5
1583C
330
15823
100
AcDbEntity
  8
0
100
AcDbCircle
 10
-37.50000000000003
 20
2.500000000000012
 30
0.0
 40
2.5
100
AcDbArc
 50
180.0
 51
269.9999999999993
  0
ARC
  5
1583D
330
15823
100
AcDbEntity
  8
0
100
AcDbCircle
 10
-37.50000000000003
 20
2.500000000000012
 30
0.0
 40
5.0
100
AcDbArc
 50
180.0
 51
269.9999999999997
  0
CIRCLE
  5
1583E
330
15823
100
AcDbEntity
  8
0
100
AcDbCircle
 10
-11.49999999999995
 20
92.50000000000003
 30
0.0
 40
2.5
  0
CIRCLE
  5
1583F
330
15823
100
AcDbEntity
  8
0
100
AcDbCircle
 10
-11.49999999999995
 20
112.5
 30
0.0
 40
2.5
  0
CIRCLE
  5
15840
330
15823
100
AcDbEntity
  8
0
100
AcDbCircle
 10
-11.49999999999995
 20
132.5
 30
0.0
 40
2.5
  0
CIRCLE
  5
15841
330
15823
100
AcDbEntity
  8
0
100
AcDbCircle
 10
-11.49999999999995
 20
152.5
 30
0.0
 40
2.5
  0
CIRCLE
  5
15842
330
15823
100
AcDbEntity
  8
0
100
AcDbCircle
 10
-11.49999999999995
 20
172.5
 30
0.0
 40
2.5
  0
CIRCLE
  5
15843
330
15823
100
AcDbEntity
  8
0
100
AcDbCircle
 10
-11.49999999999995
 20
192.5
 30
0.0
 40
2.5
  0
CIRCLE
  5
15844
330
15823
100
AcDbEntity
  8
0
100
AcDbCircle
 10
-11.49999999999995
 20
212.5
 30
0.0
 40
2.5
  0
CIRCLE
  5
15845
330
15823
100
AcDbEntity
  8
0
100
AcDbCircle
 10
-11.49999999999995
 20
232.5
 30
0.0
 40
2.5
  0
CIRCLE
  5
15846
330
15823
100
AcDbEntity
  8
0
100
AcDbCircle
 10
-11.49999999999995
 20
252.5
 30
0.0
 40
2.5
  0
CIRCLE
  5
15847
330
15823
100
AcDbEntity
  8
0
100
AcDbCircle
 10
-11.49999999999995
 20
272.5
 30
0.0
 40
2.5
  0
CIRCLE
  5
15848
330
15823
100
AcDbEntity
  8
0
100
AcDbCircle
 10
-11.49999999999995
 20
292.5000000000001
 30
0.0
 40
2.5
  0
CIRCLE
  5
15849
330
15823
100
AcDbEntity
  8
0
100
AcDbCircle
 10
-11.49999999999995
 20
312.5
 30
0.0
 40
2.5
  0
CIRCLE
  5
1584A
330
15823
100
AcDbEntity
  8
0
100
AcDbCircle
 10
-11.49999999999995
 20
332.5
 30
0.0
 40
2.5
  0
CIRCLE
  5
1584B
330
15823
100
AcDbEntity
  8
0
100
AcDbCircle
 10
-11.49999999999995
 20
352.5
 30
0.0
 40
2.5
  0
CIRCLE
  5
1584C
330
15823
100
AcDbEntity
  8
0
100
AcDbCircle
 10
-11.49999999999995
 20
372.5
 30
0.0
 40
2.5
  0
CIRCLE
  5
1584D
330
15823
100
AcDbEntity
  8
0
100
AcDbCircle
 10
-11.49999999999995
 20
392.5
 30
0.0
 40
2.5
  0
CIRCLE
  5
1584E
330
15823
100
AcDbEntity
  8
0
100
AcDbCircle
 10
-11.49999999999995
 20
412.5
 30
0.0
 40
2.5
  0
CIRCLE
  5
1584F
330
15823
100
AcDbEntity
  8
0
100
AcDbCircle
 10
-11.49999999999995
 20
432.5
 30
0.0
 40
2.5
  0
CIRCLE
  5
15850
330
15823
100
AcDbEntity
  8
0
100
AcDbCircle
 10
-24.49999999999999
 20
82.50000000000003
 30
0.0
 40
7.0
  0
CIRCLE
  5
15851
330
15823
100
AcDbEntity
  8
0
100
AcDbCircle
 10
-24.49999999999997
 20
202.5
 30
0.0
 40
7.0
  0
CIRCLE
  5
15852
330
15823
100
AcDbEntity
  8
0
100
AcDbCircle
 10
-24.49999999999995
 20
322.5
 30
0.0
 40
7.0
  0
CIRCLE
  5
15853
330
15823
100
AcDbEntity
  8
0
100
AcDbCircle
 10
-24.49999999999996
 20
442.4999999999999
 30
0.0
 40
7.0
  0
CIRCLE
  5
15854
330
15823
100
AcDbEntity
  8
0
100
AcDbCircle
 10
-11.49999999999995
 20
452.5
 30
0.0
 40
2.5
  0
CIRCLE
  5
15855
330
15823
100
AcDbEntity
  8
0
100
AcDbCircle
 10
-29.49999999999996
 20
462.5
 30
0.0
 40
2.5
  0
LINE
  5
15856
330
15823
100
AcDbEntity
  8
0
100
AcDbLine
 10
-37.4999999999999
 20
470.0
 30
0.0
 11
-3.99999999999995
 21
470.0
 31
0.0
  0
LINE
  5
15857
330
15823
100
AcDbEntity
  8
0
100
AcDbLine
 10
-3.999999999999948
 20
470.0
 30
0.0
 11
-3.999999999999939
 21
72.18373783037819
 31
0.0
  0
LINE
  5
15858
330
15823
100
AcDbEntity
  8
0
100
AcDbLine
 10
-3.999999999999939
 20
72.18373783037819
 30
0.0
 11
-21.59101364080246
 21
60.76000000000004
 31
0.0
  0
LINE
  5
15859
330
15823
100
AcDbEntity
  8
0
100
AcDbLine
 10
-21.59101364080246
 20
60.76000000000004
 30
0.0
 11
-37.5
 21
56.9112111416042
 31
0.0
  0
LINE
  5
1585A
330
15823
100
AcDbEntity
  8
0
100
AcDbLine
 10
-42.50000000000002
 20
69.00000000000003
 30
0.0
 11
-42.49999999999993
 21
470.0
 31
0.0
  0
LINE
  5
1585B
330
15823
100
AcDbEntity
  8
0
100
AcDbLine
 10
-40.00000000000002
 20
69.00000000000003
 30
0.0
 11
-42.50000000000002
 21
69.00000000000003
 31
0.0
  0
LINE
  5
1585C
330
15823
100
AcDbEntity
  8
0
100
AcDbLine
 10
-40.00000000000002
 20
69.00000000000003
 30
0.0
 11
-39.99999999999995
 21
470.0
 31
0.0
  0
LINE
  5
1585D
330
15823
100
AcDbEntity
  8
0
100
AcDbLine
 10
-39.99999999999995
 20
470.0
 30
0.0
 11
-42.49999999999993
 21
470.0
 31
0.0
  0
LINE
  5
1585E
330
15823
100
AcDbEntity
  8
0
100
AcDbLine
 10
-42.50000000000002
 20
55.17
 30
0.0
 11
-42.50000000000002
 21
69.00000000000003
 31
0.0
  0
LINE
  5
1585F
330
15823
100
AcDbEntity
  8
0
100
AcDbLine
 10
-40.00000000000002
 20
55.17
 30
0.0
 11
-42.50000000000002
 21
55.17
 31
0.0
  0
LINE
  5
15860
330
15823
100
AcDbEntity
  8
0
100
AcDbLine
 10
-40.00000000000002
 20
55.17
 30
0.0
 11
-40.00000000000002
 21
69.00000000000003
 31
0.0
  0
LINE
  5
15861
330
15823
100
AcDbEntity
  8
0
100
AcDbLine
 10
-42.50000000000001
 20
50.30641096082086
 30
0.0
 11
-42.50000000000002
 21
55.17
 31
0.0
  0
LINE
  5
15862
330
15823
100
AcDbEntity
  8
0
100
AcDbLine
 10
-40.00000000000001
 20
50.30641096082086
 30
0.0
 11
-42.50000000000001
 21
50.30641096082086
 31
0.0
  0
LINE
  5
15863
330
15823
100
AcDbEntity
  8
0
100
AcDbLine
 10
-40.00000000000001
 20
50.30641096082086
 30
0.0
 11
-40.00000000000002
 21
55.17
 31
0.0
  0
CIRCLE
  5
15864
330
15823
100
AcDbEntity
  8
0
100
AcDbCircle
 10
-29.49999999999997
 20
102.5
 30
0.0
 40
2.5
  0
CIRCLE
  5
15865
330
15823
100
AcDbEntity
  8
0
100
AcDbCircle
 10
-29.49999999999997
 20
122.5
 30
0.0
 40
2.5
  0
CIRCLE
  5
15866
330
15823
100
AcDbEntity
  8
0
100
AcDbCircle
 10
-29.49999999999997
 20
142.5
 30
0.0
 40
2.5
  0
CIRCLE
  5
15867
330
15823
100
AcDbEntity
  8
0
100
AcDbCircle
 10
-29.49999999999998
 20
162.5
 30
0.0
 40
2.5
  0
CIRCLE
  5
15868
330
15823
100
AcDbEntity
  8
0
100
AcDbCircle
 10
29.4999999999999
 20
162.5
 30
0.0
 40
2.5
  0
CIRCLE
  5
15869
330
15823
100
AcDbEntity
  8
0
100
AcDbCircle
 10
29.4999999999999
 20
142.5
 30
0.0
 40
2.5
  0
CIRCLE
  5
1586A
330
15823
100
AcDbEntity
  8
0
100
AcDbCircle
 10
29.4999999999999
 20
122.5
 30
0.0
 40
2.5
  0
CIRCLE
  5
1586B
330
15823
100
AcDbEntity
  8
0
100
AcDbCircle
 10
29.49999999999991
 20
102.5
 30
0.0
 40
2.5
  0
CIRCLE
  5
1586C
330
15823
100
AcDbEntity
  8
0
100
AcDbCircle
 10
-29.49999999999996
 20
222.5
 30
0.0
 40
2.5
  0
CIRCLE
  5
1586D
330
15823
100
AcDbEntity
  8
0
100
AcDbCircle
 10
-29.49999999999996
 20
242.5
 30
0.0
 40
2.5
  0
CIRCLE
  5
1586E
330
15823
100
AcDbEntity
  8
0
100
AcDbCircle
 10
-29.49999999999996
 20
262.5
 30
0.0
 40
2.5
  0
CIRCLE
  5
1586F
330
15823
100
AcDbEntity
  8
0
100
AcDbCircle
 10
-29.49999999999996
 20
282.5000000000001
 30
0.0
 40
2.5
  0
CIRCLE
  5
15870
330
15823
100
AcDbEntity
  8
0
100
AcDbCircle
 10
29.49999999999987
 20
282.5000000000001
 30
0.0
 40
2.5
  0
CIRCLE
  5
15871
330
15823
100
AcDbEntity
  8
0
100
AcDbCircle
 10
29.49999999999987
 20
262.5
 30
0.0
 40
2.5
  0
CIRCLE
  5
15872
330
15823
100
AcDbEntity
  8
0
100
AcDbCircle
 10
29.49999999999987
 20
242.5
 30
0.0
 40
2.5
  0
CIRCLE
  5
15873
330
15823
100
AcDbEntity
  8
0
100
AcDbCircle
 10
29.49999999999988
 20
222.5
 30
0.0
 40
2.5
  0
CIRCLE
  5
15874
330
15823
100
AcDbEntity
  8
0
100
AcDbCircle
 10
-29.49999999999996
 20
342.5
 30
0.0
 40
2.5
  0
CIRCLE
  5
15875
330
15823
100
AcDbEntity
  8
0
100
AcDbCircle
 10
-29.49999999999996
 20
362.5
 30
0.0
 40
2.5
  0
CIRCLE
  5
15876
330
15823
100
AcDbEntity
  8
0
100
AcDbCircle
 10
-29.49999999999996
 20
382.5
 30
0.0
 40
2.5
  0
CIRCLE
  5
15877
330
15823
100
AcDbEntity
  8
0
100
AcDbCircle
 10
-29.49999999999996
 20
402.5
 30
0.0
 40
2.5
  0
CIRCLE
  5
15878
330
15823
100
AcDbEntity
  8
0
100
AcDbCircle
 10
29.49999999999986
 20
402.5
 30
0.0
 40
2.5
  0
CIRCLE
  5
15879
330
15823
100
AcDbEntity
  8
0
100
AcDbCircle
 10
29.49999999999986
 20
382.5000000000001
 30
0.0
 40
2.5
  0
CIRCLE
  5
1587A
330
15823
100
AcDbEntity
  8
0
100
AcDbCircle
 10
29.49999999999986
 20
362.5
 30
0.0
 40
2.5
  0
CIRCLE
  5
1587B
330
15823
100
AcDbEntity
  8
0
100
AcDbCircle
 10
29.49999999999987
 20
342.5000000000001
 30
0.0
 40
2.5
  0
CIRCLE
  5
1587C
330
15823
100
AcDbEntity
  8
0
100
AcDbCircle
 10
-29.49999999999998
 20
182.5
 30
0.0
 40
2.5
  0
CIRCLE
  5
1587D
330
15823
100
AcDbEntity
  8
0
100
AcDbCircle
 10
29.4999999999999
 20
182.5
 30
0.0
 40
2.5
  0
CIRCLE
  5
1587E
330
15823
100
AcDbEntity
  8
0
100
AcDbCircle
 10
-29.49999999999996
 20
302.5000000000001
 30
0.0
 40
2.5
  0
CIRCLE
  5
1587F
330
15823
100
AcDbEntity
  8
0
100
AcDbCircle
 10
29.49999999999987
 20
302.5000000000001
 30
0.0
 40
2.5
  0
CIRCLE
  5
15880
330
15823
100
AcDbEntity
  8
0
100
AcDbCircle
 10
-29.49999999999996
 20
422.4999999999999
 30
0.0
 40
2.5
  0
CIRCLE
  5
15881
330
15823
100
AcDbEntity
  8
0
100
AcDbCircle
 10
29.49999999999985
 20
422.5
 30
0.0
 40
2.5
  0
SPLINE
  5
15882
330
15823
100
AcDbEntity
  8
0
100
AcDbSpline
210
0.0
220
0.0
230
1.0
 70
     8
 71
     3
 72
    14
 73
    10
 74
     0
 42
0.000000001
 43
0.0000000001
 40
0.0
 40
0.0
 40
0.0
 40
0.0
 40
0.1070090535641211
 40
0.1070090535641211
 40
0.2139684069807637
 40
0.2139684069807637
 40
0.3130981534815764
 40
0.3130981534815764
 40
0.4122278822943509
 40
0.4122278822943509
 40
0.4122278822943509
 40
0.4122278822943509
 10
-40.00000000000006
 20
55.70158383679149
 30
0.0
 10
-40.00000000000006
 20
55.8065854478205
 30
0.0
 10
-39.93027561464163
 20
55.91051007648838
 30
0.0
 10
-39.66003522718197
 20
56.12047002793383
 30
0.0
 10
-39.46241095478402
 20
56.22434431507691
 30
0.0
 10
-38.98457960693408
 20
56.42657257312032
 30
0.0
 10
-38.71577578939883
 20
56.52298276322081
 30
0.0
 10
-38.12874150665025
 20
56.71752798706434
 30
0.0
 10
-37.81579125708564
 20
56.81394104276868
 30
0.0
 10
-37.50000000000006
 20
56.91121114160423
 30
0.0
  0
LINE
  5
15883
330
15823
100
AcDbEntity
  8
0
100
AcDbLine
 10
-37.49999999999996
 20
469.9999999999993
 30
0.0
 11
-39.99999999999996
 21
470.0000000000001
 31
0.0
  0
LINE
  5
15884
330
15823
100
AcDbEntity
  8
0
100
AcDbLine
 10
39.99999999999992
 20
470.0000000000003
 30
0.0
 11
37.49999999999957
 21
470.0000000000009
 31
0.0
  0
SPLINE
  5
15885
330
15823
100
AcDbEntity
  8
0
100
AcDbSpline
210
0.0
220
0.0
230
1.0
 70
     8
 71
     3
 72
    14
 73
    10
 74
     0
 42
0.000000001
 43
0.0000000001
 40
0.0
 40
0.0
 40
0.0
 40
0.0
 40
0.1070090535641551
 40
0.1070090535641551
 40
0.2139684069808012
 40
0.2139684069808012
 40
0.3130981534816045
 40
0.3130981534816045
 40
0.4122278822943687
 40
0.4122278822943687
 40
0.4122278822943687
 40
0.4122278822943687
 10
37.50000000000014
 20
56.9112111416042
 30
0.0
 10
37.8408919199202
 20
56.80620953057502
 30
0.0
 10
38.17820881847091
 20
56.70228490190726
 30
0.0
 10
38.80397341344099
 20
56.49232495046174
 30
0.0
 10
39.08588842288063
 20
56.38845066331866
 30
0.0
 10
39.53611077395368
 20
56.18622240527535
 30
0.0
 10
39.70717306336677
 20
56.08981221517487
 30
0.0
 10
39.94016552388703
 20
55.89526699133137
 30
0.0
 10
40.00000000000002
 20
55.79885393562704
 30
0.0
 10
40.0
 20
55.70158383679149
 30
0.0
  0
CIRCLE
  5
15886
330
15823
100
AcDbEntity
  8
0
100
AcDbCircle
 10
29.49999999999985
 20
462.5
 30
0.0
 40
2.5
  0
CIRCLE
  5
15887
330
15823
100
AcDbEntity
  8
0
100
AcDbCircle
 10
11.49999999999984
 20
452.5
 30
0.0
 40
2.5
  0
CIRCLE
  5
15888
330
15823
100
AcDbEntity
  8
0
100
AcDbCircle
 10
24.49999999999985
 20
442.5
 30
0.0
 40
7.0
  0
CIRCLE
  5
15889
330
15823
100
AcDbEntity
  8
0
100
AcDbCircle
 10
24.49999999999985
 20
322.5
 30
0.0
 40
7.0
  0
CIRCLE
  5
1588A
330
15823
100
AcDbEntity
  8
0
100
AcDbCircle
 10
24.49999999999989
 20
202.5
 30
0.0
 40
7.0
  0
CIRCLE
  5
1588B
330
15823
100
AcDbEntity
  8
0
100
AcDbCircle
 10
24.49999999999992
 20
82.50000000000003
 30
0.0
 40
7.0
  0
CIRCLE
  5
1588C
330
15823
100
AcDbEntity
  8
0
100
AcDbCircle
 10
11.49999999999984
 20
432.5000000000001
 30
0.0
 40
2.5
  0
CIRCLE
  5
1588D
330
15823
100
AcDbEntity
  8
0
100
AcDbCircle
 10
11.49999999999984
 20
412.5
 30
0.0
 40
2.5
  0
CIRCLE
  5
1588E
330
15823
100
AcDbEntity
  8
0
100
AcDbCircle
 10
11.49999999999984
 20
392.5000000000001
 30
0.0
 40
2.5
  0
CIRCLE
  5
1588F
330
15823
100
AcDbEntity
  8
0
100
AcDbCircle
 10
11.49999999999985
 20
372.5
 30
0.0
 40
2.5
  0
CIRCLE
  5
15890
330
15823
100
AcDbEntity
  8
0
100
AcDbCircle
 10
11.49999999999985
 20
352.5000000000001
 30
0.0
 40
2.5
  0
CIRCLE
  5
15891
330
15823
100
AcDbEntity
  8
0
100
AcDbCircle
 10
11.49999999999985
 20
332.5000000000001
 30
0.0
 40
2.5
  0
CIRCLE
  5
15892
330
15823
100
AcDbEntity
  8
0
100
AcDbCircle
 10
11.49999999999985
 20
312.5
 30
0.0
 40
2.5
  0
CIRCLE
  5
15893
330
15823
100
AcDbEntity
  8
0
100
AcDbCircle
 10
11.49999999999986
 20
292.5000000000001
 30
0.0
 40
2.5
  0
CIRCLE
  5
15894
330
15823
100
AcDbEntity
  8
0
100
AcDbCircle
 10
11.49999999999986
 20
272.5
 30
0.0
 40
2.5
  0
CIRCLE
  5
15895
330
15823
100
AcDbEntity
  8
0
100
AcDbCircle
 10
11.49999999999986
 20
252.5
 30
0.0
 40
2.5
  0
CIRCLE
  5
15896
330
15823
100
AcDbEntity
  8
0
100
AcDbCircle
 10
11.49999999999986
 20
232.5
 30
0.0
 40
2.5
  0
CIRCLE
  5
15897
330
15823
100
AcDbEntity
  8
0
100
AcDbCircle
 10
11.49999999999987
 20
212.5
 30
0.0
 40
2.5
  0
CIRCLE
  5
15898
330
15823
100
AcDbEntity
  8
0
100
AcDbCircle
 10
11.49999999999987
 20
192.5
 30
0.0
 40
2.5
  0
CIRCLE
  5
15899
330
15823
100
AcDbEntity
  8
0
100
AcDbCircle
 10
11.49999999999987
 20
172.5
 30
0.0
 40
2.5
  0
CIRCLE
  5
1589A
330
15823
100
AcDbEntity
  8
0
100
AcDbCircle
 10
11.49999999999987
 20
152.5
 30
0.0
 40
2.5
  0
CIRCLE
  5
1589B
330
15823
100
AcDbEntity
  8
0
100
AcDbCircle
 10
11.49999999999988
 20
132.5
 30
0.0
 40
2.5
  0
CIRCLE
  5
1589C
330
15823
100
AcDbEntity
  8
0
100
AcDbCircle
 10
11.49999999999988
 20
112.5
 30
0.0
 40
2.5
  0
CIRCLE
  5
1589D
330
15823
100
AcDbEntity
  8
0
100
AcDbCircle
 10
11.49999999999988
 20
92.50000000000003
 30
0.0
 40
2.5
  0
ENDBLK
  5
15825
330
15823
100
AcDbEntity
  8
0
100
AcDbBlockEnd
  0
BLOCK
  5
1589F
330
1589E
100
AcDbEntity
  8
0
100
AcDbBlockBegin
  2
GLI1020_80_25-Left
 70
     0
 10
0.0
 20
0.0
 30
0.0
  3
GLI1020_80_25-Left
  1

  0
LINE
  5
158A1
330
1589E
100
AcDbEntity
  8
0
100
AcDbLine
 10
97.9
 20
-2.499999999999988
 30
0.0
 11
7.900000000000009
 21
-2.499999999999999
 31
0.0
  0
LINE
  5
158A2
330
1589E
100
AcDbEntity
  8
0
100
AcDbLine
 10
97.90000000000006
 20
2.500000000000012
 30
0.0
 11
97.90000000000006
 21
-2.499999999999987
 31
0.0
  0
LINE
  5
158A3
330
1589E
100
AcDbEntity
  8
0
100
AcDbLine
 10
7.900000000000013
 20
-2.499999999999999
 30
0.0
 11
7.900000000000032
 21
2.5
 31
0.0
  0
LINE
  5
158A4
330
1589E
100
AcDbEntity
  8
0
100
AcDbLine
 10
0.0
 20
56.9112111416042
 30
0.0
 11
0.0
 21
470.0
 31
0.0
  0
SPLINE
  5
158A5
330
1589E
100
AcDbEntity
  8
0
100
AcDbSpline
210
0.0
220
0.0
230
1.0
 70
     8
 71
     3
 72
    16
 73
    12
 74
     0
 42
0.000000001
 43
0.0000000001
 40
0.0
 40
0.0
 40
0.0
 40
0.0
 40
0.0997954053741139
 40
0.0997954053741139
 40
0.2997758180156566
 40
0.2997758180156566
 40
0.4997459514243822
 40
0.4997459514243822
 40
0.6481494969502748
 40
0.6481494969502748
 40
0.79655238454977
 40
0.79655238454977
 40
0.79655238454977
 40
0.79655238454977
 10
-0.0000000000000583
 20
56.91121114160423
 30
0.0
 10
-0.0000000000000576
 20
56.86057615974661
 30
0.0
 10
0.0324279070128235
 20
56.81006185802103
 30
0.0
 10
0.2258329380015757
 20
56.65795543711801
 30
0.0
 10
0.4812872753536614
 20
56.55746379512649
 30
0.0
 10
1.215609399415556
 20
56.35452924895426
 30
0.0
 10
1.687277163717185
 20
56.25404249833142
 30
0.0
 10
2.643726670446011
 20
56.07727796831401
 30
0.0
 10
3.088607590385074
 20
56.00238010780069
 30
0.0
 10
4.024809312212745
 20
55.85178100243464
 30
0.0
 10
4.511088078452413
 20
55.7768816667589
 30
0.0
 10
4.999999999999944
 20
55.70158383679151
 30
0.0
  0
LINE
  5
158A6
330
1589E
100
AcDbEntity
  8
0
100
AcDbLine
 10
0.0
 20
469.9999999999984
 30
0.0
 11
4.999999999999873
 21
470.0000000000002
 31
0.0
  0
LINE
  5
158A7
330
1589E
100
AcDbEntity
  8
0
100
AcDbLine
 10
56.50000000000003
 20
69.00000000000003
 30
0.0
 11
56.50000000000002
 21
470.0
 31
0.0
  0
LINE
  5
158A8
330
1589E
100
AcDbEntity
  8
0
100
AcDbLine
 10
77.79633244955573
 20
55.17
 30
0.0
 11
56.50000000000003
 21
69.00000000000003
 31
0.0
  0
LINE
  5
158A9
330
1589E
100
AcDbEntity
  8
0
100
AcDbLine
 10
97.9
 20
50.30641096082086
 30
0.0
 11
77.79633244955573
 21
55.17
 31
0.0
  0
LINE
  5
158AA
330
1589E
100
AcDbEntity
  8
0
100
AcDbLine
 10
56.50000000000002
 20
470.0
 30
0.0
 11
4.999999999999866
 21
470.0
 31
0.0
  0
LINE
  5
158AB
330
1589E
100
AcDbEntity
  8
0
100
AcDbLine
 10
4.999999999999941
 20
55.70158383679146
 30
0.0
 11
7.900000000000016
 21
55.00000000000003
 31
0.0
  0
CIRCLE
  5
158AC
330
1589E
100
AcDbEntity
  8
0
100
AcDbCircle
 10
48.50000000000002
 20
462.5
 30
0.0
 40
2.5
  0
CIRCLE
  5
158AD
330
1589E
100
AcDbEntity
  8
0
100
AcDbCircle
 10
48.50000000000002
 20
442.4999999999999
 30
0.0
 40
2.5
  0
CIRCLE
  5
158AE
330
1589E
100
AcDbEntity
  8
0
100
AcDbCircle
 10
48.50000000000002
 20
422.4999999999999
 30
0.0
 40
2.5
  0
CIRCLE
  5
158AF
330
1589E
100
AcDbEntity
  8
0
100
AcDbCircle
 10
48.50000000000002
 20
402.5
 30
0.0
 40
2.5
  0
CIRCLE
  5
158B0
330
1589E
100
AcDbEntity
  8
0
100
AcDbCircle
 10
48.50000000000003
 20
382.5
 30
0.0
 40
2.5
  0
CIRCLE
  5
158B1
330
1589E
100
AcDbEntity
  8
0
100
AcDbCircle
 10
48.50000000000002
 20
362.5
 30
0.0
 40
2.5
  0
CIRCLE
  5
158B2
330
1589E
100
AcDbEntity
  8
0
100
AcDbCircle
 10
48.50000000000002
 20
342.5
 30
0.0
 40
2.5
  0
CIRCLE
  5
158B3
330
1589E
100
AcDbEntity
  8
0
100
AcDbCircle
 10
48.50000000000003
 20
322.5
 30
0.0
 40
2.5
  0
CIRCLE
  5
158B4
330
1589E
100
AcDbEntity
  8
0
100
AcDbCircle
 10
48.50000000000003
 20
302.5000000000001
 30
0.0
 40
2.5
  0
CIRCLE
  5
158B5
330
1589E
100
AcDbEntity
  8
0
100
AcDbCircle
 10
48.50000000000003
 20
282.5000000000001
 30
0.0
 40
2.5
  0
CIRCLE
  5
158B6
330
1589E
100
AcDbEntity
  8
0
100
AcDbCircle
 10
48.50000000000003
 20
262.5
 30
0.0
 40
2.5
  0
CIRCLE
  5
158B7
330
1589E
100
AcDbEntity
  8
0
100
AcDbCircle
 10
48.50000000000004
 20
242.5000000000001
 30
0.0
 40
2.5
  0
CIRCLE
  5
158B8
330
1589E
100
AcDbEntity
  8
0
100
AcDbCircle
 10
48.50000000000003
 20
222.5
 30
0.0
 40
2.5
  0
CIRCLE
  5
158B9
330
1589E
100
AcDbEntity
  8
0
100
AcDbCircle
 10
48.50000000000003
 20
202.5000000000001
 30
0.0
 40
2.5
  0
CIRCLE
  5
158BA
330
1589E
100
AcDbEntity
  8
0
100
AcDbCircle
 10
48.50000000000003
 20
182.5
 30
0.0
 40
2.5
  0
CIRCLE
  5
158BB
330
1589E
100
AcDbEntity
  8
0
100
AcDbCircle
 10
48.50000000000004
 20
162.5
 30
0.0
 40
2.5
  0
CIRCLE
  5
158BC
330
1589E
100
AcDbEntity
  8
0
100
AcDbCircle
 10
48.50000000000004
 20
142.5
 30
0.0
 40
2.5
  0
CIRCLE
  5
158BD
330
1589E
100
AcDbEntity
  8
0
100
AcDbCircle
 10
48.50000000000004
 20
122.5000000000001
 30
0.0
 40
2.5
  0
CIRCLE
  5
158BE
330
1589E
100
AcDbEntity
  8
0
100
AcDbCircle
 10
48.50000000000004
 20
102.5000000000001
 30
0.0
 40
2.5
  0
CIRCLE
  5
158BF
330
1589E
100
AcDbEntity
  8
0
100
AcDbCircle
 10
48.50000000000004
 20
82.50000000000012
 30
0.0
 40
2.5
  0
CIRCLE
  5
158C0
330
1589E
100
AcDbEntity
  8
0
100
AcDbCircle
 10
48.50000000000004
 20
62.50000000000011
 30
0.0
 40
2.5
  0
LINE
  5
158C1
330
1589E
100
AcDbEntity
  8
0
100
AcDbLine
 10
97.9
 20
50.30641096082086
 30
0.0
 11
97.9
 21
2.5
 31
0.0
  0
LINE
  5
158C2
330
1589E
100
AcDbEntity
  8
0
100
AcDbLine
 10
7.900000000000016
 20
55.00000000000003
 30
0.0
 11
7.900000000000016
 21
2.499999999999991
 31
0.0
  0
ENDBLK
  5
158A0
330
1589E
100
AcDbEntity
  8
0
100
AcDbBlockEnd
  0
BLOCK
  5
158C4
330
158C3
100
AcDbEntity
  8
0
100
AcDbBlockBegin
  2
GLI1020_80_25-Right
 70
     0
 10
0.0
 20
0.0
 30
0.0
  3
GLI1020_80_25-Right
  1

  0
LINE
  5
158C6
330
158C3
100
AcDbEntity
  8
0
100
AcDbLine
 10
-7.89999999999985
 20
2.500000000000022
 30
0.0
 11
-7.899999999999975
 21
-2.499999999999999
 31
0.0
  0
LINE
  5
158C7
330
158C3
100
AcDbEntity
  8
0
100
AcDbLine
 10
-97.89999999999999
 20
-2.499999999999987
 30
0.0
 11
-97.90000000000029
 21
2.500000000000071
 31
0.0
  0
LINE
  5
158C8
330
158C3
100
AcDbEntity
  8
0
100
AcDbLine
 10
-7.89999999999997
 20
-2.499999999999999
 30
0.0
 11
-97.89999999999999
 21
-2.499999999999988
 31
0.0
  0
LINE
  5
158C9
330
158C3
100
AcDbEntity
  8
0
100
AcDbLine
 10
0.0
 20
470.0000000000001
 30
0.0
 11
0.0
 21
56.91121114160416
 31
0.0
  0
LINE
  5
158CA
330
158C3
100
AcDbEntity
  8
0
100
AcDbLine
 10
-5.00000000000014
 20
470.0000000000002
 30
0.0
 11
0.0
 21
470.0000000000016
 31
0.0
  0
SPLINE
  5
158CB
330
158C3
100
AcDbEntity
  8
0
100
AcDbSpline
210
0.0
220
0.0
230
1.0
 70
     8
 71
     3
 72
    16
 73
    12
 74
     0
 42
0.000000001
 43
0.0000000001
 40
0.0
 40
0.0
 40
0.0
 40
0.0
 40
0.0997954053741001
 40
0.0997954053741001
 40
0.299775818015632
 40
0.299775818015632
 40
0.4997459514243405
 40
0.4997459514243405
 40
0.6481494969502159
 40
0.6481494969502159
 40
0.7965523845496917
 40
0.7965523845496917
 40
0.7965523845496917
 40
0.7965523845496917
 10
-4.999999999999853
 20
55.70158383679151
 30
0.0
 10
-4.671224970384242
 20
55.75221881864901
 30
0.0
 10
-4.343250124174986
 20
55.80273312037475
 30
0.0
 10
-3.374764605751202
 20
55.95483954127786
 30
0.0
 10
-2.760514212757274
 20
56.05533118326931
 30
0.0
 10
-1.666472672984572
 20
56.25826572944148
 30
0.0
 10
-1.1973845759434
 20
56.35875248006435
 30
0.0
 10
-0.5629950703090615
 20
56.53551701008172
 30
0.0
 10
-0.3539677332176556
 20
56.61041487059506
 30
0.0
 10
-0.0717104619856127
 20
56.761013975961
 30
0.0
 10
0.0000000000002678
 20
56.8359133116369
 30
0.0
 10
0.0000000000002902
 20
56.9112111416042
 30
0.0
  0
LINE
  5
158CC
330
158C3
100
AcDbEntity
  8
0
100
AcDbLine
 10
-56.50000000000002
 20
69.00000000000002
 30
0.0
 11
-56.50000000000016
 21
470.0000000000001
 31
0.0
  0
LINE
  5
158CD
330
158C3
100
AcDbEntity
  8
0
100
AcDbLine
 10
-77.7963324495557
 20
55.16999999999996
 30
0.0
 11
-56.50000000000002
 21
69.00000000000002
 31
0.0
  0
LINE
  5
158CE
330
158C3
100
AcDbEntity
  8
0
100
AcDbLine
 10
-97.89999999999999
 20
50.30641096082082
 30
0.0
 11
-77.7963324495557
 21
55.16999999999996
 31
0.0
  0
LINE
  5
158CF
330
158C3
100
AcDbEntity
  8
0
100
AcDbLine
 10
-56.50000000000016
 20
470.0000000000001
 30
0.0
 11
-5.000000000000142
 21
470.0000000000001
 31
0.0
  0
LINE
  5
158D0
330
158C3
100
AcDbEntity
  8
0
100
AcDbLine
 10
-5.000000000000007
 20
55.70158383679144
 30
0.0
 11
-7.899999999999996
 21
55.00000000000003
 31
0.0
  0
LINE
  5
158D1
330
158C3
100
AcDbEntity
  8
0
100
AcDbLine
 10
-7.899999999999964
 20
2.500000000000005
 30
0.0
 11
-7.899999999999996
 21
55.00000000000003
 31
0.0
  0
LINE
  5
158D2
330
158C3
100
AcDbEntity
  8
0
100
AcDbLine
 10
-97.89999999999999
 20
2.500000000000007
 30
0.0
 11
-97.89999999999999
 21
50.30641096082082
 31
0.0
  0
CIRCLE
  5
158D3
330
158C3
100
AcDbEntity
  8
0
100
AcDbCircle
 10
-48.50000000000016
 20
452.5
 30
0.0
 40
2.5
  0
CIRCLE
  5
158D4
330
158C3
100
AcDbEntity
  8
0
100
AcDbCircle
 10
-48.50000000000015
 20
432.5000000000001
 30
0.0
 40
2.5
  0
CIRCLE
  5
158D5
330
158C3
100
AcDbEntity
  8
0
100
AcDbCircle
 10
-48.50000000000015
 20
412.5
 30
0.0
 40
2.5
  0
CIRCLE
  5
158D6
330
158C3
100
AcDbEntity
  8
0
100
AcDbCircle
 10
-48.50000000000015
 20
392.5000000000001
 30
0.0
 40
2.5
  0
CIRCLE
  5
158D7
330
158C3
100
AcDbEntity
  8
0
100
AcDbCircle
 10
-48.50000000000014
 20
372.5
 30
0.0
 40
2.5
  0
CIRCLE
  5
158D8
330
158C3
100
AcDbEntity
  8
0
100
AcDbCircle
 10
-48.50000000000012
 20
352.5000000000001
 30
0.0
 40
2.5
  0
CIRCLE
  5
158D9
330
158C3
100
AcDbEntity
  8
0
100
AcDbCircle
 10
-48.50000000000012
 20
332.5000000000001
 30
0.0
 40
2.5
  0
CIRCLE
  5
158DA
330
158C3
100
AcDbEntity
  8
0
100
AcDbCircle
 10
-48.50000000000012
 20
312.5
 30
0.0
 40
2.5
  0
CIRCLE
  5
158DB
330
158C3
100
AcDbEntity
  8
0
100
AcDbCircle
 10
-48.50000000000012
 20
292.5000000000001
 30
0.0
 40
2.5
  0
CIRCLE
  5
158DC
330
158C3
100
AcDbEntity
  8
0
100
AcDbCircle
 10
-48.5000000000001
 20
272.5
 30
0.0
 40
2.5
  0
CIRCLE
  5
158DD
330
158C3
100
AcDbEntity
  8
0
100
AcDbCircle
 10
-48.5000000000001
 20
252.5
 30
0.0
 40
2.5
  0
CIRCLE
  5
158DE
330
158C3
100
AcDbEntity
  8
0
100
AcDbCircle
 10
-48.50000000000009
 20
232.5
 30
0.0
 40
2.5
  0
CIRCLE
  5
158DF
330
158C3
100
AcDbEntity
  8
0
100
AcDbCircle
 10
-48.50000000000008
 20
212.5
 30
0.0
 40
2.5
  0
CIRCLE
  5
158E0
330
158C3
100
AcDbEntity
  8
0
100
AcDbCircle
 10
-48.50000000000007
 20
192.5
 30
0.0
 40
2.5
  0
CIRCLE
  5
158E1
330
158C3
100
AcDbEntity
  8
0
100
AcDbCircle
 10
-48.50000000000007
 20
172.5
 30
0.0
 40
2.5
  0
CIRCLE
  5
158E2
330
158C3
100
AcDbEntity
  8
0
100
AcDbCircle
 10
-48.50000000000007
 20
152.5
 30
0.0
 40
2.5
  0
CIRCLE
  5
158E3
330
158C3
100
AcDbEntity
  8
0
100
AcDbCircle
 10
-48.50000000000005
 20
132.5
 30
0.0
 40
2.5
  0
CIRCLE
  5
158E4
330
158C3
100
AcDbEntity
  8
0
100
AcDbCircle
 10
-48.50000000000004
 20
112.5000000000001
 30
0.0
 40
2.5
  0
CIRCLE
  5
158E5
330
158C3
100
AcDbEntity
  8
0
100
AcDbCircle
 10
-48.50000000000004
 20
92.50000000000008
 30
0.0
 40
2.5
  0
CIRCLE
  5
158E6
330
158C3
100
AcDbEntity
  8
0
100
AcDbCircle
 10
-48.50000000000003
 20
72.5000000000001
 30
0.0
 40
2.5
  0
ENDBLK
  5
158C5
330
158C3
100
AcDbEntity
  8
0
100
AcDbBlockEnd
  0
BLOCK
  5
158E8
330
158E7
100
AcDbEntity
  8
0
100
AcDbBlockBegin
  2
GLI1020_80_25-Top
 70
     0
 10
0.0
 20
0.0
 30
0.0
  3
GLI1020_80_25-Top
  1

  0
LINE
  5
158EA
330
158E7
100
AcDbEntity
  8
0
100
AcDbLine
 10
40.00000000000002
 20
-7.899999999999912
 30
0.0
 11
37.50000000000006
 21
-7.899999999999973
 31
0.0
  0
LINE
  5
158EB
330
158E7
100
AcDbEntity
  8
0
100
AcDbLine
 10
37.5000000000001
 20
-97.89999999999999
 30
0.0
 11
40.0000000000001
 21
-97.90000000000013
 31
0.0
  0
LINE
  5
158EC
330
158E7
100
AcDbEntity
  8
0
100
AcDbLine
 10
37.50000000000003
 20
-7.89999999999997
 30
0.0
 11
-37.50000000000008
 21
-7.900000000000012
 31
0.0
  0
LINE
  5
158ED
330
158E7
100
AcDbEntity
  8
0
100
AcDbLine
 10
-37.50000000000003
 20
-97.9
 30
0.0
 11
37.5000000000001
 21
-97.89999999999999
 31
0.0
  0
LINE
  5
158EE
330
158E7
100
AcDbEntity
  8
0
100
AcDbLine
 10
37.49999999999992
 20
0.0
 30
0.0
 11
3.999999999999834
 21
0.0
 31
0.0
  0
LINE
  5
158EF
330
158E7
100
AcDbEntity
  8
0
100
AcDbLine
 10
3.999999999999836
 20
-2.500000000000178
 30
0.0
 11
3.999999999999835
 21
0.0
 31
0.0
  0
LINE
  5
158F0
330
158E7
100
AcDbEntity
  8
0
100
AcDbLine
 10
37.49999999999992
 20
-2.500000000000142
 30
0.0
 11
3.999999999999834
 21
-2.500000000000178
 31
0.0
  0
LINE
  5
158F1
330
158E7
100
AcDbEntity
  8
0
100
AcDbLine
 10
39.99999999999996
 20
-56.50000000000016
 30
0.0
 11
42.49999999999996
 21
-56.50000000000016
 31
0.0
  0
LINE
  5
158F2
330
158E7
100
AcDbEntity
  8
0
100
AcDbLine
 10
42.50000000000007
 20
-77.7963324495557
 30
0.0
 11
42.50000000000006
 21
-56.50000000000002
 31
0.0
  0
LINE
  5
158F3
330
158E7
100
AcDbEntity
  8
0
100
AcDbLine
 10
40.00000000000007
 20
-77.7963324495557
 30
0.0
 11
40.00000000000006
 21
-56.50000000000002
 31
0.0
  0
LINE
  5
158F4
330
158E7
100
AcDbEntity
  8
0
100
AcDbLine
 10
40.00000000000007
 20
-77.7963324495557
 30
0.0
 11
42.50000000000007
 21
-77.7963324495557
 31
0.0
  0
LINE
  5
158F5
330
158E7
100
AcDbEntity
  8
0
100
AcDbLine
 10
42.50000000000008
 20
-97.89999999999999
 30
0.0
 11
42.50000000000007
 21
-77.7963324495557
 31
0.0
  0
LINE
  5
158F6
330
158E7
100
AcDbEntity
  8
0
100
AcDbLine
 10
40.00000000000008
 20
-97.89999999999999
 30
0.0
 11
40.00000000000007
 21
-77.7963324495557
 31
0.0
  0
LINE
  5
158F7
330
158E7
100
AcDbEntity
  8
0
100
AcDbLine
 10
40.00000000000008
 20
-97.89999999999999
 30
0.0
 11
42.50000000000008
 21
-97.89999999999999
 31
0.0
  0
LINE
  5
158F8
330
158E7
100
AcDbEntity
  8
0
100
AcDbLine
 10
39.99999999999996
 20
-56.50000000000016
 30
0.0
 11
39.99999999999992
 21
-5.000000000000142
 31
0.0
  0
LINE
  5
158F9
330
158E7
100
AcDbEntity
  8
0
100
AcDbLine
 10
42.49999999999996
 20
-56.50000000000016
 30
0.0
 11
42.49999999999992
 21
-5.000000000000142
 31
0.0
  0
LINE
  5
158FA
330
158E7
100
AcDbEntity
  8
0
100
AcDbLine
 10
-40.00000000000003
 20
-97.90000000000006
 30
0.0
 11
-37.50000000000007
 21
-97.89999999999999
 31
0.0
  0
LINE
  5
158FB
330
158E7
100
AcDbEntity
  8
0
100
AcDbLine
 10
-37.50000000000007
 20
-7.900000000000026
 30
0.0
 11
-40.00000000000007
 21
-7.900000000000028
 31
0.0
  0
CIRCLE
  5
158FC
330
158E7
100
AcDbEntity
  8
0
100
AcDbCircle
 10
-0.0000000000000146
 20
-37.90000000000003
 30
0.0
 40
2.5
  0
CIRCLE
  5
158FD
330
158E7
100
AcDbEntity
  8
0
100
AcDbCircle
 10
0.0000000000000084
 20
-77.90000000000003
 30
0.0
 40
2.5
  0
LINE
  5
158FE
330
158E7
100
AcDbEntity
  8
0
100
AcDbLine
 10
-37.4999999999999
 20
0.0
 30
0.0
 11
-3.99999999999995
 21
0.0
 31
0.0
  0
LINE
  5
158FF
330
158E7
100
AcDbEntity
  8
0
100
AcDbLine
 10
-37.4999999999999
 20
-2.499999999999932
 30
0.0
 11
-3.99999999999995
 21
-2.499999999999925
 31
0.0
  0
LINE
  5
15900
330
158E7
100
AcDbEntity
  8
0
100
AcDbLine
 10
-3.999999999999948
 20
-2.499999999999925
 30
0.0
 11
-3.999999999999949
 21
0.0
 31
0.0
  0
LINE
  5
15901
330
158E7
100
AcDbEntity
  8
0
100
AcDbLine
 10
-39.99999999999995
 20
-56.50000000000002
 30
0.0
 11
-42.49999999999993
 21
-56.50000000000002
 31
0.0
  0
LINE
  5
15902
330
158E7
100
AcDbEntity
  8
0
100
AcDbLine
 10
-42.50000000000002
 20
-77.79633244955573
 30
0.0
 11
-42.50000000000002
 21
-56.50000000000003
 31
0.0
  0
LINE
  5
15903
330
158E7
100
AcDbEntity
  8
0
100
AcDbLine
 10
-40.00000000000002
 20
-77.79633244955573
 30
0.0
 11
-42.50000000000002
 21
-77.79633244955573
 31
0.0
  0
LINE
  5
15904
330
158E7
100
AcDbEntity
  8
0
100
AcDbLine
 10
-40.00000000000002
 20
-77.79633244955573
 30
0.0
 11
-40.00000000000002
 21
-56.50000000000003
 31
0.0
  0
LINE
  5
15905
330
158E7
100
AcDbEntity
  8
0
100
AcDbLine
 10
-42.50000000000001
 20
-97.9
 30
0.0
 11
-42.50000000000002
 21
-77.79633244955573
 31
0.0
  0
LINE
  5
15906
330
158E7
100
AcDbEntity
  8
0
100
AcDbLine
 10
-40.00000000000001
 20
-97.9
 30
0.0
 11
-42.50000000000001
 21
-97.9
 31
0.0
  0
LINE
  5
15907
330
158E7
100
AcDbEntity
  8
0
100
AcDbLine
 10
-40.00000000000001
 20
-97.9
 30
0.0
 11
-40.00000000000002
 21
-77.79633244955573
 31
0.0
  0
LINE
  5
15908
330
158E7
100
AcDbEntity
  8
0
100
AcDbLine
 10
-42.49999999999993
 20
-56.50000000000002
 30
0.0
 11
-42.49999999999996
 21
-4.999999999999866
 31
0.0
  0
LINE
  5
15909
330
158E7
100
AcDbEntity
  8
0
100
AcDbLine
 10
-39.99999999999995
 20
-56.50000000000002
 30
0.0
 11
-39.99999999999997
 21
-4.999999999999866
 31
0.0
  0
ARC
  5
1590A
330
158E7
100
AcDbEntity
  8
0
100
AcDbCircle
 10
-37.49999999999996
 20
-4.999999999999867
 30
0.0
 40
5.0
100
AcDbArc
 50
90.0
 51
180.0
  0
ARC
  5
1590B
330
158E7
100
AcDbEntity
  8
0
100
AcDbCircle
 10
-37.49999999999996
 20
-4.999999999999867
 30
0.0
 40
2.5
100
AcDbArc
 50
89.99999999999991
 51
180.0
  0
ARC
  5
1590C
330
158E7
100
AcDbEntity
  8
0
100
AcDbCircle
 10
37.49999999999992
 20
-4.999999999999845
 30
0.0
 40
5.0
100
AcDbArc
 50
0.0
 51
90.00000000000255
  0
ARC
  5
1590D
330
158E7
100
AcDbEntity
  8
0
100
AcDbCircle
 10
37.49999999999992
 20
-4.999999999999845
 30
0.0
 40
2.5
100
AcDbArc
 50
0.0
 51
90.00000000000783
  0
ENDBLK
  5
158E9
330
158E7
100
AcDbEntity
  8
0
100
AcDbBlockEnd
  0
BLOCK
  5
1590F
330
1590E
100
AcDbEntity
  8
0
100
AcDbBlockBegin
  2
GLI1020_80_25-Bottom
 70
     0
 10
0.0
 20
0.0
 30
0.0
  3
GLI1020_80_25-Bottom
  1

  0
LINE
  5
15911
330
1590E
100
AcDbEntity
  8
0
100
AcDbLine
 10
42.50000000000002
 20
7.89999999999985
 30
0.0
 11
37.50000000000006
 21
7.899999999999975
 31
0.0
  0
LINE
  5
15912
330
1590E
100
AcDbEntity
  8
0
100
AcDbLine
 10
37.5000000000001
 20
97.89999999999999
 30
0.0
 11
42.5000000000001
 21
97.90000000000029
 31
0.0
  0
LINE
  5
15913
330
1590E
100
AcDbEntity
  8
0
100
AcDbLine
 10
42.50000000000009
 20
97.89999999999999
 30
0.0
 11
42.50000000000001
 21
7.899999999999973
 31
0.0
  0
LINE
  5
15914
330
1590E
100
AcDbEntity
  8
0
100
AcDbLine
 10
-37.50000000000008
 20
7.900000000000012
 30
0.0
 11
37.50000000000003
 21
7.89999999999997
 31
0.0
  0
LINE
  5
15915
330
1590E
100
AcDbEntity
  8
0
100
AcDbLine
 10
-37.50000000000003
 20
97.9
 30
0.0
 11
37.5000000000001
 21
97.89999999999999
 31
0.0
  0
LINE
  5
15916
330
1590E
100
AcDbEntity
  8
0
100
AcDbLine
 10
21.5910136408024
 20
2.500000000000025
 30
0.0
 11
37.50000000000001
 21
2.500000000000006
 31
0.0
  0
LINE
  5
15917
330
1590E
100
AcDbEntity
  8
0
100
AcDbLine
 10
21.5910136408024
 20
2.500000000000025
 30
0.0
 11
21.5910136408024
 21
0.0
 31
0.0
  0
LINE
  5
15918
330
1590E
100
AcDbEntity
  8
0
100
AcDbLine
 10
21.5910136408024
 20
0.0
 30
0.0
 11
37.50000000000001
 21
0.0
 31
0.0
  0
LINE
  5
15919
330
1590E
100
AcDbEntity
  8
0
100
AcDbLine
 10
3.999999999999885
 20
2.500000000000047
 30
0.0
 11
21.5910136408024
 21
2.500000000000025
 31
0.0
  0
LINE
  5
1591A
330
1590E
100
AcDbEntity
  8
0
100
AcDbLine
 10
3.999999999999879
 20
0.0
 30
0.0
 11
21.5910136408024
 21
0.0
 31
0.0
  0
LINE
  5
1591B
330
1590E
100
AcDbEntity
  8
0
100
AcDbLine
 10
3.999999999999885
 20
2.500000000000047
 30
0.0
 11
3.999999999999879
 21
0.0
 31
0.0
  0
LINE
  5
1591C
330
1590E
100
AcDbEntity
  8
0
100
AcDbLine
 10
42.5
 20
5.000000000000007
 30
0.0
 11
42.5
 21
7.899999999999996
 31
0.0
  0
LINE
  5
1591D
330
1590E
100
AcDbEntity
  8
0
100
AcDbLine
 10
40.0
 20
5.000000000000008
 30
0.0
 11
40.0
 21
7.899999999999999
 31
0.0
  0
CIRCLE
  5
1591E
330
1590E
100
AcDbEntity
  8
0
100
AcDbCircle
 10
-0.0000000000000146
 20
37.90000000000003
 30
0.0
 40
2.5
  0
CIRCLE
  5
1591F
330
1590E
100
AcDbEntity
  8
0
100
AcDbCircle
 10
0.0000000000000084
 20
77.90000000000003
 30
0.0
 40
2.5
  0
LINE
  5
15920
330
1590E
100
AcDbEntity
  8
0
100
AcDbLine
 10
-42.50000000000003
 20
97.90000000000006
 30
0.0
 11
-37.50000000000006
 21
97.90000000000006
 31
0.0
  0
LINE
  5
15921
330
1590E
100
AcDbEntity
  8
0
100
AcDbLine
 10
-37.50000000000007
 20
7.900000000000013
 30
0.0
 11
-42.50000000000007
 21
7.900000000000032
 31
0.0
  0
LINE
  5
15922
330
1590E
100
AcDbEntity
  8
0
100
AcDbLine
 10
-42.50000000000007
 20
7.900000000000016
 30
0.0
 11
-42.50000000000002
 21
97.9
 31
0.0
  0
LINE
  5
15923
330
1590E
100
AcDbEntity
  8
0
100
AcDbLine
 10
-3.999999999999941
 20
0.0
 30
0.0
 11
-21.59101364080246
 21
0.0
 31
0.0
  0
LINE
  5
15924
330
1590E
100
AcDbEntity
  8
0
100
AcDbLine
 10
-21.59101364080246
 20
0.0
 30
0.0
 11
-37.5
 21
0.0
 31
0.0
  0
LINE
  5
15925
330
1590E
100
AcDbEntity
  8
0
100
AcDbLine
 10
-3.999999999999939
 20
2.499999999999997
 30
0.0
 11
-3.999999999999941
 21
0.0
 31
0.0
  0
LINE
  5
15926
330
1590E
100
AcDbEntity
  8
0
100
AcDbLine
 10
-3.999999999999939
 20
2.499999999999997
 30
0.0
 11
-21.59101364080246
 21
2.500000000000003
 31
0.0
  0
LINE
  5
15927
330
1590E
100
AcDbEntity
  8
0
100
AcDbLine
 10
-21.59101364080246
 20
2.500000000000003
 30
0.0
 11
-21.59101364080246
 21
0.0
 31
0.0
  0
LINE
  5
15928
330
1590E
100
AcDbEntity
  8
0
100
AcDbLine
 10
-21.59101364080246
 20
2.500000000000003
 30
0.0
 11
-37.5
 21
2.500000000000007
 31
0.0
  0
LINE
  5
15929
330
1590E
100
AcDbEntity
  8
0
100
AcDbLine
 10
-40.00000000000006
 20
4.999999999999939
 30
0.0
 11
-40.00000000000006
 21
7.900000000000014
 31
0.0
  0
LINE
  5
1592A
330
1590E
100
AcDbEntity
  8
0
100
AcDbLine
 10
-42.50000000000006
 20
4.999999999999941
 30
0.0
 11
-42.50000000000006
 21
7.900000000000016
 31
0.0
  0
LINE
  5
1592B
330
1590E
100
AcDbEntity
  8
0
100
AcDbLine
 10
-37.5
 20
2.500000000000007
 30
0.0
 11
-37.5
 21
1.816976330571354
 31
0.0
  0
LINE
  5
1592C
330
1590E
100
AcDbEntity
  8
0
100
AcDbLine
 10
-37.5
 20
1.816976330571354
 30
0.0
 11
-37.5
 21
0.0
 31
0.0
  0
LINE
  5
1592D
330
1590E
100
AcDbEntity
  8
0
100
AcDbLine
 10
-42.50000000000006
 20
4.999999999999941
 30
0.0
 11
-40.68302366942678
 21
4.99999999999994
 31
0.0
  0
LINE
  5
1592E
330
1590E
100
AcDbEntity
  8
0
100
AcDbLine
 10
-40.68302366942678
 20
4.99999999999994
 30
0.0
 11
-40.00000000000006
 21
4.999999999999939
 31
0.0
  0
SPLINE
  5
1592F
330
1590E
100
AcDbEntity
  8
0
100
AcDbSpline
210
0.0
220
0.0
230
1.0
 70
     8
 71
     3
 72
    16
 73
    12
 74
     0
 42
0.000000001
 43
0.0000000001
 40
0.0
 40
0.0
 40
0.0
 40
0.0
 40
0.0997954053741139
 40
0.0997954053741139
 40
0.2997758180156566
 40
0.2997758180156566
 40
0.4997459514243822
 40
0.4997459514243822
 40
0.6481494969502748
 40
0.6481494969502748
 40
0.79655238454977
 40
0.79655238454977
 40
0.79655238454977
 40
0.79655238454977
 10
-37.50000000000006
 20
-0.0000000000000583
 30
0.0
 10
-37.8287750296157
 20
-0.0000000000000576
 30
0.0
 10
-38.15674987582497
 20
0.0324279070128235
 30
0.0
 10
-39.12523539424876
 20
0.2258329380015757
 30
0.0
 10
-39.73948578724267
 20
0.4812872753536614
 30
0.0
 10
-40.83352732701533
 20
1.215609399415556
 30
0.0
 10
-41.30261542405649
 20
1.687277163717185
 30
0.0
 10
-41.9370049296908
 20
2.643726670446011
 30
0.0
 10
-42.14603226678218
 20
3.088607590385074
 30
0.0
 10
-42.4282895380142
 20
4.024809312212745
 30
0.0
 10
-42.50000000000006
 20
4.511088078452413
 30
0.0
 10
-42.50000000000006
 20
4.999999999999944
 30
0.0
  0
SPLINE
  5
15930
330
1590E
100
AcDbEntity
  8
0
100
AcDbSpline
210
0.0
220
0.0
230
1.0
 70
     8
 71
     3
 72
    14
 73
    10
 74
     0
 42
0.000000001
 43
0.0000000001
 40
0.0
 40
0.0
 40
0.0
 40
0.0
 40
0.1070090535641211
 40
0.1070090535641211
 40
0.2139684069807637
 40
0.2139684069807637
 40
0.3130981534815764
 40
0.3130981534815764
 40
0.4122278822943509
 40
0.4122278822943509
 40
0.4122278822943509
 40
0.4122278822943509
 10
-40.00000000000006
 20
4.999999999999942
 30
0.0
 10
-40.00000000000006
 20
4.659108080079942
 30
0.0
 10
-39.93027561464163
 20
4.321791181529308
 30
0.0
 10
-39.66003522718197
 20
3.696026586559267
 30
0.0
 10
-39.46241095478402
 20
3.414111577119602
 30
0.0
 10
-38.98457960693408
 20
2.963889226046472
 30
0.0
 10
-38.71577578939883
 20
2.792826936633327
 30
0.0
 10
-38.12874150665025
 20
2.559834476112968
 30
0.0
 10
-37.81579125708564
 20
2.499999999999944
 30
0.0
 10
-37.50000000000006
 20
2.499999999999941
 30
0.0
  0
LINE
  5
15931
330
1590E
100
AcDbEntity
  8
0
100
AcDbLine
 10
37.50000000000001
 20
0.0
 30
0.0
 11
37.50000000000001
 21
1.816976330570963
 31
0.0
  0
LINE
  5
15932
330
1590E
100
AcDbEntity
  8
0
100
AcDbLine
 10
37.50000000000001
 20
1.816976330570963
 30
0.0
 11
37.50000000000001
 21
2.500000000000006
 31
0.0
  0
LINE
  5
15933
330
1590E
100
AcDbEntity
  8
0
100
AcDbLine
 10
40.0
 20
5.000000000000008
 30
0.0
 11
40.68302366942412
 21
5.000000000000007
 31
0.0
  0
LINE
  5
15934
330
1590E
100
AcDbEntity
  8
0
100
AcDbLine
 10
40.68302366942412
 20
5.000000000000007
 30
0.0
 11
42.5
 21
5.000000000000007
 31
0.0
  0
SPLINE
  5
15935
330
1590E
100
AcDbEntity
  8
0
100
AcDbSpline
210
0.0
220
0.0
230
1.0
 70
     8
 71
     3
 72
    16
 73
    12
 74
     0
 42
0.000000001
 43
0.0000000001
 40
0.0
 40
0.0
 40
0.0
 40
0.0
 40
0.0997954053741001
 40
0.0997954053741001
 40
0.299775818015632
 40
0.299775818015632
 40
0.4997459514243405
 40
0.4997459514243405
 40
0.6481494969502159
 40
0.6481494969502159
 40
0.7965523845496917
 40
0.7965523845496917
 40
0.7965523845496917
 40
0.7965523845496917
 10
42.5
 20
4.999999999999853
 30
0.0
 10
42.50000000000001
 20
4.671224970384242
 30
0.0
 10
42.46757209298714
 20
4.343250124174986
 30
0.0
 10
42.27416706199844
 20
3.374764605751202
 30
0.0
 10
42.01871272464637
 20
2.760514212757274
 30
0.0
 10
41.2843906005845
 20
1.666472672984572
 30
0.0
 10
40.8127228362829
 20
1.1973845759434
 30
0.0
 10
39.85627332955412
 20
0.5629950703090615
 30
0.0
 10
39.41139240961508
 20
0.3539677332176556
 30
0.0
 10
38.47519068778743
 20
0.0717104619856127
 30
0.0
 10
37.98891192154778
 20
-0.0000000000002678
 30
0.0
 10
37.50000000000024
 20
-0.0000000000002902
 30
0.0
  0
SPLINE
  5
15936
330
1590E
100
AcDbEntity
  8
0
100
AcDbSpline
210
0.0
220
0.0
230
1.0
 70
     8
 71
     3
 72
    14
 73
    10
 74
     0
 42
0.000000001
 43
0.0000000001
 40
0.0
 40
0.0
 40
0.0
 40
0.0
 40
0.1070090535641551
 40
0.1070090535641551
 40
0.2139684069808012
 40
0.2139684069808012
 40
0.3130981534816045
 40
0.3130981534816045
 40
0.4122278822943687
 40
0.4122278822943687
 40
0.4122278822943687
 40
0.4122278822943687
 10
37.50000000000014
 20
2.49999999999971
 30
0.0
 10
37.8408919199202
 20
2.499999999999726
 30
0.0
 10
38.17820881847091
 20
2.569724385358194
 30
0.0
 10
38.80397341344099
 20
2.839964772817978
 30
0.0
 10
39.08588842288063
 20
3.037589045215968
 30
0.0
 10
39.53611077395368
 20
3.515420393065968
 30
0.0
 10
39.70717306336677
 20
3.784224210601212
 30
0.0
 10
39.94016552388703
 20
4.371258493349734
 30
0.0
 10
40.00000000000002
 20
4.684208742914301
 30
0.0
 10
40.0
 20
4.999999999999852
 30
0.0
  0
ENDBLK
  5
15910
330
1590E
100
AcDbEntity
  8
0
100
AcDbBlockEnd
  0
BLOCK
  5
15938
330
15937
100
AcDbEntity
  8
0
100
AcDbBlockBegin
  2
GLI1020_80_25-ISO
 70
     0
 10
0.0
 20
0.0
 30
0.0
  3
GLI1020_80_25-ISO
  1

  0
ELLIPSE
  5
1593A
330
15937
100
AcDbEntity
  8
0
100
AcDbEllipse
 10
55.54320889060516
 20
-187.3655695196806
 30
0.0
 11
2.500000000000059
 21
-4.330127018922159
 31
0.0
210
0.0
220
0.0
230
0.9999999999999996
 40
0.5773502691896399
 41
0.0000000000000492
 42
0.7853981633974838
  0
ELLIPSE
  5
1593B
330
15937
100
AcDbEntity
  8
0
100
AcDbEllipse
 10
-8.096401416184061
 20
-224.1079156614283
 30
0.0
 11
1.249999999999883
 21
-2.165063509461163
 31
0.0
210
0.0
220
0.0
230
1.0
 40
0.57735026918959
 41
5.497787143782169
 42
7.068583470577101
  0
LINE
  5
1593C
330
15937
100
AcDbEntity
  8
0
100
AcDbLine
 10
-8.096401416184061
 20
-228.190398566067
 30
0.0
 11
-8.096401416184061
 21
-226.1491571137477
 31
0.0
  0
ELLIPSE
  5
1593D
330
15937
100
AcDbEntity
  8
0
100
AcDbEllipse
 10
-8.096401416184061
 20
-224.1079156614283
 30
0.0
 11
2.499999999999761
 21
-4.330127018922331
 31
0.0
210
0.0
220
0.0
230
1.0
 40
0.5773502691895893
 41
5.497787143782167
 42
7.068583470577076
  0
LINE
  5
1593E
330
15937
100
AcDbEntity
  8
0
100
AcDbLine
 10
-6.328634463217697
 20
-225.128536387588
 30
0.0
 11
-4.560867510251327
 21
-226.1491571137477
 31
0.0
  0
LINE
  5
1593F
330
15937
100
AcDbEntity
  8
0
100
AcDbLine
 10
-8.096401416184061
 20
-226.1491571137477
 30
0.0
 11
-6.328634463217697
 21
-225.128536387588
 31
0.0
  0
LINE
  5
15940
330
15937
100
AcDbEntity
  8
0
100
AcDbLine
 10
-4.560867510251327
 20
-226.1491571137477
 30
0.0
 11
59.07874279653789
 21
-189.406810972
 31
0.0
  0
LINE
  5
15941
330
15937
100
AcDbEntity
  8
0
100
AcDbLine
 10
58.04320889060521
 20
-191.6956965386028
 30
0.0
 11
-5.596401416184217
 21
-228.4380426803506
 31
0.0
  0
LINE
  5
15942
330
15937
100
AcDbEntity
  8
0
100
AcDbLine
 10
14.20003521114834
 20
-165.5373185190121
 30
0.0
 11
2.510200301613996
 21
-158.7881891872102
 31
0.0
  0
LINE
  5
15943
330
15937
100
AcDbEntity
  8
0
100
AcDbLine
 10
-61.12941000517524
 20
-197.5717767812772
 30
0.0
 11
-8.096401416184058
 21
-228.190398566067
 31
0.0
  0
LINE
  5
15944
330
15937
100
AcDbEntity
  8
0
100
AcDbLine
 10
-61.12941000517524
 20
-195.5305353289578
 30
0.0
 11
-8.096401416184058
 21
-226.1491571137477
 31
0.0
  0
LINE
  5
15945
330
15937
100
AcDbEntity
  8
0
100
AcDbLine
 10
-64.66494391110798
 20
-152.4142813283833
 30
0.0
 11
-64.66494391110798
 21
-191.4480524243193
 31
0.0
  0
LINE
  5
15946
330
15937
100
AcDbEntity
  8
0
100
AcDbLine
 10
0.7424333486476354
 20
-155.7263270087312
 30
0.0
 11
0.7424333486476398
 21
-112.8602565100256
 31
0.0
  0
LINE
  5
15947
330
15937
100
AcDbEntity
  8
0
100
AcDbLine
 10
-62.8971769581416
 20
-153.4349020545429
 30
0.0
 11
-62.8971769581416
 21
-192.4686731504789
 31
0.0
  0
LINE
  5
15948
330
15937
100
AcDbEntity
  8
0
100
AcDbLine
 10
61.1293524619787
 20
197.5717435586958
 30
0.0
 11
37.44127529222928
 21
211.2480612892353
 31
0.0
  0
LINE
  5
15949
330
15937
100
AcDbEntity
  8
0
100
AcDbLine
 10
35.67350833926291
 20
210.2274405630755
 30
0.0
 11
37.44127529222928
 21
211.2480612892353
 31
0.0
  0
LINE
  5
1594A
330
15937
100
AcDbEntity
  8
0
100
AcDbLine
 10
59.36158550901232
 20
196.5511228325361
 30
0.0
 11
35.67350833926291
 21
210.2274405630755
 31
0.0
  0
LINE
  5
1594B
330
15937
100
AcDbEntity
  8
0
100
AcDbLine
 10
35.67350833926291
 20
210.2274405630755
 30
0.0
 11
35.67350833926292
 21
180.8335636496774
 31
0.0
  0
LINE
  5
1594C
330
15937
100
AcDbEntity
  8
0
100
AcDbLine
 10
24.71335323087167
 20
-154.9506552568499
 30
0.0
 11
24.71335323087152
 21
172.4644736951681
 31
0.0
  0
LINE
  5
1594D
330
15937
100
AcDbEntity
  8
0
100
AcDbLine
 10
22.94558627790515
 20
173.4850944213278
 30
0.0
 11
24.71335323087152
 21
172.4644736951681
 31
0.0
  0
LINE
  5
1594E
330
15937
100
AcDbEntity
  8
0
100
AcDbLine
 10
22.9455862779053
 20
-153.9300345306903
 30
0.0
 11
22.94558627790515
 21
173.4850944213278
 31
0.0
  0
LINE
  5
1594F
330
15937
100
AcDbEntity
  8
0
100
AcDbLine
 10
22.9455862779053
 20
-153.9300345306903
 30
0.0
 11
24.71335323087167
 21
-154.9506552568499
 31
0.0
  0
LINE
  5
15950
330
15937
100
AcDbEntity
  8
0
100
AcDbLine
 10
9.654572141387735
 20
-174.9369942867616
 30
0.0
 11
24.71335323087167
 21
-154.9506552568499
 31
0.0
  0
LINE
  5
15951
330
15937
100
AcDbEntity
  8
0
100
AcDbLine
 10
7.886805188421366
 20
-173.916373560602
 30
0.0
 11
22.9455862779053
 21
-153.9300345306903
 31
0.0
  0
LINE
  5
15952
330
15937
100
AcDbEntity
  8
0
100
AcDbLine
 10
7.886805188421366
 20
-173.916373560602
 30
0.0
 11
9.654572141387735
 21
-174.9369942867616
 31
0.0
  0
LINE
  5
15953
330
15937
100
AcDbEntity
  8
0
100
AcDbLine
 10
-4.560867510251354
 20
-187.1153860178117
 30
0.0
 11
9.654572141387735
 21
-174.9369942867616
 31
0.0
  0
LINE
  5
15954
330
15937
100
AcDbEntity
  8
0
100
AcDbLine
 10
-6.328634463217723
 20
-186.0947652916521
 30
0.0
 11
7.886805188421366
 21
-173.916373560602
 31
0.0
  0
LINE
  5
15955
330
15937
100
AcDbEntity
  8
0
100
AcDbLine
 10
-6.328634463217723
 20
-186.0947652916521
 30
0.0
 11
-4.560867510251354
 21
-187.1153860178117
 31
0.0
  0
LINE
  5
15956
330
15937
100
AcDbEntity
  8
0
100
AcDbLine
 10
22.94558627790515
 20
173.4850944213278
 30
0.0
 11
59.36158550901232
 21
194.5098813802167
 31
0.0
  0
LINE
  5
15957
330
15937
100
AcDbEntity
  8
0
100
AcDbLine
 10
24.71335323087152
 20
172.4644736951681
 30
0.0
 11
61.1293524619787
 21
193.4892606540571
 31
0.0
  0
LINE
  5
15958
330
15937
100
AcDbEntity
  8
0
100
AcDbLine
 10
61.12935246197885
 20
-144.7839796269748
 30
0.0
 11
59.07874279653788
 21
-146.5407404732943
 31
0.0
  0
LINE
  5
15959
330
15937
100
AcDbEntity
  8
0
100
AcDbLine
 10
59.07874279653789
 20
-189.406810972
 30
0.0
 11
59.07874279653788
 21
-146.5407404732943
 31
0.0
  0
LINE
  5
1595A
330
15937
100
AcDbEntity
  8
0
100
AcDbLine
 10
-4.560867510251327
 20
-226.1491571137477
 30
0.0
 11
-4.560867510251354
 21
-187.1153860178117
 31
0.0
  0
LINE
  5
1595B
330
15937
100
AcDbEntity
  8
0
100
AcDbLine
 10
-6.328634463217697
 20
-225.128536387588
 30
0.0
 11
-6.328634463217723
 21
-186.0947652916521
 31
0.0
  0
ELLIPSE
  5
1595C
330
15937
100
AcDbEntity
  8
0
100
AcDbEllipse
 10
-20.47077008694875
 20
-204.7161218643948
 30
0.0
 11
-2.5
 21
-0.0000000000001488
 31
0.0
210
0.0
220
0.0
230
1.0
 40
0.5773502691896255
 41
3.926990816986993
 42
5.497787143781899
  0
ELLIPSE
  5
1595D
330
15937
100
AcDbEntity
  8
0
100
AcDbEllipse
 10
-20.47077008694875
 20
-202.6748804120755
 30
0.0
 11
-2.5
 21
0.0000000000001497
 31
0.0
210
0.0
220
0.0
230
1.0
 40
0.5773502691896257
 41
0.0
 42
6.283185307179586
  0
LINE
  5
1595E
330
15937
100
AcDbEntity
  8
0
100
AcDbLine
 10
-61.12941000517524
 20
-195.5305353289578
 30
0.0
 11
-61.12941000517524
 21
-197.5717767812772
 31
0.0
  0
ELLIPSE
  5
1595F
330
15937
100
AcDbEntity
  8
0
100
AcDbEllipse
 10
-61.12941000517529
 20
-193.4892938766386
 30
0.0
 11
1.250000000000171
 21
-2.165063509460997
 31
0.0
210
0.0
220
0.0
230
1.0
 40
0.5773502691896053
 41
3.926990816986995
 42
5.497787143781879
  0
LINE
  5
15960
330
15937
100
AcDbEntity
  8
0
100
AcDbLine
 10
-64.66494391110798
 20
-191.4480524243193
 30
0.0
 11
-62.8971769581416
 21
-192.4686731504789
 31
0.0
  0
ELLIPSE
  5
15961
330
15937
100
AcDbEntity
  8
0
100
AcDbEllipse
 10
-61.12941000517529
 20
-193.4892938766386
 30
0.0
 11
-2.499999999999726
 21
4.33012701892235
 31
0.0
210
0.0
220
0.0
230
1.0
 40
0.5773502691896235
 41
0.7853981633976899
 42
2.356194490192581
  0
ELLIPSE
  5
15962
330
15937
100
AcDbEntity
  8
0
100
AcDbEllipse
 10
2.510200301613991
 20
-156.7469477348909
 30
0.0
 11
-1.249999999999872
 21
2.16506350946117
 31
0.0
210
0.0
220
0.0
230
1.0
 40
0.5773502691896267
 41
0.7853981633976846
 42
2.356194490192587
  0
LINE
  5
15963
330
15937
100
AcDbEntity
  8
0
100
AcDbLine
 10
-62.8971769581416
 20
-192.4686731504789
 30
0.0
 11
0.7424333486476442
 21
-155.7263270087312
 31
0.0
  0
LINE
  5
15964
330
15937
100
AcDbEntity
  8
0
100
AcDbLine
 10
2.510200301613996
 20
-158.7881891872102
 30
0.0
 11
-61.12941000517524
 21
-195.5305353289578
 31
0.0
  0
LINE
  5
15965
330
15937
100
AcDbEntity
  8
0
100
AcDbLine
 10
8.096343872987915
 20
228.1903653434855
 30
0.0
 11
31.78442104273723
 21
214.5140476129461
 31
0.0
  0
LINE
  5
15966
330
15937
100
AcDbEntity
  8
0
100
AcDbLine
 10
31.78442104273723
 20
214.5140476129461
 30
0.0
 11
31.78442104273722
 21
178.5881980521262
 31
0.0
  0
ELLIPSE
  5
15967
330
15937
100
AcDbEntity
  8
0
100
AcDbEllipse
 10
13.75319812248026
 20
218.8006546628166
 30
0.0
 11
1.250000000000129
 21
-2.165063509461022
 31
0.0
210
0.0
220
0.0
230
1.0
 40
0.5773502691896261
 41
3.926990816987004
 42
5.4977871437819
  0
ELLIPSE
  5
15968
330
15937
100
AcDbEntity
  8
0
100
AcDbEllipse
 10
26.48112018383812
 20
203.2872196251898
 30
0.0
 11
1.250000000000129
 21
-2.165063509461022
 31
0.0
210
0.0
220
0.0
230
1.0
 40
0.5773502691896261
 41
3.926990816987004
 42
5.497787143781898
  0
ELLIPSE
  5
15969
330
15937
100
AcDbEntity
  8
0
100
AcDbEllipse
 10
17.28873202841299
 20
200.4294815919428
 30
0.0
 11
-3.5
 21
6.062177826491071
 31
0.0
210
0.0
220
0.0
230
1.0
 40
0.577350269189626
 41
0.2553025216024061
 42
2.886290131987383
  0
ELLIPSE
  5
1596A
330
15937
100
AcDbEntity
  8
0
100
AcDbEllipse
 10
17.28873202841298
 20
102.4498918806156
 30
0.0
 11
-3.5
 21
6.062177826491071
 31
0.0
210
0.0
220
0.0
230
1.0
 40
0.577350269189626
 41
0.2553025216024078
 42
2.886290131987385
  0
ELLIPSE
  5
1596B
330
15937
100
AcDbEntity
  8
0
100
AcDbEllipse
 10
17.28873202841295
 20
4.470302169288586
 30
0.0
 11
-3.5
 21
6.062177826491071
 31
0.0
210
0.0
220
0.0
230
1.0
 40
0.577350269189626
 41
0.2553025216024087
 42
2.886290131987383
  0
ELLIPSE
  5
1596C
330
15937
100
AcDbEntity
  8
0
100
AcDbEllipse
 10
17.28873202841291
 20
-93.50928754203852
 30
0.0
 11
-3.5
 21
6.062177826491071
 31
0.0
210
0.0
220
0.0
230
1.0
 40
0.577350269189626
 41
0.2553025216024078
 42
2.886290131987385
  0
ELLIPSE
  5
1596D
330
15937
100
AcDbEntity
  8
0
100
AcDbEllipse
 10
26.48112018383812
 20
186.9572880066353
 30
0.0
 11
1.250000000000129
 21
-2.165063509461022
 31
0.0
210
0.0
220
0.0
230
1.0
 40
0.5773502691896261
 41
3.926990816987004
 42
5.497787143781898
  0
ELLIPSE
  5
1596E
330
15937
100
AcDbEntity
  8
0
100
AcDbEllipse
 10
24.71335323087175
 20
185.9366672804756
 30
0.0
 11
1.249999999999871
 21
-2.16506350946117
 31
0.0
210
0.0
220
0.0
230
1.0
 40
0.5773502691896261
 41
0.0
 42
6.283185307179586
  0
ELLIPSE
  5
1596F
330
15937
100
AcDbEntity
  8
0
100
AcDbEllipse
 10
15.52096507544654
 20
-94.52990826819819
 30
0.0
 11
3.499999999999639
 21
-6.06217782649128
 31
0.0
210
0.0
220
0.0
230
1.0
 40
0.5773502691896261
 41
0.0
 42
6.283185307179586
  0
ELLIPSE
  5
15970
330
15937
100
AcDbEntity
  8
0
100
AcDbEllipse
 10
15.52096507544658
 20
3.449681443128937
 30
0.0
 11
3.499999999999639
 21
-6.06217782649128
 31
0.0
210
0.0
220
0.0
230
1.0
 40
0.5773502691896261
 41
0.0
 42
6.283185307179586
  0
ELLIPSE
  5
15971
330
15937
100
AcDbEntity
  8
0
100
AcDbEllipse
 10
15.52096507544661
 20
101.429271154456
 30
0.0
 11
3.499999999999639
 21
-6.06217782649128
 31
0.0
210
0.0
220
0.0
230
1.0
 40
0.5773502691896261
 41
0.0
 42
6.283185307179586
  0
ELLIPSE
  5
15972
330
15937
100
AcDbEntity
  8
0
100
AcDbEllipse
 10
15.52096507544663
 20
199.4088608657832
 30
0.0
 11
3.499999999999639
 21
-6.06217782649128
 31
0.0
210
0.0
220
0.0
230
1.0
 40
0.5773502691896261
 41
0.0
 42
6.283185307179586
  0
ELLIPSE
  5
15973
330
15937
100
AcDbEntity
  8
0
100
AcDbEllipse
 10
24.71335323087175
 20
202.2665988990302
 30
0.0
 11
1.249999999999871
 21
-2.16506350946117
 31
0.0
210
0.0
220
0.0
230
1.0
 40
0.5773502691896261
 41
0.0
 42
6.283185307179586
  0
ELLIPSE
  5
15974
330
15937
100
AcDbEntity
  8
0
100
AcDbEllipse
 10
11.98543116951389
 20
217.780033936657
 30
0.0
 11
1.249999999999871
 21
-2.16506350946117
 31
0.0
210
0.0
220
0.0
230
1.0
 40
0.5773502691896261
 41
0.0
 42
6.283185307179586
  0
LINE
  5
15975
330
15937
100
AcDbEntity
  8
0
100
AcDbLine
 10
6.328576920021551
 20
227.1697446173258
 30
0.0
 11
30.01665408977086
 21
213.4934268867865
 31
0.0
  0
LINE
  5
15976
330
15937
100
AcDbEntity
  8
0
100
AcDbLine
 10
30.01665408977086
 20
213.4934268867865
 30
0.0
 11
31.78442104273723
 21
214.5140476129461
 31
0.0
  0
LINE
  5
15977
330
15937
100
AcDbEntity
  8
0
100
AcDbLine
 10
30.01665408977086
 20
213.4934268867865
 30
0.0
 11
30.01665408977086
 21
177.5675773259666
 31
0.0
  0
LINE
  5
15978
330
15937
100
AcDbEntity
  8
0
100
AcDbLine
 10
30.01665408977086
 20
163.2376457074121
 30
0.0
 11
30.01665408977086
 21
162.0541422883401
 31
0.0
  0
LINE
  5
15979
330
15937
100
AcDbEntity
  8
0
100
AcDbLine
 10
30.01665408977085
 20
146.9077140888576
 30
0.0
 11
30.01665408977085
 21
145.7242106697856
 31
0.0
  0
LINE
  5
1597A
330
15937
100
AcDbEntity
  8
0
100
AcDbLine
 10
30.01665408977084
 20
130.5777824703031
 30
0.0
 11
30.01665408977084
 21
129.3942790512311
 31
0.0
  0
LINE
  5
1597B
330
15937
100
AcDbEntity
  8
0
100
AcDbLine
 10
30.01665408977084
 20
114.2478508517486
 30
0.0
 11
30.01665408977084
 21
113.0643474326766
 31
0.0
  0
LINE
  5
1597C
330
15937
100
AcDbEntity
  8
0
100
AcDbLine
 10
30.01665408977084
 20
97.91791923319406
 30
0.0
 11
30.01665408977084
 21
96.73441581412204
 31
0.0
  0
LINE
  5
1597D
330
15937
100
AcDbEntity
  8
0
100
AcDbLine
 10
30.01665408977083
 20
81.58798761463954
 30
0.0
 11
30.01665408977083
 21
80.40448419556746
 31
0.0
  0
LINE
  5
1597E
330
15937
100
AcDbEntity
  8
0
100
AcDbLine
 10
30.01665408977083
 20
65.258055996085
 30
0.0
 11
30.01665408977083
 21
64.07455257701293
 31
0.0
  0
LINE
  5
1597F
330
15937
100
AcDbEntity
  8
0
100
AcDbLine
 10
30.01665408977083
 20
48.92812437753047
 30
0.0
 11
30.01665408977083
 21
47.74462095845841
 31
0.0
  0
LINE
  5
15980
330
15937
100
AcDbEntity
  8
0
100
AcDbLine
 10
30.01665408977082
 20
32.59819275897595
 30
0.0
 11
30.01665408977082
 21
31.41468933990389
 31
0.0
  0
LINE
  5
15981
330
15937
100
AcDbEntity
  8
0
100
AcDbLine
 10
30.01665408977082
 20
16.26826114042146
 30
0.0
 11
30.01665408977082
 21
15.08475772134932
 31
0.0
  0
LINE
  5
15982
330
15937
100
AcDbEntity
  8
0
100
AcDbLine
 10
30.01665408977082
 20
-0.0616704781331023
 30
0.0
 11
30.01665408977082
 21
-1.245173897205127
 31
0.0
  0
LINE
  5
15983
330
15937
100
AcDbEntity
  8
0
100
AcDbLine
 10
30.01665408977082
 20
-16.39160209668764
 30
0.0
 11
30.01665408977082
 21
-17.57510551575974
 31
0.0
  0
LINE
  5
15984
330
15937
100
AcDbEntity
  8
0
100
AcDbLine
 10
30.01665408977082
 20
-32.72153371524225
 30
0.0
 11
30.01665408977082
 21
-33.90503713431432
 31
0.0
  0
LINE
  5
15985
330
15937
100
AcDbEntity
  8
0
100
AcDbLine
 10
30.01665408977081
 20
-49.05146533379671
 30
0.0
 11
30.01665408977081
 21
-50.23496875286884
 31
0.0
  0
LINE
  5
15986
330
15937
100
AcDbEntity
  8
0
100
AcDbLine
 10
30.01665408977081
 20
-65.38139695235123
 30
0.0
 11
30.01665408977081
 21
-66.56490037142342
 31
0.0
  0
LINE
  5
15987
330
15937
100
AcDbEntity
  8
0
100
AcDbLine
 10
30.01665408977081
 20
-81.71132857090574
 30
0.0
 11
30.01665408977081
 21
-82.89483198997787
 31
0.0
  0
LINE
  5
15988
330
15937
100
AcDbEntity
  8
0
100
AcDbLine
 10
30.01665408977081
 20
-98.04126018946021
 30
0.0
 11
30.01665408977081
 21
-99.22476360853245
 31
0.0
  0
LINE
  5
15989
330
15937
100
AcDbEntity
  8
0
100
AcDbLine
 10
22.94558627790525
 20
-112.5420989022618
 30
0.0
 11
17.57792905641428
 21
-113.468132645692
 31
0.0
  0
LINE
  5
1598A
330
15937
100
AcDbEntity
  8
0
100
AcDbLine
 10
17.57792905641428
 20
-113.468132645692
 30
0.0
 11
6.328576920021422
 21
-110.1158391051296
 31
0.0
  0
LINE
  5
1598B
330
15937
100
AcDbEntity
  8
0
100
AcDbLine
 10
-35.39072316998493
 20
-120.2495505674215
 30
0.0
 11
-35.39072316998485
 21
207.1655783845966
 31
0.0
  0
LINE
  5
1598C
330
15937
100
AcDbEntity
  8
0
100
AcDbLine
 10
-33.62295621701856
 20
-121.2701712935812
 30
0.0
 11
-35.39072316998493
 21
-120.2495505674215
 31
0.0
  0
LINE
  5
1598D
330
15937
100
AcDbEntity
  8
0
100
AcDbLine
 10
-33.62295621701856
 20
-121.2701712935812
 30
0.0
 11
-33.62295621701849
 21
206.1449576584369
 31
0.0
  0
LINE
  5
1598E
330
15937
100
AcDbEntity
  8
0
100
AcDbLine
 10
-33.62295621701849
 20
206.1449576584369
 30
0.0
 11
-35.39072316998485
 21
207.1655783845966
 31
0.0
  0
LINE
  5
1598F
330
15937
100
AcDbEntity
  8
0
100
AcDbLine
 10
-50.44950425946888
 20
-140.2358895973332
 30
0.0
 11
-35.39072316998493
 21
-120.2495505674215
 31
0.0
  0
LINE
  5
15990
330
15937
100
AcDbEntity
  8
0
100
AcDbLine
 10
-48.6817373065025
 20
-141.2565103234928
 30
0.0
 11
-50.44950425946888
 21
-140.2358895973332
 31
0.0
  0
LINE
  5
15991
330
15937
100
AcDbEntity
  8
0
100
AcDbLine
 10
-48.6817373065025
 20
-141.2565103234928
 30
0.0
 11
-33.62295621701856
 21
-121.2701712935812
 31
0.0
  0
LINE
  5
15992
330
15937
100
AcDbEntity
  8
0
100
AcDbLine
 10
-64.66494391110798
 20
-152.4142813283833
 30
0.0
 11
-50.44950425946888
 21
-140.2358895973332
 31
0.0
  0
LINE
  5
15993
330
15937
100
AcDbEntity
  8
0
100
AcDbLine
 10
-62.8971769581416
 20
-153.4349020545429
 30
0.0
 11
-64.66494391110798
 21
-152.4142813283833
 31
0.0
  0
LINE
  5
15994
330
15937
100
AcDbEntity
  8
0
100
AcDbLine
 10
-62.8971769581416
 20
-153.4349020545429
 30
0.0
 11
-48.6817373065025
 21
-141.2565103234928
 31
0.0
  0
LINE
  5
15995
330
15937
100
AcDbEntity
  8
0
100
AcDbLine
 10
-35.39072316998485
 20
207.1655783845966
 30
0.0
 11
1.025276061122446
 21
228.1903653434856
 31
0.0
  0
LINE
  5
15996
330
15937
100
AcDbEntity
  8
0
100
AcDbLine
 10
-33.62295621701849
 20
206.1449576584369
 30
0.0
 11
2.793043014088811
 21
227.1697446173259
 31
0.0
  0
LINE
  5
15997
330
15937
100
AcDbEntity
  8
0
100
AcDbLine
 10
2.793043014088678
 20
-111.103495663706
 30
0.0
 11
0.7424333486476398
 21
-112.8602565100256
 31
0.0
  0
ELLIPSE
  5
15998
330
15937
100
AcDbEntity
  8
0
100
AcDbEllipse
 10
13.75319812248025
 20
186.1407914257076
 30
0.0
 11
1.250000000000129
 21
-2.165063509461022
 31
0.0
210
0.0
220
0.0
230
1.0
 40
0.5773502691896261
 41
3.926990816987004
 42
5.4977871437819
  0
ELLIPSE
  5
15999
330
15937
100
AcDbEntity
  8
0
100
AcDbEllipse
 10
11.98543116951388
 20
185.1201706995479
 30
0.0
 11
1.249999999999871
 21
-2.16506350946117
 31
0.0
210
0.0
220
0.0
230
1.0
 40
0.5773502691896261
 41
0.0
 42
6.283185307179586
  0
ELLIPSE
  5
1599A
330
15937
100
AcDbEntity
  8
0
100
AcDbEllipse
 10
13.75319812248023
 20
88.16120171438051
 30
0.0
 11
1.250000000000129
 21
-2.165063509461022
 31
0.0
210
0.0
220
0.0
230
1.0
 40
0.5773502691896261
 41
3.926990816987004
 42
5.4977871437819
  0
ELLIPSE
  5
1599B
330
15937
100
AcDbEntity
  8
0
100
AcDbEllipse
 10
11.98543116951386
 20
87.14058098822082
 30
0.0
 11
1.249999999999871
 21
-2.16506350946117
 31
0.0
210
0.0
220
0.0
230
1.0
 40
0.5773502691896261
 41
0.0
 42
6.283185307179586
  0
ELLIPSE
  5
1599C
330
15937
100
AcDbEntity
  8
0
100
AcDbEllipse
 10
13.75319812248019
 20
-9.818387996946604
 30
0.0
 11
1.250000000000129
 21
-2.165063509461022
 31
0.0
210
0.0
220
0.0
230
1.0
 40
0.5773502691896261
 41
3.926990816986998
 42
5.497787143781895
  0
ELLIPSE
  5
1599D
330
15937
100
AcDbEntity
  8
0
100
AcDbEllipse
 10
11.98543116951382
 20
-10.83900872310629
 30
0.0
 11
1.249999999999871
 21
-2.16506350946117
 31
0.0
210
0.0
220
0.0
230
1.0
 40
0.5773502691896261
 41
0.0
 42
6.283185307179586
  0
ELLIPSE
  5
1599E
330
15937
100
AcDbEntity
  8
0
100
AcDbEllipse
 10
13.75319812248024
 20
169.810859807153
 30
0.0
 11
1.250000000000129
 21
-2.165063509461022
 31
0.0
210
0.0
220
0.0
230
1.0
 40
0.5773502691896261
 41
3.926990816987004
 42
5.4977871437819
  0
ELLIPSE
  5
1599F
330
15937
100
AcDbEntity
  8
0
100
AcDbEllipse
 10
13.75319812248024
 20
153.4809281885985
 30
0.0
 11
1.250000000000129
 21
-2.165063509461022
 31
0.0
210
0.0
220
0.0
230
1.0
 40
0.5773502691896261
 41
3.926990816987004
 42
5.4977871437819
  0
ELLIPSE
  5
159A0
330
15937
100
AcDbEntity
  8
0
100
AcDbEllipse
 10
13.75319812248023
 20
137.150996570044
 30
0.0
 11
1.250000000000129
 21
-2.165063509461022
 31
0.0
210
0.0
220
0.0
230
1.0
 40
0.5773502691896261
 41
3.926990816987004
 42
5.4977871437819
  0
ELLIPSE
  5
159A1
330
15937
100
AcDbEntity
  8
0
100
AcDbEllipse
 10
13.75319812248023
 20
120.8210649514895
 30
0.0
 11
1.250000000000129
 21
-2.165063509461022
 31
0.0
210
0.0
220
0.0
230
1.0
 40
0.5773502691896261
 41
3.926990816987004
 42
5.4977871437819
  0
ELLIPSE
  5
159A2
330
15937
100
AcDbEntity
  8
0
100
AcDbEllipse
 10
11.98543116951386
 20
119.8004442253298
 30
0.0
 11
1.249999999999871
 21
-2.16506350946117
 31
0.0
210
0.0
220
0.0
230
1.0
 40
0.5773502691896261
 41
0.0
 42
6.283185307179586
  0
ELLIPSE
  5
159A3
330
15937
100
AcDbEntity
  8
0
100
AcDbEllipse
 10
11.98543116951386
 20
136.1303758438843
 30
0.0
 11
1.249999999999871
 21
-2.16506350946117
 31
0.0
210
0.0
220
0.0
230
1.0
 40
0.5773502691896261
 41
0.0
 42
6.283185307179586
  0
ELLIPSE
  5
159A4
330
15937
100
AcDbEntity
  8
0
100
AcDbEllipse
 10
11.98543116951387
 20
152.4603074624389
 30
0.0
 11
1.249999999999871
 21
-2.16506350946117
 31
0.0
210
0.0
220
0.0
230
1.0
 40
0.5773502691896261
 41
0.0
 42
6.283185307179586
  0
ELLIPSE
  5
159A5
330
15937
100
AcDbEntity
  8
0
100
AcDbEllipse
 10
11.98543116951388
 20
168.7902390809934
 30
0.0
 11
1.249999999999871
 21
-2.16506350946117
 31
0.0
210
0.0
220
0.0
230
1.0
 40
0.5773502691896261
 41
0.0
 42
6.283185307179586
  0
ELLIPSE
  5
159A6
330
15937
100
AcDbEntity
  8
0
100
AcDbEllipse
 10
13.75319812248023
 20
71.83127009582598
 30
0.0
 11
1.250000000000129
 21
-2.165063509461022
 31
0.0
210
0.0
220
0.0
230
1.0
 40
0.5773502691896261
 41
3.926990816986998
 42
5.497787143781895
  0
ELLIPSE
  5
159A7
330
15937
100
AcDbEntity
  8
0
100
AcDbEllipse
 10
13.75319812248023
 20
55.50133847727146
 30
0.0
 11
1.250000000000129
 21
-2.165063509461022
 31
0.0
210
0.0
220
0.0
230
1.0
 40
0.5773502691896261
 41
3.926990816986998
 42
5.497787143781895
  0
ELLIPSE
  5
159A8
330
15937
100
AcDbEntity
  8
0
100
AcDbEllipse
 10
13.75319812248022
 20
39.17140685871693
 30
0.0
 11
1.250000000000129
 21
-2.165063509461022
 31
0.0
210
0.0
220
0.0
230
1.0
 40
0.5773502691896261
 41
3.926990816986998
 42
5.497787143781895
  0
ELLIPSE
  5
159A9
330
15937
100
AcDbEntity
  8
0
100
AcDbEllipse
 10
13.75319812248022
 20
22.84147524016241
 30
0.0
 11
1.250000000000129
 21
-2.165063509461022
 31
0.0
210
0.0
220
0.0
230
1.0
 40
0.5773502691896261
 41
3.926990816986998
 42
5.497787143781895
  0
ELLIPSE
  5
159AA
330
15937
100
AcDbEntity
  8
0
100
AcDbEllipse
 10
11.98543116951385
 20
21.82085451400276
 30
0.0
 11
1.249999999999871
 21
-2.16506350946117
 31
0.0
210
0.0
220
0.0
230
1.0
 40
0.5773502691896261
 41
0.0
 42
6.283185307179586
  0
ELLIPSE
  5
159AB
330
15937
100
AcDbEntity
  8
0
100
AcDbEllipse
 10
11.98543116951386
 20
38.15078613255728
 30
0.0
 11
1.249999999999871
 21
-2.16506350946117
 31
0.0
210
0.0
220
0.0
230
1.0
 40
0.5773502691896261
 41
0.0
 42
6.283185307179586
  0
ELLIPSE
  5
159AC
330
15937
100
AcDbEntity
  8
0
100
AcDbEllipse
 10
11.98543116951386
 20
54.48071775111181
 30
0.0
 11
1.249999999999871
 21
-2.16506350946117
 31
0.0
210
0.0
220
0.0
230
1.0
 40
0.5773502691896261
 41
0.0
 42
6.283185307179586
  0
ELLIPSE
  5
159AD
330
15937
100
AcDbEntity
  8
0
100
AcDbEllipse
 10
11.98543116951386
 20
70.81064936966633
 30
0.0
 11
1.249999999999871
 21
-2.16506350946117
 31
0.0
210
0.0
220
0.0
230
1.0
 40
0.5773502691896261
 41
0.0
 42
6.283185307179586
  0
ELLIPSE
  5
159AE
330
15937
100
AcDbEntity
  8
0
100
AcDbEllipse
 10
13.75319812248019
 20
-26.14831961550113
 30
0.0
 11
1.250000000000129
 21
-2.165063509461022
 31
0.0
210
0.0
220
0.0
230
1.0
 40
0.5773502691896261
 41
3.926990816986998
 42
5.497787143781895
  0
ELLIPSE
  5
159AF
330
15937
100
AcDbEntity
  8
0
100
AcDbEllipse
 10
13.75319812248019
 20
-42.47825123405565
 30
0.0
 11
1.250000000000129
 21
-2.165063509461022
 31
0.0
210
0.0
220
0.0
230
1.0
 40
0.5773502691896261
 41
3.926990816986998
 42
5.497787143781895
  0
ELLIPSE
  5
159B0
330
15937
100
AcDbEntity
  8
0
100
AcDbEllipse
 10
13.75319812248019
 20
-58.80818285261018
 30
0.0
 11
1.250000000000129
 21
-2.165063509461022
 31
0.0
210
0.0
220
0.0
230
1.0
 40
0.5773502691896261
 41
3.926990816986998
 42
5.497787143781895
  0
ELLIPSE
  5
159B1
330
15937
100
AcDbEntity
  8
0
100
AcDbEllipse
 10
13.75319812248019
 20
-75.1381144711647
 30
0.0
 11
1.250000000000129
 21
-2.165063509461022
 31
0.0
210
0.0
220
0.0
230
1.0
 40
0.5773502691896261
 41
3.926990816986998
 42
5.497787143781895
  0
ELLIPSE
  5
159B2
330
15937
100
AcDbEntity
  8
0
100
AcDbEllipse
 10
11.98543116951382
 20
-76.15873519732438
 30
0.0
 11
1.249999999999871
 21
-2.16506350946117
 31
0.0
210
0.0
220
0.0
230
1.0
 40
0.5773502691896261
 41
0.0
 42
6.283185307179586
  0
ELLIPSE
  5
159B3
330
15937
100
AcDbEntity
  8
0
100
AcDbEllipse
 10
11.98543116951382
 20
-59.82880357876985
 30
0.0
 11
1.249999999999871
 21
-2.16506350946117
 31
0.0
210
0.0
220
0.0
230
1.0
 40
0.5773502691896261
 41
0.0
 42
6.283185307179586
  0
ELLIPSE
  5
159B4
330
15937
100
AcDbEntity
  8
0
100
AcDbEllipse
 10
11.98543116951382
 20
-43.49887196021533
 30
0.0
 11
1.249999999999871
 21
-2.16506350946117
 31
0.0
210
0.0
220
0.0
230
1.0
 40
0.5773502691896261
 41
0.0
 42
6.283185307179586
  0
ELLIPSE
  5
159B5
330
15937
100
AcDbEntity
  8
0
100
AcDbEllipse
 10
11.98543116951382
 20
-27.16894034166078
 30
0.0
 11
1.249999999999871
 21
-2.16506350946117
 31
0.0
210
0.0
220
0.0
230
1.0
 40
0.5773502691896261
 41
0.0
 42
6.283185307179586
  0
LINE
  5
159B6
330
15937
100
AcDbEntity
  8
0
100
AcDbLine
 10
8.096343872987915
 20
228.1903653434855
 30
0.0
 11
6.328576920021551
 21
227.1697446173258
 31
0.0
  0
LINE
  5
159B7
330
15937
100
AcDbEntity
  8
0
100
AcDbLine
 10
6.328576920021551
 20
227.1697446173258
 30
0.0
 11
6.328576920021422
 21
-110.1158391051296
 31
0.0
  0
LINE
  5
159B8
330
15937
100
AcDbEntity
  8
0
100
AcDbLine
 10
2.793043014088807
 20
227.1697446173259
 30
0.0
 11
1.025276061122442
 21
228.1903653434856
 31
0.0
  0
ELLIPSE
  5
159B9
330
15937
100
AcDbEntity
  8
0
100
AcDbEllipse
 10
4.560809967055181
 20
226.1491238911665
 30
0.0
 11
5.0
 21
-0.0000000000018946
 31
0.0
210
0.0
220
0.0
230
1.0
 40
0.5773502691894129
 41
0.7853981633978746
 42
2.356194490192768
  0
SPLINE
  5
159BA
330
15937
100
AcDbEntity
  8
0
100
AcDbSpline
210
0.0
220
0.0
230
1.0
 70
     8
 71
     3
 72
    14
 73
    10
 74
     0
 42
0.000000001
 43
0.0000000001
 40
0.0
 40
0.0
 40
0.0
 40
0.0
 40
0.1070090535641211
 40
0.1070090535641211
 40
0.2139684069807637
 40
0.2139684069807637
 40
0.3130981534815764
 40
0.3130981534815764
 40
0.4122278822943509
 40
0.4122278822943509
 40
0.4122278822943509
 40
0.4122278822943509
 10
2.793043014088678
 20
-111.103495663706
 30
0.0
 10
3.034090002315812
 20
-110.8785936637686
 30
0.0
 10
3.321911654390792
 20
-110.6844953737355
 30
0.0
 10
3.955482853443763
 20
-110.3679216413139
 30
0.0
 10
4.294568331476469
 20
-110.248697091716
 30
0.0
 10
4.950801395290227
 20
-110.0948497361921
 30
0.0
 10
5.261833702327565
 20
-110.0560339573717
 30
0.0
 10
5.841680173247354
 20
-110.041725415945
 30
0.0
 10
6.105278780696776
 20
-110.0663385674067
 30
0.0
 10
6.328576920021418
 20
-110.1158391051296
 30
0.0
  0
ELLIPSE
  5
159BB
330
15937
100
AcDbEntity
  8
0
100
AcDbEllipse
 10
4.560809967055181
 20
226.1491238911665
 30
0.0
 11
-2.5
 21
0.0000000000006194
 31
0.0
210
0.0
220
0.0
230
1.0
 40
0.5773502691894037
 41
3.926990816987176
 42
5.497787143782081
  0
LINE
  5
159BC
330
15937
100
AcDbEntity
  8
0
100
AcDbLine
 10
2.793043014088678
 20
-111.103495663706
 30
0.0
 11
2.793043014088807
 21
227.1697446173259
 31
0.0
  0
LINE
  5
159BD
330
15937
100
AcDbEntity
  8
0
100
AcDbLine
 10
59.36158550901232
 20
196.5511228325361
 30
0.0
 11
61.1293524619787
 21
197.5717435586958
 31
0.0
  0
LINE
  5
159BE
330
15937
100
AcDbEntity
  8
0
100
AcDbLine
 10
59.36158550901232
 20
194.5098813802167
 30
0.0
 11
59.36158550901232
 21
196.5511228325361
 31
0.0
  0
LINE
  5
159BF
330
15937
100
AcDbEntity
  8
0
100
AcDbLine
 10
61.1293524619787
 20
193.4892606540571
 30
0.0
 11
59.36158550901232
 21
194.5098813802167
 31
0.0
  0
ELLIPSE
  5
159C0
330
15937
100
AcDbEntity
  8
0
100
AcDbEllipse
 10
57.59381855604617
 20
195.5305021063768
 30
0.0
 11
5.0
 21
0.0000000000010431
 31
0.0
210
0.0
220
0.0
230
1.0
 40
0.5773502691897821
 41
5.497787143781952
 42
7.068583470576953
  0
LINE
  5
159C1
330
15937
100
AcDbEntity
  8
0
100
AcDbLine
 10
61.12935246197885
 20
-144.7839796269748
 30
0.0
 11
61.1293524619787
 21
193.4892606540571
 31
0.0
  0
SPLINE
  5
159C2
330
15937
100
AcDbEntity
  8
0
100
AcDbSpline
210
0.0
220
0.0
230
1.0
 70
     8
 71
     3
 72
    12
 73
     8
 74
     0
 42
0.000000001
 43
0.0000000001
 40
0.0
 40
0.0
 40
0.0
 40
0.0
 40
0.0997954053741001
 40
0.0997954053741001
 40
0.299775818015632
 40
0.299775818015632
 40
0.3983669710168329
 40
0.3983669710168329
 40
0.3983669710168329
 40
0.3983669710168329
 10
61.12935246197896
 20
-144.7839796269747
 30
0.0
 10
61.36183151490498
 20
-144.6084144936249
 30
0.0
 10
61.57081475976966
 20
-144.4200359310965
 30
0.0
 10
62.11887942840037
 20
-143.8215017279882
 30
0.0
 10
62.37258655240772
 20
-143.3843951765182
 30
0.0
 10
62.56247171592216
 20
-142.7034769788233
 30
0.0
 10
62.59381632548568
 20
-142.4761860065636
 30
0.0
 10
62.59381626272871
 20
-142.2489098728502
 30
0.0
  0
ELLIPSE
  5
159C3
330
15937
100
AcDbEntity
  8
0
100
AcDbEllipse
 10
57.59381855604617
 20
195.5305021063768
 30
0.0
 11
2.5
 21
0.000000000000555
 31
0.0
210
0.0
220
0.0
230
1.0
 40
0.5773502691897738
 41
5.497787143781883
 42
7.068583470577042
  0
LINE
  5
159C4
330
15937
100
AcDbEntity
  8
0
100
AcDbLine
 10
62.59381855604631
 20
-142.248909895367
 30
0.0
 11
62.59381855604617
 21
195.5305021063774
 31
0.0
  0
ELLIPSE
  5
159C5
330
15937
100
AcDbEntity
  8
0
100
AcDbEllipse
 10
-29.73386892049248
 20
204.3078403513495
 30
0.0
 11
1.249999999999869
 21
2.165063509461171
 31
0.0
210
0.0
220
0.0
230
1.0
 40
0.5773502691896257
 41
3.926990816986997
 42
5.497787143781891
  0
ELLIPSE
  5
159C6
330
15937
100
AcDbEntity
  8
0
100
AcDbEllipse
 10
-27.96610196752612
 20
203.2872196251898
 30
0.0
 11
-1.249999999999999
 21
-2.165063509461097
 31
0.0
210
0.0
220
0.0
230
0.9999999999999998
 40
0.5773502691896255
 41
0.0
 42
6.283185307179586
  0
ELLIPSE
  5
159C7
330
15937
100
AcDbEntity
  8
0
100
AcDbEllipse
 10
-29.73386892049248
 20
187.9779087327949
 30
0.0
 11
1.249999999999869
 21
2.165063509461171
 31
0.0
210
0.0
220
0.0
230
1.0
 40
0.5773502691896257
 41
3.926990816986997
 42
5.497787143781891
  0
ELLIPSE
  5
159C8
330
15937
100
AcDbEntity
  8
0
100
AcDbEllipse
 10
-27.96610196752612
 20
186.9572880066353
 30
0.0
 11
-1.249999999999999
 21
-2.165063509461097
 31
0.0
210
0.0
220
0.0
230
0.9999999999999998
 40
0.5773502691896255
 41
0.0
 42
6.283185307179586
  0
ELLIPSE
  5
159C9
330
15937
100
AcDbEntity
  8
0
100
AcDbEllipse
 10
-29.73386892049248
 20
171.6479771142404
 30
0.0
 11
1.249999999999869
 21
2.165063509461171
 31
0.0
210
0.0
220
0.0
230
1.0
 40
0.5773502691896257
 41
3.926990816986997
 42
5.497787143781891
  0
ELLIPSE
  5
159CA
330
15937
100
AcDbEntity
  8
0
100
AcDbEllipse
 10
-27.96610196752612
 20
170.6273563880808
 30
0.0
 11
-1.249999999999999
 21
-2.165063509461097
 31
0.0
210
0.0
220
0.0
230
0.9999999999999998
 40
0.5773502691896255
 41
0.0
 42
6.283185307179586
  0
ELLIPSE
  5
159CB
330
15937
100
AcDbEntity
  8
0
100
AcDbEllipse
 10
-29.73386892049249
 20
155.3180454956859
 30
0.0
 11
1.249999999999869
 21
2.165063509461171
 31
0.0
210
0.0
220
0.0
230
1.0
 40
0.5773502691896257
 41
3.926990816986997
 42
5.497787143781899
  0
ELLIPSE
  5
159CC
330
15937
100
AcDbEntity
  8
0
100
AcDbEllipse
 10
-27.96610196752612
 20
154.2974247695262
 30
0.0
 11
-1.249999999999999
 21
-2.165063509461097
 31
0.0
210
0.0
220
0.0
230
0.9999999999999998
 40
0.5773502691896255
 41
0.0
 42
6.283185307179586
  0
ELLIPSE
  5
159CD
330
15937
100
AcDbEntity
  8
0
100
AcDbEllipse
 10
-29.7338689204925
 20
138.9881138771314
 30
0.0
 11
1.249999999999869
 21
2.165063509461171
 31
0.0
210
0.0
220
0.0
230
1.0
 40
0.5773502691896257
 41
3.926990816986997
 42
5.497787143781899
  0
ELLIPSE
  5
159CE
330
15937
100
AcDbEntity
  8
0
100
AcDbEllipse
 10
-27.96610196752614
 20
137.9674931509717
 30
0.0
 11
-1.249999999999999
 21
-2.165063509461097
 31
0.0
210
0.0
220
0.0
230
0.9999999999999998
 40
0.5773502691896255
 41
0.0
 42
6.283185307179586
  0
ELLIPSE
  5
159CF
330
15937
100
AcDbEntity
  8
0
100
AcDbEllipse
 10
-29.7338689204925
 20
122.6581822585769
 30
0.0
 11
1.249999999999869
 21
2.165063509461171
 31
0.0
210
0.0
220
0.0
230
1.0
 40
0.5773502691896257
 41
3.926990816986997
 42
5.497787143781899
  0
ELLIPSE
  5
159D0
330
15937
100
AcDbEntity
  8
0
100
AcDbEllipse
 10
-27.96610196752612
 20
121.6375615324172
 30
0.0
 11
-1.249999999999999
 21
-2.165063509461097
 31
0.0
210
0.0
220
0.0
230
0.9999999999999998
 40
0.5773502691896255
 41
0.0
 42
6.283185307179586
  0
ELLIPSE
  5
159D1
330
15937
100
AcDbEntity
  8
0
100
AcDbEllipse
 10
-29.7338689204925
 20
106.3282506400223
 30
0.0
 11
1.249999999999869
 21
2.165063509461171
 31
0.0
210
0.0
220
0.0
230
1.0
 40
0.5773502691896257
 41
3.926990816986997
 42
5.497787143781899
  0
ELLIPSE
  5
159D2
330
15937
100
AcDbEntity
  8
0
100
AcDbEllipse
 10
-27.96610196752614
 20
105.3076299138627
 30
0.0
 11
-1.249999999999999
 21
-2.165063509461097
 31
0.0
210
0.0
220
0.0
230
0.9999999999999998
 40
0.5773502691896255
 41
0.0
 42
6.283185307179586
  0
ELLIPSE
  5
159D3
330
15937
100
AcDbEntity
  8
0
100
AcDbEllipse
 10
-29.7338689204925
 20
89.99831902146784
 30
0.0
 11
1.249999999999869
 21
2.165063509461171
 31
0.0
210
0.0
220
0.0
230
1.0
 40
0.5773502691896257
 41
3.926990816986997
 42
5.497787143781899
  0
ELLIPSE
  5
159D4
330
15937
100
AcDbEntity
  8
0
100
AcDbEllipse
 10
-27.96610196752614
 20
88.97769829530815
 30
0.0
 11
-1.249999999999999
 21
-2.165063509461097
 31
0.0
210
0.0
220
0.0
230
0.9999999999999998
 40
0.5773502691896255
 41
0.0
 42
6.283185307179586
  0
ELLIPSE
  5
159D5
330
15937
100
AcDbEntity
  8
0
100
AcDbEllipse
 10
-29.7338689204925
 20
73.66838740291335
 30
0.0
 11
1.249999999999869
 21
2.165063509461171
 31
0.0
210
0.0
220
0.0
230
1.0
 40
0.5773502691896257
 41
3.926990816986997
 42
5.497787143781894
  0
ELLIPSE
  5
159D6
330
15937
100
AcDbEntity
  8
0
100
AcDbEllipse
 10
-27.96610196752614
 20
72.6477666767537
 30
0.0
 11
-1.249999999999999
 21
-2.165063509461097
 31
0.0
210
0.0
220
0.0
230
0.9999999999999998
 40
0.5773502691896255
 41
0.0
 42
6.283185307179586
  0
ELLIPSE
  5
159D7
330
15937
100
AcDbEntity
  8
0
100
AcDbEllipse
 10
-29.73386892049252
 20
57.33845578435886
 30
0.0
 11
1.249999999999869
 21
2.165063509461171
 31
0.0
210
0.0
220
0.0
230
1.0
 40
0.5773502691896257
 41
3.926990816986997
 42
5.497787143781894
  0
ELLIPSE
  5
159D8
330
15937
100
AcDbEntity
  8
0
100
AcDbEllipse
 10
-27.96610196752614
 20
56.31783505819921
 30
0.0
 11
-1.249999999999999
 21
-2.165063509461097
 31
0.0
210
0.0
220
0.0
230
0.9999999999999998
 40
0.5773502691896255
 41
0.0
 42
6.283185307179586
  0
ELLIPSE
  5
159D9
330
15937
100
AcDbEntity
  8
0
100
AcDbEllipse
 10
-29.73386892049252
 20
41.00852416580433
 30
0.0
 11
1.249999999999869
 21
2.165063509461171
 31
0.0
210
0.0
220
0.0
230
1.0
 40
0.5773502691896257
 41
3.926990816986997
 42
5.497787143781894
  0
ELLIPSE
  5
159DA
330
15937
100
AcDbEntity
  8
0
100
AcDbEllipse
 10
-27.96610196752615
 20
39.98790343964469
 30
0.0
 11
-1.249999999999999
 21
-2.165063509461097
 31
0.0
210
0.0
220
0.0
230
0.9999999999999998
 40
0.5773502691896255
 41
0.0
 42
6.283185307179586
  0
ELLIPSE
  5
159DB
330
15937
100
AcDbEntity
  8
0
100
AcDbEllipse
 10
-29.73386892049254
 20
24.67859254724985
 30
0.0
 11
1.249999999999869
 21
2.165063509461171
 31
0.0
210
0.0
220
0.0
230
1.0
 40
0.5773502691896257
 41
3.926990816986997
 42
5.497787143781894
  0
ELLIPSE
  5
159DC
330
15937
100
AcDbEntity
  8
0
100
AcDbEllipse
 10
-27.96610196752616
 20
23.6579718210902
 30
0.0
 11
-1.249999999999999
 21
-2.165063509461097
 31
0.0
210
0.0
220
0.0
230
0.9999999999999998
 40
0.5773502691896255
 41
0.0
 42
6.283185307179586
  0
ELLIPSE
  5
159DD
330
15937
100
AcDbEntity
  8
0
100
AcDbEllipse
 10
-29.73386892049252
 20
8.348660928695323
 30
0.0
 11
1.249999999999869
 21
2.165063509461171
 31
0.0
210
0.0
220
0.0
230
1.0
 40
0.5773502691896257
 41
3.926990816986997
 42
5.497787143781894
  0
ELLIPSE
  5
159DE
330
15937
100
AcDbEntity
  8
0
100
AcDbEllipse
 10
-27.96610196752615
 20
7.328040202535675
 30
0.0
 11
-1.249999999999999
 21
-2.165063509461097
 31
0.0
210
0.0
220
0.0
230
0.9999999999999998
 40
0.5773502691896255
 41
0.0
 42
6.283185307179586
  0
ELLIPSE
  5
159DF
330
15937
100
AcDbEntity
  8
0
100
AcDbEllipse
 10
-29.73386892049252
 20
-7.981270689859201
 30
0.0
 11
1.249999999999869
 21
2.165063509461171
 31
0.0
210
0.0
220
0.0
230
1.0
 40
0.5773502691896257
 41
3.926990816986997
 42
5.497787143781894
  0
ELLIPSE
  5
159E0
330
15937
100
AcDbEntity
  8
0
100
AcDbEllipse
 10
-27.96610196752615
 20
-9.00189141601885
 30
0.0
 11
-1.249999999999999
 21
-2.165063509461097
 31
0.0
210
0.0
220
0.0
230
0.9999999999999998
 40
0.5773502691896255
 41
0.0
 42
6.283185307179586
  0
ELLIPSE
  5
159E1
330
15937
100
AcDbEntity
  8
0
100
AcDbEllipse
 10
-29.73386892049252
 20
-24.31120230841373
 30
0.0
 11
1.249999999999869
 21
2.165063509461171
 31
0.0
210
0.0
220
0.0
230
1.0
 40
0.5773502691896257
 41
3.926990816986997
 42
5.497787143781894
  0
ELLIPSE
  5
159E2
330
15937
100
AcDbEntity
  8
0
100
AcDbEllipse
 10
-27.96610196752615
 20
-25.33182303457337
 30
0.0
 11
-1.249999999999999
 21
-2.165063509461097
 31
0.0
210
0.0
220
0.0
230
0.9999999999999998
 40
0.5773502691896255
 41
0.0
 42
6.283185307179586
  0
ELLIPSE
  5
159E3
330
15937
100
AcDbEntity
  8
0
100
AcDbEllipse
 10
-29.73386892049254
 20
-40.64113392696825
 30
0.0
 11
1.249999999999869
 21
2.165063509461171
 31
0.0
210
0.0
220
0.0
230
1.0
 40
0.5773502691896257
 41
3.926990816986997
 42
5.497787143781894
  0
ELLIPSE
  5
159E4
330
15937
100
AcDbEntity
  8
0
100
AcDbEllipse
 10
-27.96610196752617
 20
-41.6617546531279
 30
0.0
 11
-1.249999999999999
 21
-2.165063509461097
 31
0.0
210
0.0
220
0.0
230
0.9999999999999998
 40
0.5773502691896255
 41
0.0
 42
6.283185307179586
  0
ELLIPSE
  5
159E5
330
15937
100
AcDbEntity
  8
0
100
AcDbEllipse
 10
-29.73386892049254
 20
-56.97106554552277
 30
0.0
 11
1.249999999999869
 21
2.165063509461171
 31
0.0
210
0.0
220
0.0
230
1.0
 40
0.5773502691896257
 41
3.926990816986997
 42
5.497787143781894
  0
ELLIPSE
  5
159E6
330
15937
100
AcDbEntity
  8
0
100
AcDbEllipse
 10
-27.96610196752618
 20
-57.99168627168242
 30
0.0
 11
-1.249999999999999
 21
-2.165063509461097
 31
0.0
210
0.0
220
0.0
230
0.9999999999999998
 40
0.5773502691896255
 41
0.0
 42
6.283185307179586
  0
ELLIPSE
  5
159E7
330
15937
100
AcDbEntity
  8
0
100
AcDbEllipse
 10
-29.73386892049256
 20
-73.30099716407727
 30
0.0
 11
1.249999999999869
 21
2.165063509461171
 31
0.0
210
0.0
220
0.0
230
1.0
 40
0.5773502691896257
 41
3.926990816986997
 42
5.497787143781894
  0
ELLIPSE
  5
159E8
330
15937
100
AcDbEntity
  8
0
100
AcDbEllipse
 10
-27.96610196752619
 20
-74.32161789023692
 30
0.0
 11
-1.249999999999999
 21
-2.165063509461097
 31
0.0
210
0.0
220
0.0
230
0.9999999999999998
 40
0.5773502691896255
 41
0.0
 42
6.283185307179586
  0
ELLIPSE
  5
159E9
330
15937
100
AcDbEntity
  8
0
100
AcDbEllipse
 10
-29.73386892049256
 20
-89.63092878263177
 30
0.0
 11
1.249999999999869
 21
2.165063509461171
 31
0.0
210
0.0
220
0.0
230
1.0
 40
0.5773502691896257
 41
3.926990816986997
 42
5.497787143781899
  0
ELLIPSE
  5
159EA
330
15937
100
AcDbEntity
  8
0
100
AcDbEllipse
 10
-27.96610196752619
 20
-90.65154950879142
 30
0.0
 11
-1.249999999999999
 21
-2.165063509461097
 31
0.0
210
0.0
220
0.0
230
0.9999999999999998
 40
0.5773502691896255
 41
0.0
 42
6.283185307179586
  0
ELLIPSE
  5
159EB
330
15937
100
AcDbEntity
  8
0
100
AcDbEllipse
 10
-29.73386892049256
 20
-105.9608604011863
 30
0.0
 11
1.249999999999869
 21
2.165063509461171
 31
0.0
210
0.0
220
0.0
230
1.0
 40
0.5773502691896257
 41
3.926990816986997
 42
5.497787143781899
  0
ELLIPSE
  5
159EC
330
15937
100
AcDbEntity
  8
0
100
AcDbEllipse
 10
-27.96610196752619
 20
-106.9814811273459
 30
0.0
 11
-1.249999999999999
 21
-2.165063509461097
 31
0.0
210
0.0
220
0.0
230
0.9999999999999998
 40
0.5773502691896255
 41
0.0
 42
6.283185307179586
  0
ELLIPSE
  5
159ED
330
15937
100
AcDbEntity
  8
0
100
AcDbEllipse
 10
-29.73386892049256
 20
-122.2907920197408
 30
0.0
 11
1.249999999999869
 21
2.165063509461171
 31
0.0
210
0.0
220
0.0
230
1.0
 40
0.5773502691896257
 41
3.926990816986997
 42
5.497787143781899
  0
ELLIPSE
  5
159EE
330
15937
100
AcDbEntity
  8
0
100
AcDbEllipse
 10
-27.96610196752619
 20
-123.3114127459004
 30
0.0
 11
-1.249999999999999
 21
-2.165063509461097
 31
0.0
210
0.0
220
0.0
230
0.9999999999999998
 40
0.5773502691896255
 41
0.0
 42
6.283185307179586
  0
ELLIPSE
  5
159EF
330
15937
100
AcDbEntity
  8
0
100
AcDbEllipse
 10
53.70473125951989
 20
193.6933847992891
 30
0.0
 11
-1.249999999999872
 21
2.16506350946117
 31
0.0
210
0.0
220
0.0
230
1.0
 40
0.5773502691896262
 41
3.699191480289644
 42
8.867179134070241
  0
ELLIPSE
  5
159F0
330
15937
100
AcDbEntity
  8
0
100
AcDbEllipse
 10
55.47249821248627
 20
194.7140055254488
 30
0.0
 11
1.250000000000131
 21
-2.16506350946102
 31
0.0
210
0.0
220
0.0
230
1.0
 40
0.5773502691896263
 41
3.926990816987
 42
5.497787143781899
  0
ELLIPSE
  5
159F1
330
15937
100
AcDbEntity
  8
0
100
AcDbEllipse
 10
40.97680919816203
 20
192.8768882183614
 30
0.0
 11
1.249999999999873
 21
-2.165063509461169
 31
0.0
210
0.0
220
0.0
230
1.0
 40
0.5773502691896262
 41
0.0
 42
6.283185307179586
  0
ELLIPSE
  5
159F2
330
15937
100
AcDbEntity
  8
0
100
AcDbEllipse
 10
42.74457615112839
 20
193.897508944521
 30
0.0
 11
1.250000000000131
 21
-2.16506350946102
 31
0.0
210
0.0
220
0.0
230
1.0
 40
0.5773502691896263
 41
3.926990816987
 42
5.497787143781904
  0
ELLIPSE
  5
159F3
330
15937
100
AcDbEntity
  8
0
100
AcDbEllipse
 10
30.3702074803639
 20
161.4417698526439
 30
0.0
 11
1.249999999999997
 21
2.165063509461097
 31
0.0
210
0.0
220
0.0
230
0.9999999999999998
 40
0.5773502691896255
 41
0.0
 42
6.283185307179586
  0
ELLIPSE
  5
159F4
330
15937
100
AcDbEntity
  8
0
100
AcDbEllipse
 10
28.60244052739753
 20
162.4623905788036
 30
0.0
 11
1.249999999999868
 21
2.165063509461171
 31
0.0
210
0.0
220
0.0
230
1.0
 40
0.5773502691896254
 41
3.926990816986998
 42
5.497787143781891
  0
ELLIPSE
  5
159F5
330
15937
100
AcDbEntity
  8
0
100
AcDbEllipse
 10
30.3702074803639
 20
145.1118382340894
 30
0.0
 11
1.249999999999997
 21
2.165063509461097
 31
0.0
210
0.0
220
0.0
230
0.9999999999999998
 40
0.5773502691896255
 41
0.0
 42
6.283185307179586
  0
ELLIPSE
  5
159F6
330
15937
100
AcDbEntity
  8
0
100
AcDbEllipse
 10
28.60244052739754
 20
146.132458960249
 30
0.0
 11
1.249999999999868
 21
2.165063509461171
 31
0.0
210
0.0
220
0.0
230
1.0
 40
0.5773502691896254
 41
3.926990816986997
 42
5.497787143781899
  0
ELLIPSE
  5
159F7
330
15937
100
AcDbEntity
  8
0
100
AcDbEllipse
 10
30.37020748036392
 20
128.7819066155349
 30
0.0
 11
1.249999999999997
 21
2.165063509461097
 31
0.0
210
0.0
220
0.0
230
0.9999999999999998
 40
0.5773502691896255
 41
0.0
 42
6.283185307179586
  0
ELLIPSE
  5
159F8
330
15937
100
AcDbEntity
  8
0
100
AcDbEllipse
 10
28.60244052739755
 20
129.8025273416945
 30
0.0
 11
1.249999999999868
 21
2.165063509461171
 31
0.0
210
0.0
220
0.0
230
1.0
 40
0.5773502691896254
 41
3.926990816986997
 42
5.497787143781899
  0
ELLIPSE
  5
159F9
330
15937
100
AcDbEntity
  8
0
100
AcDbEllipse
 10
30.37020748036392
 20
112.4519749969803
 30
0.0
 11
1.249999999999997
 21
2.165063509461097
 31
0.0
210
0.0
220
0.0
230
0.9999999999999998
 40
0.5773502691896255
 41
0.0
 42
6.283185307179586
  0
ELLIPSE
  5
159FA
330
15937
100
AcDbEntity
  8
0
100
AcDbEllipse
 10
28.60244052739755
 20
113.47259572314
 30
0.0
 11
1.249999999999868
 21
2.165063509461171
 31
0.0
210
0.0
220
0.0
230
1.0
 40
0.5773502691896254
 41
3.926990816986997
 42
5.497787143781899
  0
ELLIPSE
  5
159FB
330
15937
100
AcDbEntity
  8
0
100
AcDbEllipse
 10
30.37020748036392
 20
96.12204337842584
 30
0.0
 11
1.249999999999997
 21
2.165063509461097
 31
0.0
210
0.0
220
0.0
230
0.9999999999999998
 40
0.5773502691896255
 41
0.0
 42
6.283185307179586
  0
ELLIPSE
  5
159FC
330
15937
100
AcDbEntity
  8
0
100
AcDbEllipse
 10
28.60244052739755
 20
97.14266410458549
 30
0.0
 11
1.249999999999868
 21
2.165063509461171
 31
0.0
210
0.0
220
0.0
230
1.0
 40
0.5773502691896254
 41
3.926990816986997
 42
5.497787143781899
  0
ELLIPSE
  5
159FD
330
15937
100
AcDbEntity
  8
0
100
AcDbEllipse
 10
30.37020748036394
 20
79.79211175987131
 30
0.0
 11
1.249999999999997
 21
2.165063509461097
 31
0.0
210
0.0
220
0.0
230
0.9999999999999998
 40
0.5773502691896255
 41
0.0
 42
6.283185307179586
  0
ELLIPSE
  5
159FE
330
15937
100
AcDbEntity
  8
0
100
AcDbEllipse
 10
28.60244052739757
 20
80.81273248603096
 30
0.0
 11
1.249999999999868
 21
2.165063509461171
 31
0.0
210
0.0
220
0.0
230
1.0
 40
0.5773502691896254
 41
3.926990816986997
 42
5.497787143781899
  0
ELLIPSE
  5
159FF
330
15937
100
AcDbEntity
  8
0
100
AcDbEllipse
 10
30.37020748036395
 20
63.46218014131679
 30
0.0
 11
1.249999999999997
 21
2.165063509461097
 31
0.0
210
0.0
220
0.0
230
0.9999999999999998
 40
0.5773502691896255
 41
0.0
 42
6.283185307179586
  0
ELLIPSE
  5
15A00
330
15937
100
AcDbEntity
  8
0
100
AcDbEllipse
 10
28.60244052739758
 20
64.48280086747644
 30
0.0
 11
1.249999999999868
 21
2.165063509461171
 31
0.0
210
0.0
220
0.0
230
1.0
 40
0.5773502691896254
 41
3.926990816987
 42
5.497787143781895
  0
ELLIPSE
  5
15A01
330
15937
100
AcDbEntity
  8
0
100
AcDbEllipse
 10
30.37020748036395
 20
47.13224852276223
 30
0.0
 11
1.249999999999997
 21
2.165063509461097
 31
0.0
210
0.0
220
0.0
230
0.9999999999999998
 40
0.5773502691896255
 41
0.0
 42
6.283185307179586
  0
ELLIPSE
  5
15A02
330
15937
100
AcDbEntity
  8
0
100
AcDbEllipse
 10
28.60244052739758
 20
48.15286924892188
 30
0.0
 11
1.249999999999868
 21
2.165063509461171
 31
0.0
210
0.0
220
0.0
230
1.0
 40
0.5773502691896254
 41
3.926990816987
 42
5.497787143781895
  0
ELLIPSE
  5
15A03
330
15937
100
AcDbEntity
  8
0
100
AcDbEllipse
 10
30.37020748036395
 20
30.80231690420771
 30
0.0
 11
1.249999999999997
 21
2.165063509461097
 31
0.0
210
0.0
220
0.0
230
0.9999999999999998
 40
0.5773502691896255
 41
0.0
 42
6.283185307179586
  0
ELLIPSE
  5
15A04
330
15937
100
AcDbEntity
  8
0
100
AcDbEllipse
 10
28.60244052739759
 20
31.82293763036736
 30
0.0
 11
1.249999999999868
 21
2.165063509461171
 31
0.0
210
0.0
220
0.0
230
1.0
 40
0.5773502691896254
 41
3.926990816987
 42
5.497787143781895
  0
ELLIPSE
  5
15A05
330
15937
100
AcDbEntity
  8
0
100
AcDbEllipse
 10
30.37020748036397
 20
14.47238528565318
 30
0.0
 11
1.249999999999997
 21
2.165063509461097
 31
0.0
210
0.0
220
0.0
230
0.9999999999999998
 40
0.5773502691896255
 41
0.0
 42
6.283185307179586
  0
ELLIPSE
  5
15A06
330
15937
100
AcDbEntity
  8
0
100
AcDbEllipse
 10
28.60244052739759
 20
15.49300601181283
 30
0.0
 11
1.249999999999868
 21
2.165063509461171
 31
0.0
210
0.0
220
0.0
230
1.0
 40
0.5773502691896254
 41
3.926990816987
 42
5.497787143781895
  0
ELLIPSE
  5
15A07
330
15937
100
AcDbEntity
  8
0
100
AcDbEllipse
 10
30.37020748036397
 20
-1.857546332901307
 30
0.0
 11
1.249999999999997
 21
2.165063509461097
 31
0.0
210
0.0
220
0.0
230
0.9999999999999998
 40
0.5773502691896255
 41
0.0
 42
6.283185307179586
  0
ELLIPSE
  5
15A08
330
15937
100
AcDbEntity
  8
0
100
AcDbEllipse
 10
28.6024405273976
 20
-0.8369256067416586
 30
0.0
 11
1.249999999999868
 21
2.165063509461171
 31
0.0
210
0.0
220
0.0
230
1.0
 40
0.5773502691896254
 41
3.926990816986998
 42
5.497787143781895
  0
ELLIPSE
  5
15A09
330
15937
100
AcDbEntity
  8
0
100
AcDbEllipse
 10
30.37020748036397
 20
-18.18747795145583
 30
0.0
 11
1.249999999999997
 21
2.165063509461097
 31
0.0
210
0.0
220
0.0
230
0.9999999999999998
 40
0.5773502691896255
 41
0.0
 42
6.283185307179586
  0
ELLIPSE
  5
15A0A
330
15937
100
AcDbEntity
  8
0
100
AcDbEllipse
 10
28.6024405273976
 20
-17.16685722529618
 30
0.0
 11
1.249999999999868
 21
2.165063509461171
 31
0.0
210
0.0
220
0.0
230
1.0
 40
0.5773502691896254
 41
3.926990816986997
 42
5.497787143781895
  0
ELLIPSE
  5
15A0B
330
15937
100
AcDbEntity
  8
0
100
AcDbEllipse
 10
30.37020748036399
 20
-34.51740957001036
 30
0.0
 11
1.249999999999997
 21
2.165063509461097
 31
0.0
210
0.0
220
0.0
230
0.9999999999999998
 40
0.5773502691896255
 41
0.0
 42
6.283185307179586
  0
ELLIPSE
  5
15A0C
330
15937
100
AcDbEntity
  8
0
100
AcDbEllipse
 10
28.60244052739762
 20
-33.49678884385071
 30
0.0
 11
1.249999999999868
 21
2.165063509461171
 31
0.0
210
0.0
220
0.0
230
1.0
 40
0.5773502691896254
 41
3.926990816987
 42
5.497787143781895
  0
ELLIPSE
  5
15A0D
330
15937
100
AcDbEntity
  8
0
100
AcDbEllipse
 10
30.37020748036399
 20
-50.84734118856488
 30
0.0
 11
1.249999999999997
 21
2.165063509461097
 31
0.0
210
0.0
220
0.0
230
0.9999999999999998
 40
0.5773502691896255
 41
0.0
 42
6.283185307179586
  0
ELLIPSE
  5
15A0E
330
15937
100
AcDbEntity
  8
0
100
AcDbEllipse
 10
28.60244052739762
 20
-49.82672046240522
 30
0.0
 11
1.249999999999868
 21
2.165063509461171
 31
0.0
210
0.0
220
0.0
230
1.0
 40
0.5773502691896254
 41
3.926990816986997
 42
5.497787143781895
  0
ELLIPSE
  5
15A0F
330
15937
100
AcDbEntity
  8
0
100
AcDbEllipse
 10
30.370207480364
 20
-67.1772728071194
 30
0.0
 11
1.249999999999997
 21
2.165063509461097
 31
0.0
210
0.0
220
0.0
230
0.9999999999999998
 40
0.5773502691896255
 41
0.0
 42
6.283185307179586
  0
ELLIPSE
  5
15A10
330
15937
100
AcDbEntity
  8
0
100
AcDbEllipse
 10
28.60244052739763
 20
-66.15665208095975
 30
0.0
 11
1.249999999999868
 21
2.165063509461171
 31
0.0
210
0.0
220
0.0
230
1.0
 40
0.5773502691896254
 41
3.926990816987
 42
5.497787143781895
  0
ELLIPSE
  5
15A11
330
15937
100
AcDbEntity
  8
0
100
AcDbEllipse
 10
30.370207480364
 20
-83.50720442567391
 30
0.0
 11
1.249999999999997
 21
2.165063509461097
 31
0.0
210
0.0
220
0.0
230
0.9999999999999998
 40
0.5773502691896255
 41
0.0
 42
6.283185307179586
  0
ELLIPSE
  5
15A12
330
15937
100
AcDbEntity
  8
0
100
AcDbEllipse
 10
28.60244052739763
 20
-82.48658369951426
 30
0.0
 11
1.249999999999868
 21
2.165063509461171
 31
0.0
210
0.0
220
0.0
230
1.0
 40
0.5773502691896254
 41
3.926990816987
 42
5.497787143781899
  0
ELLIPSE
  5
15A13
330
15937
100
AcDbEntity
  8
0
100
AcDbEllipse
 10
30.37020748036402
 20
-99.83713604422845
 30
0.0
 11
1.249999999999997
 21
2.165063509461097
 31
0.0
210
0.0
220
0.0
230
0.9999999999999998
 40
0.5773502691896255
 41
0.0
 42
6.283185307179586
  0
ELLIPSE
  5
15A14
330
15937
100
AcDbEntity
  8
0
100
AcDbEllipse
 10
28.60244052739765
 20
-98.81651531806879
 30
0.0
 11
1.249999999999868
 21
2.165063509461171
 31
0.0
210
0.0
220
0.0
230
1.0
 40
0.5773502691896254
 41
3.926990816987
 42
5.497787143781899
  0
ELLIPSE
  5
15A15
330
15937
100
AcDbEntity
  8
0
100
AcDbEllipse
 10
30.37020748036403
 20
-116.1670676627829
 30
0.0
 11
1.249999999999997
 21
2.165063509461097
 31
0.0
210
0.0
220
0.0
230
0.9999999999999998
 40
0.5773502691896255
 41
0.0
 42
6.283185307179586
  0
ELLIPSE
  5
15A16
330
15937
100
AcDbEntity
  8
0
100
AcDbEllipse
 10
28.60244052739766
 20
-115.1464469366232
 30
0.0
 11
1.249999999999868
 21
2.165063509461171
 31
0.0
210
0.0
220
0.0
230
1.0
 40
0.5773502691896254
 41
3.926990816986997
 42
5.497787143781899
  0
ELLIPSE
  5
15A17
330
15937
100
AcDbEntity
  8
0
100
AcDbEllipse
 10
30.37020748036404
 20
-132.4969992813374
 30
0.0
 11
1.249999999999997
 21
2.165063509461097
 31
0.0
210
0.0
220
0.0
230
0.9999999999999998
 40
0.5773502691896255
 41
0.0
 42
6.283185307179586
  0
ELLIPSE
  5
15A18
330
15937
100
AcDbEntity
  8
0
100
AcDbEllipse
 10
28.60244052739766
 20
-131.4763785551777
 30
0.0
 11
1.249999999999868
 21
2.165063509461171
 31
0.0
210
0.0
220
0.0
230
1.0
 40
0.5773502691896254
 41
3.926990816986997
 42
5.497787143781899
  0
ELLIPSE
  5
15A19
330
15937
100
AcDbEntity
  8
0
100
AcDbEllipse
 10
30.37020748036404
 20
-148.8269308998919
 30
0.0
 11
1.249999999999997
 21
2.165063509461097
 31
0.0
210
0.0
220
0.0
230
0.9999999999999998
 40
0.5773502691896255
 41
0.0
 42
6.283185307179586
  0
ELLIPSE
  5
15A1A
330
15937
100
AcDbEntity
  8
0
100
AcDbEllipse
 10
28.60244052739767
 20
-147.8063101737322
 30
0.0
 11
1.249999999999868
 21
2.165063509461171
 31
0.0
210
0.0
220
0.0
230
1.0
 40
0.5773502691896254
 41
3.926990816986997
 42
5.497787143781899
  0
ENDBLK
  5
15939
330
15937
100
AcDbEntity
  8
0
100
AcDbBlockEnd
  0
ENDSEC
  0
SECTION
  2
ENTITIES
  0
INSERT
  5
15A1B
330
1F
100
AcDbEntity
  8
0
100
AcDbBlockReference
  2
GLI1020_80_25-Front
 10
0.0
 20
0.0
 30
0.0
  0
INSERT
  5
15A1C
330
1F
100
AcDbEntity
  8
0
100
AcDbBlockReference
  2
GLI1020_80_25-Left
 10
184.2500000000004
 20
0.0
 30
0.0
  0
INSERT
  5
15A1D
330
1F
100
AcDbEntity
  8
0
100
AcDbBlockReference
  2
GLI1020_80_25-Right
 10
-184.2500000000006
 20
0.0
 30
0.0
  0
INSERT
  5
15A1E
330
1F
100
AcDbEntity
  8
0
100
AcDbBlockReference
  2
GLI1020_80_25-Top
 10
0.0
 20
-144.2500000000004
 30
0.0
  0
INSERT
  5
15A1F
330
1F
100
AcDbEntity
  8
0
100
AcDbBlockReference
  2
GLI1020_80_25-Bottom
 10
0.0
 20
611.7500000000015
 30
0.0
  0
INSERT
  5
15A20
330
1F
100
AcDbEntity
  8
0
100
AcDbBlockReference
  2
GLI1020_80_25-ISO
 10
248.9149439111084
 20
-373.2858752371138
 30
0.0
  0
MTEXT
  5
15A21
330
1F
100
AcDbEntity
  8
0
100
AcDbMText
 10
0.0
 20
-383.9000000000009
 30
0.0
 40
17.54761904761908
 41
0.0
 71
     5
 72
     5
  1
GLI1020/80/2.5
 73
     1
 44
1.0
1001
ACAD
1000
MTEXTBEGIN
1070
    73
1070
     1
1070
    44
1040
1.0
1070
    74
1070
     0
1000
MTEXTEND
  0
ENDSEC
  0
SECTION
  2
OBJECTS
  0
DICTIONARY
  5
C
330
0
100
AcDbDictionary
281
     1
  3
ACAD_CIP_PREVIOUS_PRODUCT_INFO
350
1A5
  3
ACAD_COLOR
350
73
  3
ACAD_DETAILVIEWSTYLE
350
1AB
  3
ACAD_GROUP
350
D
  3
ACAD_LAYOUT
350
1A
  3
ACAD_MATERIAL
350
72
  3
ACAD_MLEADERSTYLE
350
D7
  3
ACAD_MLINESTYLE
350
17
  3
ACAD_PLOTSETTINGS
350
19
  3
ACAD_PLOTSTYLENAME
350
E
  3
ACAD_SCALELIST
350
B6
  3
ACAD_SECTIONVIEWSTYLE
350
1A8
  3
ACAD_TABLESTYLE
350
86
  3
ACAD_VISUALSTYLE
350
99
  3
ACDB_RECOMPOSE_DATA
350
15B19
  3
AcDbVariableDictionary
350
66
  3
DWGPROPS
350
15B1A
  0
DICTIONARY
  5
15A71
330
8
100
AcDbDictionary
280
     1
281
     1
  0
DICTIONARY
  5
18E
330
2
100
AcDbDictionary
280
     1
281
     1
  3
ACAD_LAYERSTATES
360
18F
  0
DICTIONARY
  5
E6
330
10
100
AcDbDictionary
280
     1
281
     1
  0
DICTIONARY
  5
15D
330
1F
100
AcDbDictionary
280
     1
281
     1
  3
ACAD_LAYOUTSELFREF
360
15A79
  0
DICTIONARY
  5
15A25
330
58
100
AcDbDictionary
280
     1
281
     1
  3
ACAD_LAYOUTSELFREF
360
15A7B
  0
DICTIONARY
  5
15A27
330
5D
100
AcDbDictionary
280
     1
281
     1
  3
ACAD_LAYOUTSELFREF
360
15A7E
  0
XRECORD
  5
1A5
102
{ACAD_REACTORS
330
C
102
}
330
C
100
AcDbXrecord
280
     1
300
ACD
300
2021
300
87393ACD_2021_0F
  0
DICTIONARY
  5
73
102
{ACAD_REACTORS
330
C
102
}
330
C
100
AcDbDictionary
281
     1
  0
DICTIONARY
  5
1AB
102
{ACAD_REACTORS
330
C
102
}
330
C
100
AcDbDictionary
281
     1
  3
Imperial24
350
1AC
  0
DICTIONARY
  5
D
102
{ACAD_REACTORS
330
C
102
}
330
C
100
AcDbDictionary
281
     1
  0
DICTIONARY
  5
1A
102
{ACAD_REACTORS
330
C
102
}
330
C
100
AcDbDictionary
281
     1
  3
Layout1
350
59
  3
Layout2
350
5E
  3
Model
350
22
  0
DICTIONARY
  5
72
102
{ACAD_REACTORS
330
C
102
}
330
C
100
AcDbDictionary
281
     1
  3
ByBlock
350
97
  3
ByLayer
350
96
  3
Global
350
98
  0
DICTIONARY
  5
D7
102
{ACAD_REACTORS
330
C
102
}
330
C
100
AcDbDictionary
281
     1
  3
Standard
350
D8
  0
DICTIONARY
  5
17
102
{ACAD_REACTORS
330
C
102
}
330
C
100
AcDbDictionary
281
     1
  3
Standard
350
18
  0
DICTIONARY
  5
19
102
{ACAD_REACTORS
330
C
102
}
330
C
100
AcDbDictionary
281
     1
  0
ACDBDICTIONARYWDFLT
  5
E
102
{ACAD_REACTORS
330
C
102
}
330
C
100
AcDbDictionary
281
     1
  3
Normal
350
F
100
AcDbDictionaryWithDefault
340
F
  0
DICTIONARY
  5
B6
102
{ACAD_REACTORS
330
C
102
}
330
C
100
AcDbDictionary
281
     1
  3
A0
350
B7
  3
A1
350
124
  3
A2
350
125
  3
A3
350
126
  3
A4
350
127
  3
A5
350
128
  3
A6
350
129
  3
A7
350
12A
  3
A8
350
12B
  3
A9
350
12C
  3
B0
350
12D
  3
B1
350
12E
  3
B2
350
12F
  3
B3
350
130
  3
B4
350
131
  3
B5
350
132
  3
B6
350
133
  3
B7
350
134
  3
B8
350
135
  3
B9
350
136
  3
C0
350
137
  3
C1
350
138
  3
C2
350
139
  3
C3
350
13A
  3
C4
350
13B
  3
C5
350
13C
  3
C6
350
13D
  3
C7
350
13E
  3
C8
350
13F
  3
C9
350
140
  3
D0
350
141
  3
D1
350
142
  3
D2
350
143
  0
DICTIONARY
  5
1A8
102
{ACAD_REACTORS
330
C
102
}
330
C
100
AcDbDictionary
281
     1
  3
Imperial24
350
1AA
  0
DICTIONARY
  5
86
102
{ACAD_REACTORS
330
C
102
}
330
C
100
AcDbDictionary
281
     1
  3
Standard
350
87
  0
DICTIONARY
  5
99
102
{ACAD_REACTORS
330
C
102
}
330
C
100
AcDbDictionary
281
     1
  3
2dWireframe
350
9F
  3
Basic
350
9E
  3
Brighten
350
A5
  3
ColorChange
350
A9
  3
Conceptual
350
A2
  3
Dim
350
A4
  3
EdgeColorOff
350
175
  3
Facepattern
350
A8
  3
Flat
350
9A
  3
FlatWithEdges
350
9B
  3
Gouraud
350
9C
  3
GouraudWithEdges
350
9D
  3
Hidden
350
A1
  3
JitterOff
350
173
  3
Linepattern
350
A7
  3
OverhangOff
350
174
  3
Realistic
350
A3
  3
Shaded
350
182
  3
Shaded with edges
350
181
  3
Shades of Gray
350
17E
  3
Sketchy
350
17F
  3
Thicken
350
A6
  3
Wireframe
350
A0
  3
X-Ray
350
180
  0
XRECORD
  5
15B19
102
{ACAD_REACTORS
330
C
102
}
330
C
100
AcDbXrecord
280
     1
 90
        1
330
87
  0
DICTIONARY
  5
66
102
{ACAD_REACTORS
330
C
102
}
330
C
100
AcDbDictionary
281
     1
  3
CANNOSCALE
350
F0
  3
CMLEADERSTYLE
350
EF
  3
CTABLESTYLE
350
89
  3
CVIEWDETAILSTYLE
350
1B7
  3
CVIEWSECTIONSTYLE
350
1B8
  3
DIMASSOC
350
67
  3
HIDETEXT
350
6B
  3
INDEXCTL
350
15ACC
  3
LAYEREVAL
350
14D
  3
LAYERNOTIFY
350
14E
  3
LIGHTINGUNITS
350
15ACA
  3
MSLTSCALE
350
15AC9
  3
SORTENTS
350
15ACB
  3
XCLIPFRAME
350
15B17
  0
XRECORD
  5
15B1A
102
{ACAD_REACTORS
330
C
102
}
330
C
100
AcDbXrecord
280
     1
  1
DWGPROPS COOKIE
  2

  3

  4

  6

  7

  8
truole
  9

300
=
301
=
302
=
303
=
304
=
305
=
306
=
307
=
308
=
309
=
 40
0.0028472222222222
 41
2460384.667083333
 42
2460384.682905093
  1

 90
        0
  0
DICTIONARY
  5
18F
102
{ACAD_REACTORS
330
18E
102
}
330
18E
100
AcDbDictionary
281
     1
  0
XRECORD
  5
15A79
102
{ACAD_REACTORS
330
15D
102
}
330
15D
100
AcDbXrecord
280
     1
340
1F
  0
XRECORD
  5
15A7B
102
{ACAD_REACTORS
330
15A25
102
}
330
15A25
100
AcDbXrecord
280
     1
340
58
  0
XRECORD
  5
15A7E
102
{ACAD_REACTORS
330
15A27
102
}
330
15A27
100
AcDbXrecord
280
     1
340
5D
  0
ACDBDETAILVIEWSTYLE
  5
1AC
102
{ACAD_XDICTIONARY
360
15B59
102
}
102
{ACAD_REACTORS
330
1AB
102
}
330
1AB
100
AcDbModelDocViewStyle
 70
     0
  3
Imperial24
290
     0
100
AcDbDetailViewStyle
 70
     0
 71
     0
 90
        3
 71
     1
340
11
 40
0.24
340
0
 40
0.24
300

 40
0.36
280
     3
 71
     2
340
16
 90
       25
 71
     3
340
11
 40
0.24
 90
        1
 40
0.75
 90
        1
300
%<\AcVar ViewType \f "%tc1">% %<\AcVar ViewDetailId>%\PSCALE %<\AcVar ViewScale \f "%sn">%
 71
     4
340
16
 90
       25
340
16
 90
       25
280
     0
  0
LAYOUT
  5
59
102
{ACAD_XDICTIONARY
360
15B1D
102
}
102
{ACAD_REACTORS
330
1A
102
}
330
1A
100
AcDbPlotSettings
  1

  2
None
  4

  6

 40
0.0
 41
0.0
 42
0.0
 43
0.0
 44
0.0
 45
0.0
 46
0.0
 47
0.0
 48
0.0
 49
0.0
140
0.0
141
0.0
142
1.0
143
1.0
 70
   688
 72
     0
 73
     0
 74
     5
  7

 75
    16
147
1.0
148
0.0
149
0.0
100
AcDbLayout
  1
Layout1
 70
     1
 71
     1
 10
0.0
 20
0.0
 11
12.0
 21
9.0
 12
0.0
 22
0.0
 32
0.0
 14
0.0
 24
0.0
 34
0.0
 15
0.0
 25
0.0
 35
0.0
146
0.0
 13
0.0
 23
0.0
 33
0.0
 16
1.0
 26
0.0
 36
0.0
 17
0.0
 27
1.0
 37
0.0
 76
     0
330
58
  0
LAYOUT
  5
5E
102
{ACAD_XDICTIONARY
360
15B1F
102
}
102
{ACAD_REACTORS
330
1A
102
}
330
1A
100
AcDbPlotSettings
  1

  2
None
  4

  6

 40
0.0
 41
0.0
 42
0.0
 43
0.0
 44
0.0
 45
0.0
 46
0.0
 47
0.0
 48
0.0
 49
0.0
140
0.0
141
0.0
142
1.0
143
1.0
 70
   688
 72
     0
 73
     0
 74
     5
  7

 75
    16
147
1.0
148
0.0
149
0.0
100
AcDbLayout
  1
Layout2
 70
     1
 71
     2
 10
0.0
 20
0.0
 11
12.0
 21
9.0
 12
0.0
 22
0.0
 32
0.0
 14
0.0
 24
0.0
 34
0.0
 15
0.0
 25
0.0
 35
0.0
146
0.0
 13
0.0
 23
0.0
 33
0.0
 16
1.0
 26
0.0
 36
0.0
 17
0.0
 27
1.0
 37
0.0
 76
     0
330
5D
  0
LAYOUT
  5
22
102
{ACAD_XDICTIONARY
360
15B1B
102
}
102
{ACAD_REACTORS
330
1A
102
}
330
1A
100
AcDbPlotSettings
  1

  2
none_device
  4
ANSI_A_(8.50_x_11.00_Inches)
  6

 40
6.349999904632568
 41
19.04999923706055
 42
6.350006103515625
 43
19.04998779296875
 44
215.8999938964844
 45
279.3999938964844
 46
0.0
 47
0.0
 48
0.0
 49
0.0
140
0.0
141
0.0
142
1.0
143
2.584895464708373
 70
 11952
 72
     0
 73
     1
 74
     0
  7

 75
     0
147
0.3868628397755418
148
0.0
149
0.0
100
AcDbLayout
  1
Model
 70
     1
 71
     0
 10
0.0
 20
0.0
 11
12.0
 21
9.0
 12
0.0
 22
0.0
 32
0.0
 14
0.0
 24
0.0
 34
0.0
 15
0.0
 25
0.0
 35
0.0
146
0.0
 13
0.0
 23
0.0
 33
0.0
 16
1.0
 26
0.0
 36
0.0
 17
0.0
 27
1.0
 37
0.0
 76
     0
330
1F
331
94
  0
MATERIAL
  5
97
102
{ACAD_XDICTIONARY
360
188
102
}
102
{ACAD_REACTORS
330
72
102
}
330
72
100
AcDbMaterial
  1
ByBlock
  0
MATERIAL
  5
96
102
{ACAD_XDICTIONARY
360
186
102
}
102
{ACAD_REACTORS
330
72
102
}
330
72
100
AcDbMaterial
  1
ByLayer
  0
MATERIAL
  5
98
102
{ACAD_XDICTIONARY
360
110
102
}
102
{ACAD_REACTORS
330
72
102
}
330
72
100
AcDbMaterial
  1
Global
 43
0.0208000000566244
 43
0.0
 43
0.0
 43
0.0
 43
0.0
 43
0.0208000000566244
 43
0.0
 43
0.0
 43
0.0
 43
0.0
 43
1.0
 43
0.0
 43
0.0
 43
0.0
 43
0.0
 43
1.0
 49
0.0208000000566244
 49
0.0
 49
0.0
 49
0.0
 49
0.0
 49
0.0208000000566244
 49
0.0
 49
0.0
 49
0.0
 49
0.0
 49
1.0
 49
0.0
 49
0.0
 49
0.0
 49
0.0
 49
1.0
142
0.0208000000566244
142
0.0
142
0.0
142
0.0
142
0.0
142
0.0208000000566244
142
0.0
142
0.0
142
0.0
142
0.0
142
1.0
142
0.0
142
0.0
142
0.0
142
0.0
142
1.0
144
0.0208000000566244
144
0.0
144
0.0
144
0.0
144
0.0
144
0.0208000000566244
144
0.0
144
0.0
144
0.0
144
0.0
144
1.0
144
0.0
144
0.0
144
0.0
144
0.0
144
1.0
1001
ACAD
1070
    -1
1070
     3
1070
     0
1000

1071
        0
1070
     0
  0
MLEADERSTYLE
  5
D8
102
{ACAD_XDICTIONARY
360
15B45
102
}
102
{ACAD_REACTORS
330
D7
102
}
330
D7
100
AcDbMLeaderStyle
170
     2
171
     1
172
     0
 90
        2
 40
0.0
 41
0.0
173
     1
 91
-1056964608
340
14
 92
       -2
290
     1
 42
0.09
291
     1
 43
0.36
  3
Standard
 44
0.18
300

342
11
174
     1
178
     1
175
     1
176
     0
 93
-1056964608
 45
0.18
292
     0
297
     0
 46
0.18
 94
-1056964608
 47
1.0
 49
1.0
140
1.0
293
     1
141
0.0
294
     1
177
     0
142
1.0
295
     0
296
     0
143
0.125
1001
ACAD_MLEADERVER
1070
     2
  0
MLINESTYLE
  5
18
102
{ACAD_REACTORS
330
17
102
}
330
17
100
AcDbMlineStyle
  2
STANDARD
 70
     0
  3

 62
   256
 51
90.0
 52
90.0
 71
     2
 49
0.5
 62
   256
  6
BYLAYER
 49
-0.5
 62
   256
  6
BYLAYER
  0
ACDBPLACEHOLDER
  5
F
102
{ACAD_REACTORS
330
E
102
}
330
E
  0
SCALE
  5
B7
102
{ACAD_REACTORS
330
B6
102
}
330
B6
100
AcDbScale
 70
     0
300
1:1
140
1.0
141
1.0
290
     1
  0
SCALE
  5
124
102
{ACAD_REACTORS
330
B6
102
}
330
B6
100
AcDbScale
 70
     0
300
1:2
140
1.0
141
2.0
290
     0
  0
SCALE
  5
125
102
{ACAD_REACTORS
330
B6
102
}
330
B6
100
AcDbScale
 70
     0
300
1:4
140
1.0
141
4.0
290
     0
  0
SCALE
  5
126
102
{ACAD_REACTORS
330
B6
102
}
330
B6
100
AcDbScale
 70
     0
300
1:5
140
1.0
141
5.0
290
     0
  0
SCALE
  5
127
102
{ACAD_REACTORS
330
B6
102
}
330
B6
100
AcDbScale
 70
     0
300
1:8
140
1.0
141
8.0
290
     0
  0
SCALE
  5
128
102
{ACAD_REACTORS
330
B6
102
}
330
B6
100
AcDbScale
 70
     0
300
1:10
140
1.0
141
10.0
290
     0
  0
SCALE
  5
129
102
{ACAD_REACTORS
330
B6
102
}
330
B6
100
AcDbScale
 70
     0
300
1:16
140
1.0
141
16.0
290
     0
  0
SCALE
  5
12A
102
{ACAD_REACTORS
330
B6
102
}
330
B6
100
AcDbScale
 70
     0
300
1:20
140
1.0
141
20.0
290
     0
  0
SCALE
  5
12B
102
{ACAD_REACTORS
330
B6
102
}
330
B6
100
AcDbScale
 70
     0
300
1:30
140
1.0
141
30.0
290
     0
  0
SCALE
  5
12C
102
{ACAD_REACTORS
330
B6
102
}
330
B6
100
AcDbScale
 70
     0
300
1:40
140
1.0
141
40.0
290
     0
  0
SCALE
  5
12D
102
{ACAD_REACTORS
330
B6
102
}
330
B6
100
AcDbScale
 70
     0
300
1:50
140
1.0
141
50.0
290
     0
  0
SCALE
  5
12E
102
{ACAD_REACTORS
330
B6
102
}
330
B6
100
AcDbScale
 70
     0
300
1:100
140
1.0
141
100.0
290
     0
  0
SCALE
  5
12F
102
{ACAD_REACTORS
330
B6
102
}
330
B6
100
AcDbScale
 70
     0
300
2:1
140
2.0
141
1.0
290
     0
  0
SCALE
  5
130
102
{ACAD_REACTORS
330
B6
102
}
330
B6
100
AcDbScale
 70
     0
300
4:1
140
4.0
141
1.0
290
     0
  0
SCALE
  5
131
102
{ACAD_REACTORS
330
B6
102
}
330
B6
100
AcDbScale
 70
     0
300
8:1
140
8.0
141
1.0
290
     0
  0
SCALE
  5
132
102
{ACAD_REACTORS
330
B6
102
}
330
B6
100
AcDbScale
 70
     0
300
10:1
140
10.0
141
1.0
290
     0
  0
SCALE
  5
133
102
{ACAD_REACTORS
330
B6
102
}
330
B6
100
AcDbScale
 70
     0
300
100:1
140
100.0
141
1.0
290
     0
  0
SCALE
  5
134
102
{ACAD_REACTORS
330
B6
102
}
330
B6
100
AcDbScale
 70
     0
300
1/128" = 1'-0"
140
0.0078125
141
12.0
290
     0
  0
SCALE
  5
135
102
{ACAD_REACTORS
330
B6
102
}
330
B6
100
AcDbScale
 70
     0
300
1/64" = 1'-0"
140
0.015625
141
12.0
290
     0
  0
SCALE
  5
136
102
{ACAD_REACTORS
330
B6
102
}
330
B6
100
AcDbScale
 70
     0
300
1/32" = 1'-0"
140
0.03125
141
12.0
290
     0
  0
SCALE
  5
137
102
{ACAD_REACTORS
330
B6
102
}
330
B6
100
AcDbScale
 70
     0
300
1/16" = 1'-0"
140
0.0625
141
12.0
290
     0
  0
SCALE
  5
138
102
{ACAD_REACTORS
330
B6
102
}
330
B6
100
AcDbScale
 70
     0
300
3/32" = 1'-0"
140
0.09375
141
12.0
290
     0
  0
SCALE
  5
139
102
{ACAD_REACTORS
330
B6
102
}
330
B6
100
AcDbScale
 70
     0
300
1/8" = 1'-0"
140
0.125
141
12.0
290
     0
  0
SCALE
  5
13A
102
{ACAD_REACTORS
330
B6
102
}
330
B6
100
AcDbScale
 70
     0
300
3/16" = 1'-0"
140
0.1875
141
12.0
290
     0
  0
SCALE
  5
13B
102
{ACAD_REACTORS
330
B6
102
}
330
B6
100
AcDbScale
 70
     0
300
1/4" = 1'-0"
140
0.25
141
12.0
290
     0
  0
SCALE
  5
13C
102
{ACAD_REACTORS
330
B6
102
}
330
B6
100
AcDbScale
 70
     0
300
3/8" = 1'-0"
140
0.375
141
12.0
290
     0
  0
SCALE
  5
13D
102
{ACAD_REACTORS
330
B6
102
}
330
B6
100
AcDbScale
 70
     0
300
1/2" = 1'-0"
140
0.5
141
12.0
290
     0
  0
SCALE
  5
13E
102
{ACAD_REACTORS
330
B6
102
}
330
B6
100
AcDbScale
 70
     0
300
3/4" = 1'-0"
140
0.75
141
12.0
290
     0
  0
SCALE
  5
13F
102
{ACAD_REACTORS
330
B6
102
}
330
B6
100
AcDbScale
 70
     0
300
1" = 1'-0"
140
1.0
141
12.0
290
     0
  0
SCALE
  5
140
102
{ACAD_REACTORS
330
B6
102
}
330
B6
100
AcDbScale
 70
     0
300
1-1/2" = 1'-0"
140
1.5
141
12.0
290
     0
  0
SCALE
  5
141
102
{ACAD_REACTORS
330
B6
102
}
330
B6
100
AcDbScale
 70
     0
300
3" = 1'-0"
140
3.0
141
12.0
290
     0
  0
SCALE
  5
142
102
{ACAD_REACTORS
330
B6
102
}
330
B6
100
AcDbScale
 70
     0
300
6" = 1'-0"
140
6.0
141
12.0
290
     0
  0
SCALE
  5
143
102
{ACAD_REACTORS
330
B6
102
}
330
B6
100
AcDbScale
 70
     0
300
1'-0" = 1'-0"
140
12.0
141
12.0
290
     0
  0
ACDBSECTIONVIEWSTYLE
  5
1AA
102
{ACAD_XDICTIONARY
360
15B57
102
}
102
{ACAD_REACTORS
330
1A8
102
}
330
1A8
100
AcDbModelDocViewStyle
 70
     0
  3
Imperial24
290
     0
100
AcDbSectionViewStyle
 70
     0
 71
     0
 90
       78
 71
     1
340
11
 40
0.24
340
0
340
0
 40
0.24
300
I, O, Q, S, X, Z
 40
0.48
 90
        3
 40
0.18
 90
        1
 71
     2
340
16
 90
       25
340
16
 90
       50
 40
0.24
 40
0.0
 40
0.24
 71
     3
340
11
 40
0.24
 90
        1
 40
0.75
 90
        1
300
%<\AcVar ViewType \f "%tc1">% %<\AcVar ViewSectionStartId>%-%<\AcVar ViewSectionEndId>%\PSCALE %<\AcVar ViewScale \f "%sn">%
 71
     4
300
ANSI31
 40
1.0
 90
        0
290
     0
290
     0
 90
        6
 40
0.0
 40
1.570796326794896
 40
0.2617993877991494
 40
1.308996938995747
 40
-0.2617993877991494
 40
1.832595714594046
  0
TABLESTYLE
  5
87
102
{ACAD_XDICTIONARY
360
104
102
}
102
{ACAD_REACTORS
330
86
102
}
330
86
100
AcDbTableStyle
  3
Standard
 70
     0
 71
     0
 40
0.06
 41
0.06
280
     0
281
     0
  7
Standard
140
0.18
170
     2
 62
     0
 63
     7
283
     0
274
    -2
284
     1
 64
     0
275
    -2
285
     1
 65
     0
276
    -2
286
     1
 66
     0
277
    -2
287
     1
 67
     0
278
    -2
288
     1
 68
     0
279
    -2
289
     1
 69
     0
  7
Standard
140
0.25
170
     5
 62
     0
 63
     7
283
     0
274
    -2
284
     1
 64
     0
275
    -2
285
     1
 65
     0
276
    -2
286
     1
 66
     0
277
    -2
287
     1
 67
     0
278
    -2
288
     1
 68
     0
279
    -2
289
     1
 69
     0
  7
Standard
140
0.18
170
     5
 62
     0
 63
     7
283
     0
274
    -2
284
     1
 64
     0
275
    -2
285
     1
 65
     0
276
    -2
286
     1
 66
     0
277
    -2
287
     1
 67
     0
278
    -2
288
     1
 68
     0
279
    -2
289
     1
 69
     0
  0
VISUALSTYLE
  5
9F
102
{ACAD_XDICTIONARY
360
15B2F
102
}
102
{ACAD_REACTORS
330
99
102
}
330
99
100
AcDbVisualStyle
  2
2dWireframe
 70
     4
 71
     0
 72
     2
 73
     1
 90
        0
 40
-0.6
 41
-30.0
 62
     5
 63
     7
 74
     1
 91
        4
 64
     7
 65
   257
 75
     1
175
     1
 42
1.0
 92
        0
 66
   257
 43
1.0
 76
     1
 77
     6
 78
     2
 67
     7
 79
     5
170
     0
171
     0
290
     0
174
     0
 93
        1
 44
0.0
173
     0
291
     0
 45
0.0
1001
ACAD
1000
AcDbSavedByObjectVersion
1070
     0
  0
VISUALSTYLE
  5
9E
102
{ACAD_XDICTIONARY
360
15B2D
102
}
102
{ACAD_REACTORS
330
99
102
}
330
99
100
AcDbVisualStyle
  2
Basic
 70
     7
 71
     1
 72
     0
 73
     1
 90
        0
 40
-0.6
 41
-30.0
 62
     5
 63
     7
 74
     0
 91
        4
 64
     7
 65
   257
 75
     1
175
     1
 42
1.0
 92
        8
 66
     7
 43
1.0
 76
     1
 77
     6
 78
     2
 67
     7
 79
     5
170
     0
171
     0
290
     0
174
     0
 93
        1
 44
0.0
173
     0
291
     1
 45
0.0
1001
ACAD
1000
AcDbSavedByObjectVersion
1070
     0
  0
VISUALSTYLE
  5
A5
102
{ACAD_XDICTIONARY
360
15B3B
102
}
102
{ACAD_REACTORS
330
99
102
}
330
99
100
AcDbVisualStyle
  2
Brighten
 70
    12
 71
     2
 72
     2
 73
     1
 90
        0
 40
-0.6
 41
-30.0
 62
     5
 63
     7
 74
     1
 91
        4
 64
     7
 65
   257
 75
     1
175
     1
 42
1.0
 92
        8
 66
     7
 43
1.0
 76
     1
 77
     6
 78
     2
 67
     7
 79
     5
170
     0
171
     0
290
     0
174
     0
 93
        1
 44
50.0
173
     0
291
     1
 45
0.0
1001
ACAD
1000
AcDbSavedByObjectVersion
1070
     0
  0
VISUALSTYLE
  5
A9
102
{ACAD_XDICTIONARY
360
15B43
102
}
102
{ACAD_REACTORS
330
99
102
}
330
99
100
AcDbVisualStyle
  2
ColorChange
 70
    16
 71
     2
 72
     2
 73
     3
 90
        0
 40
-0.6
 41
-30.0
 62
     5
 63
     8
 74
     1
 91
        4
 64
     7
 65
   257
 75
     1
175
     1
 42
1.0
 92
        8
 66
     8
 43
1.0
 76
     1
 77
     6
 78
     2
 67
     7
 79
     5
170
     0
171
     0
290
     0
174
     0
 93
        1
 44
0.0
173
     0
291
     1
 45
0.0
1001
ACAD
1000
AcDbSavedByObjectVersion
1070
     0
  0
VISUALSTYLE
  5
A2
102
{ACAD_XDICTIONARY
360
15B35
102
}
102
{ACAD_REACTORS
330
99
102
}
330
99
100
AcDbVisualStyle
  2
Conceptual
 70
     9
 71
     3
 72
     2
 73
     1
 90
        0
 40
-0.6
 41
-30.0
 62
     5
 63
     7
 74
     2
 91
        2
 64
     7
 65
   257
 75
     1
175
     1
 42
40.0
 92
        8
 66
     7
 43
1.0
 76
     1
 77
     6
 78
     2
 67
     7
 79
     3
170
     0
171
     0
290
     0
174
     0
 93
        1
 44
0.0
173
     0
291
     0
 45
0.0
1001
ACAD
1000
AcDbSavedByObjectVersion
1070
     0
  0
VISUALSTYLE
  5
A4
102
{ACAD_XDICTIONARY
360
15B39
102
}
102
{ACAD_REACTORS
330
99
102
}
330
99
100
AcDbVisualStyle
  2
Dim
 70
    11
 71
     2
 72
     2
 73
     1
 90
        0
 40
-0.6
 41
-30.0
 62
     5
 63
     7
 74
     1
 91
        4
 64
     7
 65
   257
 75
     1
175
     1
 42
1.0
 92
        8
 66
     7
 43
1.0
 76
     1
 77
     6
 78
     2
 67
     7
 79
     5
170
     0
171
     0
290
     0
174
     0
 93
        1
 44
-50.0
173
     0
291
     1
 45
0.0
1001
ACAD
1000
AcDbSavedByObjectVersion
1070
     0
  0
VISUALSTYLE
  5
175
102
{ACAD_XDICTIONARY
360
15B4B
102
}
102
{ACAD_REACTORS
330
99
102
}
330
99
100
AcDbVisualStyle
  2
EdgeColorOff
 70
    22
 71
     2
 72
     2
 73
     0
 90
        0
 40
-0.6
 41
-30.0
 62
     5
 63
     7
 74
     1
 91
        4
 64
     7
 65
   257
 75
     1
175
     1
 42
1.0
 92
        8
 66
     7
 43
1.0
 76
     1
 77
     6
 78
     2
 67
     7
 79
     5
170
     0
171
     0
290
     0
174
     0
 93
        1
 44
0.0
173
     0
291
     1
 45
0.0
1001
ACAD
1000
AcDbSavedByObjectVersion
1070
     0
  0
VISUALSTYLE
  5
A8
102
{ACAD_XDICTIONARY
360
15B41
102
}
102
{ACAD_REACTORS
330
99
102
}
330
99
100
AcDbVisualStyle
  2
Facepattern
 70
    15
 71
     2
 72
     2
 73
     1
 90
        0
 40
-0.6
 41
-30.0
 62
     5
 63
     7
 74
     1
 91
        4
 64
     7
 65
   257
 75
     1
175
     1
 42
1.0
 92
        8
 66
     7
 43
1.0
 76
     1
 77
     6
 78
     2
 67
     7
 79
     5
170
     0
171
     0
290
     0
174
     0
 93
        1
 44
0.0
173
     0
291
     1
 45
0.0
1001
ACAD
1000
AcDbSavedByObjectVersion
1070
     0
  0
VISUALSTYLE
  5
9A
102
{ACAD_XDICTIONARY
360
15B25
102
}
102
{ACAD_REACTORS
330
99
102
}
330
99
100
AcDbVisualStyle
  2
Flat
 70
     0
 71
     2
 72
     1
 73
     1
 90
        2
 40
-0.6
 41
30.0
 62
     5
 63
     7
 74
     0
 91
        0
 64
     7
 65
   257
 75
     1
175
     1
 42
1.0
 92
        8
 66
     7
 43
1.0
 76
     1
 77
     6
 78
     2
 67
     7
 79
     5
170
     0
171
     0
290
     0
174
     0
 93
       13
 44
0.0
173
     0
291
     1
 45
0.0
1001
ACAD
1000
AcDbSavedByObjectVersion
1070
     0
  0
VISUALSTYLE
  5
9B
102
{ACAD_XDICTIONARY
360
15B27
102
}
102
{ACAD_REACTORS
330
99
102
}
330
99
100
AcDbVisualStyle
  2
FlatWithEdges
 70
     1
 71
     2
 72
     1
 73
     1
 90
        2
 40
-0.6
 41
30.0
 62
     5
 63
     7
 74
     1
 91
        0
 64
     7
 65
   257
 75
     1
175
     1
 42
1.0
 92
        0
 66
   257
 43
1.0
 76
     1
 77
     6
 78
     2
 67
     7
 79
     5
170
     0
171
     0
290
     0
174
     0
 93
       13
 44
0.0
173
     0
291
     1
 45
0.0
1001
ACAD
1000
AcDbSavedByObjectVersion
1070
     0
  0
VISUALSTYLE
  5
9C
102
{ACAD_XDICTIONARY
360
15B29
102
}
102
{ACAD_REACTORS
330
99
102
}
330
99
100
AcDbVisualStyle
  2
Gouraud
 70
     2
 71
     2
 72
     2
 73
     1
 90
        2
 40
-0.6
 41
30.0
 62
     5
 63
     7
 74
     0
 91
        0
 64
     7
 65
   257
 75
     1
175
     1
 42
1.0
 92
        0
 66
     7
 43
1.0
 76
     1
 77
     6
 78
     2
 67
     7
 79
     5
170
     0
171
     0
290
     0
174
     0
 93
       13
 44
0.0
173
     0
291
     1
 45
0.0
1001
ACAD
1000
AcDbSavedByObjectVersion
1070
     0
  0
VISUALSTYLE
  5
9D
102
{ACAD_XDICTIONARY
360
15B2B
102
}
102
{ACAD_REACTORS
330
99
102
}
330
99
100
AcDbVisualStyle
  2
GouraudWithEdges
 70
     3
 71
     2
 72
     2
 73
     1
 90
        2
 40
-0.6
 41
30.0
 62
     5
 63
     7
 74
     1
 91
        0
 64
     7
 65
   257
 75
     1
175
     1
 42
1.0
 92
        0
 66
   257
 43
1.0
 76
     1
 77
     6
 78
     2
 67
     7
 79
     5
170
     0
171
     0
290
     0
174
     0
 93
       13
 44
0.0
173
     0
291
     1
 45
0.0
1001
ACAD
1000
AcDbSavedByObjectVersion
1070
     0
  0
VISUALSTYLE
  5
A1
102
{ACAD_XDICTIONARY
360
15B33
102
}
102
{ACAD_REACTORS
330
99
102
}
330
99
100
AcDbVisualStyle
  2
Hidden
 70
     6
 71
     1
 72
     2
 73
     2
 90
        0
 40
-0.6
 41
-30.0
 62
     5
 63
     7
 74
     2
 91
        2
 64
     7
 65
   257
 75
     2
175
     1
 42
40.0
 92
        0
 66
   257
 43
1.0
 76
     1
 77
     6
 78
     2
 67
     7
 79
     3
170
     0
171
     0
290
     0
174
     0
 93
        1
 44
0.0
173
     0
291
     0
 45
0.0
1001
ACAD
1000
AcDbSavedByObjectVersion
1070
     0
  0
VISUALSTYLE
  5
173
102
{ACAD_XDICTIONARY
360
15B47
102
}
102
{ACAD_REACTORS
330
99
102
}
330
99
100
AcDbVisualStyle
  2
JitterOff
 70
    20
 71
     2
 72
     2
 73
     0
 90
        0
 40
-0.6
 41
-30.0
 62
     5
 63
     7
 74
     1
 91
        4
 64
     7
 65
   257
 75
     1
175
     1
 42
1.0
 92
       10
 66
     7
 43
1.0
 76
     1
 77
     6
 78
     2
 67
     7
 79
     5
170
     0
171
     0
290
     0
174
     0
 93
        1
 44
0.0
173
     0
291
     1
 45
0.0
1001
ACAD
1000
AcDbSavedByObjectVersion
1070
     0
  0
VISUALSTYLE
  5
A7
102
{ACAD_XDICTIONARY
360
15B3F
102
}
102
{ACAD_REACTORS
330
99
102
}
330
99
100
AcDbVisualStyle
  2
Linepattern
 70
    14
 71
     2
 72
     2
 73
     1
 90
        0
 40
-0.6
 41
-30.0
 62
     5
 63
     7
 74
     1
 91
        4
 64
     7
 65
   257
 75
     7
175
     7
 42
1.0
 92
        8
 66
     7
 43
1.0
 76
     1
 77
     6
 78
     2
 67
     7
 79
     5
170
     0
171
     0
290
     0
174
     0
 93
        1
 44
0.0
173
     0
291
     1
 45
0.0
1001
ACAD
1000
AcDbSavedByObjectVersion
1070
     0
  0
VISUALSTYLE
  5
174
102
{ACAD_XDICTIONARY
360
15B49
102
}
102
{ACAD_REACTORS
330
99
102
}
330
99
100
AcDbVisualStyle
  2
OverhangOff
 70
    21
 71
     2
 72
     2
 73
     0
 90
        0
 40
-0.6
 41
-30.0
 62
     5
 63
     7
 74
     1
 91
        4
 64
     7
 65
   257
 75
     1
175
     1
 42
1.0
 92
        9
 66
     7
 43
1.0
 76
     1
 77
     6
 78
     2
 67
     7
 79
     5
170
     0
171
     0
290
     0
174
     0
 93
        1
 44
0.0
173
     0
291
     1
 45
0.0
1001
ACAD
1000
AcDbSavedByObjectVersion
1070
     0
  0
VISUALSTYLE
  5
A3
102
{ACAD_XDICTIONARY
360
15B37
102
}
102
{ACAD_REACTORS
330
99
102
}
330
99
100
AcDbVisualStyle
  2
Realistic
 70
     8
 71
     2
 72
     2
 73
     0
 90
        2
 40
-0.6
 41
30.0
 62
     5
 63
     7
 74
     0
 91
        0
 64
     7
 65
   257
 75
     1
175
     1
 42
1.0
 92
        8
 66
   257
 43
1.0
 76
     1
 77
     6
 78
     2
 67
     7
 79
     3
170
     0
171
     0
290
     0
174
     0
 93
       13
 44
0.0
173
     0
291
     0
 45
0.0
1001
ACAD
1000
AcDbSavedByObjectVersion
1070
     0
  0
VISUALSTYLE
  5
182
102
{ACAD_XDICTIONARY
360
15B55
102
}
102
{ACAD_REACTORS
330
99
102
}
330
99
100
AcDbVisualStyle
  2
Shaded
 70
    27
 71
     2
 72
     2
 73
     1
 90
        2
 40
-0.6
 41
30.0
 62
     5
 63
     7
 74
     0
 91
        4
 64
     7
 65
   257
 75
     1
175
     1
 42
1.0
 92
        8
 66
   257
 43
1.0
 76
     1
 77
     6
 78
     2
 67
     8
 79
     3
170
     0
171
     0
290
     0
174
     0
 93
        5
 44
0.0
173
     0
291
     0
 45
0.0
1001
ACAD
1000
AcDbSavedByObjectVersion
1070
     0
  0
VISUALSTYLE
  5
181
102
{ACAD_XDICTIONARY
360
15B53
102
}
102
{ACAD_REACTORS
330
99
102
}
330
99
100
AcDbVisualStyle
  2
Shaded with edges
 70
    26
 71
     2
 72
     2
 73
     1
 90
        2
 40
-0.6
 41
30.0
 62
     5
 63
     7
 74
     1
 91
        2
 64
     7
 65
   257
 75
     2
175
     1
 42
1.0
 92
        8
 66
   257
 43
1.0
 76
     1
 77
     6
 78
     2
 67
     7
 79
     3
170
     0
171
     0
290
     0
174
     0
 93
        5
 44
0.0
173
     0
291
     0
 45
0.0
1001
ACAD
1000
AcDbSavedByObjectVersion
1070
     0
  0
VISUALSTYLE
  5
17E
102
{ACAD_XDICTIONARY
360
15B4D
102
}
102
{ACAD_REACTORS
330
99
102
}
330
99
100
AcDbVisualStyle
  2
Shades of Gray
 70
    23
 71
     2
 72
     2
 73
     3
 90
        0
 40
-0.6
 41
-30.0
 62
     5
 63
     7
 74
     2
 91
        2
 64
     7
 65
     7
 75
     1
175
     1
 42
40.0
 92
        8
 66
     7
 43
1.0
 76
     1
 77
     6
 78
     2
 67
     7
 79
     3
170
     0
171
     0
290
     0
174
     0
 93
        1
 44
0.0
173
     0
291
     0
 45
0.0
1001
ACAD
1000
AcDbSavedByObjectVersion
1070
     0
  0
VISUALSTYLE
  5
17F
102
{ACAD_XDICTIONARY
360
15B4F
102
}
102
{ACAD_REACTORS
330
99
102
}
330
99
100
AcDbVisualStyle
  2
Sketchy
 70
    24
 71
     1
 72
     2
 73
     2
 90
        0
 40
-0.6
 41
-30.0
 62
     5
 63
     7
 74
     2
 91
        2
 64
     7
 65
     7
 75
     1
175
     1
 42
40.0
 92
       11
 66
     7
 43
1.0
 76
     1
 77
     6
 78
     2
 67
     7
 79
     6
170
     0
171
     0
290
     0
174
     0
 93
        1
 44
0.0
173
     0
291
     0
 45
0.0
1001
ACAD
1000
AcDbSavedByObjectVersion
1070
     0
  0
VISUALSTYLE
  5
A6
102
{ACAD_XDICTIONARY
360
15B3D
102
}
102
{ACAD_REACTORS
330
99
102
}
330
99
100
AcDbVisualStyle
  2
Thicken
 70
    13
 71
     2
 72
     2
 73
     1
 90
        0
 40
-0.6
 41
-30.0
 62
     5
 63
     7
 74
     1
 91
        4
 64
     7
 65
   257
 75
     1
175
     1
 42
1.0
 92
       12
 66
     7
 43
1.0
 76
     1
 77
     6
 78
     2
 67
     7
 79
     5
170
     0
171
     0
290
     0
174
     0
 93
        1
 44
0.0
173
     0
291
     1
 45
0.0
1001
ACAD
1000
AcDbSavedByObjectVersion
1070
     0
  0
VISUALSTYLE
  5
A0
102
{ACAD_XDICTIONARY
360
15B31
102
}
102
{ACAD_REACTORS
330
99
102
}
330
99
100
AcDbVisualStyle
  2
Wireframe
 70
     5
 71
     0
 72
     2
 73
     0
 90
        0
 40
-0.6
 41
-30.0
 62
     5
 63
     7
 74
     1
 91
        4
 64
     7
 65
   257
 75
     1
175
     1
 42
1.0
 92
        0
 66
   257
 43
1.0
 76
     1
 77
     6
 78
     2
 67
     7
 79
     3
170
     0
171
     0
290
     0
174
     0
 93
        1
 44
0.0
173
     0
291
     0
 45
0.0
1001
ACAD
1000
AcDbSavedByObjectVersion
1070
     0
  0
VISUALSTYLE
  5
180
102
{ACAD_XDICTIONARY
360
15B51
102
}
102
{ACAD_REACTORS
330
99
102
}
330
99
100
AcDbVisualStyle
  2
X-Ray
 70
    25
 71
     2
 72
     2
 73
     1
 90
        1
 40
0.5
 41
-30.0
 62
     5
 63
     7
 74
     1
 91
        0
 64
     7
 65
   257
 75
     1
175
     1
 42
1.0
 92
        8
 66
     7
 43
1.0
 76
     1
 77
     6
 78
     2
 67
     7
 79
     3
170
     0
171
     0
290
     0
174
     0
 93
       13
 44
0.0
173
     0
291
     0
 45
0.0
1001
ACAD
1000
AcDbSavedByObjectVersion
1070
     0
  0
DICTIONARYVAR
  5
F0
102
{ACAD_REACTORS
330
66
102
}
330
66
100
DictionaryVariables
280
     0
  1
1:1
  0
DICTIONARYVAR
  5
EF
102
{ACAD_REACTORS
330
66
102
}
330
66
100
DictionaryVariables
280
     0
  1
STANDARD
  0
DICTIONARYVAR
  5
89
102
{ACAD_REACTORS
330
66
102
}
330
66
100
DictionaryVariables
280
     0
  1
STANDARD
  0
DICTIONARYVAR
  5
1B7
102
{ACAD_REACTORS
330
66
102
}
330
66
100
DictionaryVariables
280
     0
  1
Imperial24
  0
DICTIONARYVAR
  5
1B8
102
{ACAD_REACTORS
330
66
102
}
330
66
100
DictionaryVariables
280
     0
  1
Imperial24
  0
DICTIONARYVAR
  5
67
102
{ACAD_REACTORS
330
66
102
}
330
66
100
DictionaryVariables
280
     0
  1
2
  0
DICTIONARYVAR
  5
6B
102
{ACAD_REACTORS
330
66
102
}
330
66
100
DictionaryVariables
280
     0
  1
1
  0
DICTIONARYVAR
  5
15ACC
102
{ACAD_REACTORS
330
66
102
}
330
66
100
DictionaryVariables
280
     0
  1
0
  0
DICTIONARYVAR
  5
14D
102
{ACAD_REACTORS
330
66
102
}
330
66
100
DictionaryVariables
280
     0
  1
0
  0
DICTIONARYVAR
  5
14E
102
{ACAD_REACTORS
330
66
102
}
330
66
100
DictionaryVariables
280
     0
  1
0
  0
DICTIONARYVAR
  5
15ACA
102
{ACAD_REACTORS
330
66
102
}
330
66
100
DictionaryVariables
280
     0
  1
2
  0
DICTIONARYVAR
  5
15AC9
102
{ACAD_REACTORS
330
66
102
}
330
66
100
DictionaryVariables
280
     0
  1
1
  0
DICTIONARYVAR
  5
15ACB
102
{ACAD_REACTORS
330
66
102
}
330
66
100
DictionaryVariables
280
     0
  1
127
  0
DICTIONARYVAR
  5
15B17
102
{ACAD_REACTORS
330
66
102
}
330
66
100
DictionaryVariables
280
     0
  1
2
  0
DICTIONARY
  5
15B59
330
1AC
100
AcDbDictionary
280
     1
281
     1
  3
ACAD_XREC_ROUNDTRIP
360
15B5A
  0
DICTIONARY
  5
15B1D
330
59
100
AcDbDictionary
280
     1
281
     1
  3
ACAD_XREC_ROUNDTRIP
360
15B1E
  0
DICTIONARY
  5
15B1F
330
5E
100
AcDbDictionary
280
     1
281
     1
  3
ACAD_XREC_ROUNDTRIP
360
15B20
  0
DICTIONARY
  5
15B1B
330
22
100
AcDbDictionary
280
     1
281
     1
  3
ACAD_XREC_ROUNDTRIP
360
15B1C
  0
DICTIONARY
  5
188
330
97
100
AcDbDictionary
280
     1
281
     1
  3
ACAD_XREC_ROUNDTRIP
360
15B23
  3
FBXASSET
360
189
  0
DICTIONARY
  5
186
330
96
100
AcDbDictionary
280
     1
281
     1
  3
ACAD_XREC_ROUNDTRIP
360
15B22
  3
FBXASSET
360
187
  0
DICTIONARY
  5
110
330
98
100
AcDbDictionary
280
     1
281
     1
  3
ACAD_XREC_ROUNDTRIP
360
15B24
  3
BUMPTILE
360
112
  3
DIFFUSETILE
360
111
  3
FBXASSET
360
18A
  3
OPACITYTILE
360
113
  3
REFLECTIONTILE
360
114
  0
DICTIONARY
  5
15B45
330
D8
100
AcDbDictionary
280
     1
281
     1
  3
ACAD_XREC_ROUNDTRIP
360
15B46
  0
DICTIONARY
  5
15B57
330
1AA
100
AcDbDictionary
280
     1
281
     1
  3
ACAD_XREC_ROUNDTRIP
360
15B58
  0
DICTIONARY
  5
104
330
87
100
AcDbDictionary
280
     1
281
     1
  3
ACAD_ROUNDTRIP_2008_TABLESTYLE_CELLSTYLEMAP
360
15B18
  3
ACAD_XREC_ROUNDTRIP
360
15B21
  0
DICTIONARY
  5
15B2F
330
9F
100
AcDbDictionary
280
     1
281
     1
  3
ACAD_XREC_ROUNDTRIP
360
15B30
  0
DICTIONARY
  5
15B2D
330
9E
100
AcDbDictionary
280
     1
281
     1
  3
ACAD_XREC_ROUNDTRIP
360
15B2E
  0
DICTIONARY
  5
15B3B
330
A5
100
AcDbDictionary
280
     1
281
     1
  3
ACAD_XREC_ROUNDTRIP
360
15B3C
  0
DICTIONARY
  5
15B43
330
A9
100
AcDbDictionary
280
     1
281
     1
  3
ACAD_XREC_ROUNDTRIP
360
15B44
  0
DICTIONARY
  5
15B35
330
A2
100
AcDbDictionary
280
     1
281
     1
  3
ACAD_XREC_ROUNDTRIP
360
15B36
  0
DICTIONARY
  5
15B39
330
A4
100
AcDbDictionary
280
     1
281
     1
  3
ACAD_XREC_ROUNDTRIP
360
15B3A
  0
DICTIONARY
  5
15B4B
330
175
100
AcDbDictionary
280
     1
281
     1
  3
ACAD_XREC_ROUNDTRIP
360
15B4C
  0
DICTIONARY
  5
15B41
330
A8
100
AcDbDictionary
280
     1
281
     1
  3
ACAD_XREC_ROUNDTRIP
360
15B42
  0
DICTIONARY
  5
15B25
330
9A
100
AcDbDictionary
280
     1
281
     1
  3
ACAD_XREC_ROUNDTRIP
360
15B26
  0
DICTIONARY
  5
15B27
330
9B
100
AcDbDictionary
280
     1
281
     1
  3
ACAD_XREC_ROUNDTRIP
360
15B28
  0
DICTIONARY
  5
15B29
330
9C
100
AcDbDictionary
280
     1
281
     1
  3
ACAD_XREC_ROUNDTRIP
360
15B2A
  0
DICTIONARY
  5
15B2B
330
9D
100
AcDbDictionary
280
     1
281
     1
  3
ACAD_XREC_ROUNDTRIP
360
15B2C
  0
DICTIONARY
  5
15B33
330
A1
100
AcDbDictionary
280
     1
281
     1
  3
ACAD_XREC_ROUNDTRIP
360
15B34
  0
DICTIONARY
  5
15B47
330
173
100
AcDbDictionary
280
     1
281
     1
  3
ACAD_XREC_ROUNDTRIP
360
15B48
  0
DICTIONARY
  5
15B3F
330
A7
100
AcDbDictionary
280
     1
281
     1
  3
ACAD_XREC_ROUNDTRIP
360
15B40
  0
DICTIONARY
  5
15B49
330
174
100
AcDbDictionary
280
     1
281
     1
  3
ACAD_XREC_ROUNDTRIP
360
15B4A
  0
DICTIONARY
  5
15B37
330
A3
100
AcDbDictionary
280
     1
281
     1
  3
ACAD_XREC_ROUNDTRIP
360
15B38
  0
DICTIONARY
  5
15B55
330
182
100
AcDbDictionary
280
     1
281
     1
  3
ACAD_XREC_ROUNDTRIP
360
15B56
  0
DICTIONARY
  5
15B53
330
181
100
AcDbDictionary
280
     1
281
     1
  3
ACAD_XREC_ROUNDTRIP
360
15B54
  0
DICTIONARY
  5
15B4D
330
17E
100
AcDbDictionary
280
     1
281
     1
  3
ACAD_XREC_ROUNDTRIP
360
15B4E
  0
DICTIONARY
  5
15B4F
330
17F
100
AcDbDictionary
280
     1
281
     1
  3
ACAD_XREC_ROUNDTRIP
360
15B50
  0
DICTIONARY
  5
15B3D
330
A6
100
AcDbDictionary
280
     1
281
     1
  3
ACAD_XREC_ROUNDTRIP
360
15B3E
  0
DICTIONARY
  5
15B31
330
A0
100
AcDbDictionary
280
     1
281
     1
  3
ACAD_XREC_ROUNDTRIP
360
15B32
  0
DICTIONARY
  5
15B51
330
180
100
AcDbDictionary
280
     1
281
     1
  3
ACAD_XREC_ROUNDTRIP
360
15B52
  0
XRECORD
  5
15B5A
102
{ACAD_REACTORS
330
15B59
102
}
330
15B59
100
AcDbXrecord
280
     1
102
DISPLAYNAME
  1
Imperial24
102
FLAGS
 90
        0
  0
XRECORD
  5
15B1E
102
{ACAD_REACTORS
330
15B1D
102
}
330
15B1D
100
AcDbXrecord
280
     1
102
SHADEPLOT
 70
     0
102
SHADEPLOTRESLEVEL
 70
     2
102
SHADEPLOTCUSTOMDPI
 70
   300
  0
XRECORD
  5
15B20
102
{ACAD_REACTORS
330
15B1F
102
}
330
15B1F
100
AcDbXrecord
280
     1
102
SHADEPLOT
 70
     0
102
SHADEPLOTRESLEVEL
 70
     2
102
SHADEPLOTCUSTOMDPI
 70
   300
  0
XRECORD
  5
15B1C
102
{ACAD_REACTORS
330
15B1B
102
}
330
15B1B
100
AcDbXrecord
280
     1
102
SHADEPLOT
 70
     0
102
SHADEPLOTRESLEVEL
 70
     2
102
SHADEPLOTCUSTOMDPI
 70
   300
  0
XRECORD
  5
15B23
102
{ACAD_REACTORS
330
188
102
}
330
188
100
AcDbXrecord
280
     1
102
MATERIAL
148
0.0
149
0.0
149
0.0
 93
        0
 94
       63
282
     0
 72
     1
 77
     1
171
     1
175
     1
179
     1
273
     0
  0
XRECORD
  5
189
102
{ACAD_REACTORS
330
188
102
}
330
188
100
AcDbXrecord
280
     1
 70
     1
 90
429727718
  1
508B35C9-AEE7-456F-BE74-D52651303AC6
310
504B03040A0000080000B670623B3DEE336E79000000790000001B0000006175746F6465736B2D64657369676E2D7061636B6167652E786D6C3C3F786D6C2076657273696F6E3D22312E302220656E636F64696E673D227574662D3822203F3E3C666F726D6174733E3C666F726D61743E687474703A2F2F736368656D612E
310
6175746F6465736B2E636F6D2F64657369676E2D7061636B6167652F323030393C2F666F726D61743E3C2F666F726D6174733E504B0304140006080800B670623BD486FD9CA0000000F4000000130000005B436F6E74656E745F54797065735D2E786D6C7D8EC10E82300C865F65E91D8A1E8C310C0EEA1BF002731658846E
310
D98AC1B77784ABF1D8FE5FBFBF75BBCE937A534CCEB38643598122B6FEE978D0B0485F9C41B54DDD7D022595594E1A469170414C76A4D9A4D207E29CF43ECE46F218070CC6BECC4078ACAA135ACF422C856C0E68EA1BF5669944DDD7BCDE7B1F8E415D77AECB980613C2E4AC91FC167A2B244592486606FC29C8FD7F045B9A
310
EF7053A7E60B504B0304140006080800B670623B28ED286BEB0000007C01000008000000636F72652E786D6C8D90416EC3201045AF82665B6183218D6D61A254764FD00B204C5C94182C03558F5F9C3852BBEB6A467FFE9B197D71FA9E6FE8CBACC17AD7012D0820E3B41FAD9B3A48F1826B40272956EFE32F1B20A766D3C1
310
268314D3EAD3B24BDABB685CCCAAF3A3D94515828980F42D371D04FD696655A814B3235C8B45E9AB9A4C419F5D8653B2237A1CB163DE672FD6AC209BF3C08E0D1B30EB19C3FC9D72FCC6EB231EFA33EDE96BDD341517E5064B11EDFCBCAF57A3A2194156843498524CAA0FCA5B7268F9E185D42D21A2DCEC7FA0B48CFF8492
310
759155FBBB0F2C80A4F991FB408A72CB22977B50B96EB9C91F504B0304140006080800B670623B55019EA25F0000007C00000007000000636E782E786D6C4DCB3B0E80201045D1AD90E915ED2CF8AC45050C11660C8261F98AB1B07AC9C97D42D718D865D3E909258CFD00CCE24AC6E326A164D74DC0B4128928FF32603847
310
2BA13128B1252AC747C6BAB984FC68F0B87FE8960A5C09FE86CFB69FBA01504B0304140006080800B670623B7BC41AC871010000D40300000C0000006662782F636F72652E786D6CC553ED6E8320147D15C2DF4501B56B6D90A64BBB27D80B50A5CE54C120983EFEAE1F4DD7A56BBA5FF3879273EEE59E7310BE393735EA95
310
ED2AA333CC428A91D2B9292A5D66D8BB63B0C26823B835C67D2BC348CB46657880B1E0A535BE9DA1DC68A7B403549B42CDA0EC3AE530CA6B5864B8CB3F552343E91D5474A7B095F949962A6421D0502778E72C0840D390E18DC5F170E664C205F7BE2A66B62A605A75AC94C522DDEEE3651AEF837817C741F2CE92E02D592D
310
83FD6ECB76EC7595A651C2C9D02CB8AB9A8BBADC2AE954814544691A3016D0E883256BBA58278B17BA5A53CAC9507ED3E4DBE2C9265F691747B3DCA9ADC382819091F8E1162272A8933DE82182932144F88C09DF060D8140C84E1EEA8B8F1340BDCA9DB1093085F157AA97B557309586747CD0EF0B4EA64E983A6E0EAEEFCE
310
889E9EF17847386AA94B30211D2C0FDE0D3AF9A4610EAD5536E8DD1969631B593F67E381C33F5157F17725E5A636F6BF1491F980C8FC7B90E13E8A2F504B0304140006080800B670623B70102A487D0000009D0000000B0000006662782F636E782E786D6C4DCCD10A83201886E15B91FFDC95A5C30335ACCDFB886521330D
310
A76397BF1A1DECE883878F57749FD5A3B74D2F17830472A901D9F088930B8B849267CC01754AA418F3DF0D5018572BE160506249B16C274D761E8BCFBB7A179E27F65CB39A0F14D396184C9921B81F34C3ACA1B4B99ABB6E6F062A25AA5F69DF23ACBE504B0304140006080800B670623B3610CA3329010000120200003100
310
00006662782F42384135303843342D343331462D343546312D424341352D3532343432364645413344462F636F72652E786D6C8D515B6EC32010BC0AE22B55850D0E446E848992B43E412FE000495162B07854397EA176A4F62F3F2C9A9D991D58BEBB8F37F0AD7D30CE76905418026DA553C65E3A98E219B510EC04F7CEC5
310
3F3408EC30EA0E16180A7EF12E4D0B249D8DDAC68C5AA7F4020E21E80881BCE54B0783FCD2E3500D296646B856D320AFC34557A4CAEDCC133C449F0380794839A138B47B86DB2345744D7A44594FD0E1B867883594369BFE63BF7EEF793D0B054FC9A8456E548E63CE46FB674D8A58F068C6477CE9F510B582A2C1F80D1182
310
70F349E816B32D65AFB8DD62CCEB42FF274A937A52948C8DEB66893BCB021484D7734370E5D2E9F608A3EF93F3119479ABA0E50B14B8C298119A43CCC4FCFCECB8A18B6388CEE7EF5D5D4F994BD86CBBA182D76543B9FCAE2FD7B24DF103504B0304140006080800B670623B1B8617914E0100003303000030000000666278
310
2F42384135303843342D343331462D343546312D424341352D3532343432364645413344462F636E782E786D6CD593C16EC32010447F0571AD6CE3D489D20813A9877E410FBD62D82434182CC055F3F75D1292E692438FBD206B7698593D61BEFD1E2DF982108D773D6D6B460938E5B571FB9ECE6957AD29D90A1EBC4F7736
310
4A9C1CA1A759A682EF839FA72269D8C9D92654AD71C72206887E0E0A22CAF926B15E498B01E0AA19451807D01A34B919F16B070157417138917400F2F6FA41FCF0092A45DEE414C19BDC21783E4BD39D891265658C3D8DEA00A3ACE59CBC8678ACB54CB26EEB6BD7839D7E9348BE70AD9C8321B9BCA7F9A4A26C542347DEE0
310
50F09802D22BA6749A800A394DD62899107273365E3C82CFC6A55557BC06C10774B7ABE7AEC3B0F34CF06446280E154026D0542C187BA9DAB6628BF7B6DBB0E5A65B3EB1F58631DE64BBE083F7B65CC218087E22CABB042E51D1F2268F1FE12B3EA24D40D63E9CFE00120194D60B9D5BC67FE6D39CDF37E20AF817881F504B
310
0304140006080800B670623BBFEF2E3B690500003C100000340000006662782F42384135303843342D343331462D343546312D424341352D3532343432364645413344462F6F626A656374732E786D6CAD575D739B3814FD2B0CFB0C98D84E931D4227B6938EA793B6534F3BFB90198F0099B001899144EAECAFDF231018B0
310
D37A3FFC609090EEE7B94757C1FB7D915B2F54C88CB31BDB7727B64559CC938CA53776A576CE956DBD0F03C1B9EA2DB32D460A7A63EB693B0C52C1ABD24C257447AA5C8D66EF177F5832A68CDA569C13296F6C193FD182B8A4523CA1F2D94D88226EBADBBBBEDB2C1C8A4D05299F46424B222853B014F30C52ACC6287F389C
310
D85E1878FA7B18E87FB36AFAF62AAFF667A83F635211161F291B8999FAB3D5DDC5FCDA99CF6653677679E13B8BFBC5CAF1DF4D27CBCBE5F2FAF6EE1A8AA51290642C117467871F101B91C581D77CEA2C36869F3229E68CD1B8F61F1ED6361B89092D294B90C78C4A68EB793D190E7D1D9BDEE7A91E1B95FDE9F3BCEAEFE809
310
6A6D6F9F7D4B79F4275C90E7A04248AA51D5C4C738DAE06F72885AC4796EBE65D22A88A22223B995679120E2D50EB1542F098381188D4EA111AE3DB043FF20AF6F2B4AE3D7D83D65E5AECA730D4D3BAC91BD05FEA992B565D95F549CD6069B90AB2A63EACA38A45E4B6A87D781574F86817E4C2FCCC72690D62E2729520E37
310
9BAF234797BAF6D62B3BFC781FED37BA1E4F2B2F052FA9501A3E80569BB8F6A9A364D4FA67654E6F803383981F82F21591FF84F23D9882BC896C3FDBCF8C162508933B2E0AE4C69DD43F6BD2BE38DDDBF10BF86CB4FA784D37F3AF16075E67EC9030DECA1FC0A55373F5DFF3378C591FA9BDF485C10B0A8C8BA909E5262639
310
A8E72163488806A595734C81CB77D1DE0ED7604A303B76913CEC0272F412782FF88EFF4636D8AA56DF7B322474C4B767303F625997056C7B032C473C592B36CEBD15F3F9FF5233B7ABCDC74D257624A60F8658567497B14CE1EC3C80B76FD02011038F9EE9EB0F2E12387A9C844D3F09855125116D1D731DF8B43D2CF4E0A0
310
79A020C6BE946BCE0B7EA1E1219331CD73C228AF5A2DDD31A4B1DA918CE91350854D40A71723140BFA92E94E62B0626016CEFA5864A50E5977E8753CEDBEE1CBB7F52780D20E17AF0BA0F5F9B02A3AD07DCC732EB6D1EBB661421BE0C39E21BABF0FE16D22EA6929407C8DE596724C88B749B6DB5512BC7B228ADFD7CB7EA6
310
3A22397E690BA8D5D8D4E40CEC8CDA23C2C0B7D5898640101CEC9C6D331CE328CB93CAFBBAC70A642DF70DF95155945B52F08AA973C23469FD69ADEF84F7BB18F983A8F8C90E37F5D35980B2139A1C523540813E824EF83448CF7C72B598CE97D7CEEDDDDD3B6736BFBC771677EF66CE6A7E7139F7A793E9EDF2B2B3A8B624
310
0CDA13AA5F8388264EC4A0129909F3B7F5A16CEDF08128E97D680ACA4B9BE7B7B58BB638F0B00700EF36AE8B32A705658A68F83EE897FC2B41573190D1CCAF0B92D233A47CFEB019D9809933F67DD1A5467F8CF69AD9A5AE859342D45355448C64F968A371DC2D596ADC6E43D93D1B466F877A64E2893E54F23C4B40388995
310
525E5005DA3983ED45412510D3EFCA13737B3863F74BD30F2A12E5B4B5E489A025CE25500DB855B11ACE5BBFA185D35DD48D8DC3CE7DC69F2944DB42AA6F6CF09BCA622ADD08C7A36E7C6AE18000BAB08E040135C2D21C9D75B3A91B77BB746C403F38018DFE6EC939DD92F16B40BC05294B9CDA035AAD6D330AE27FE4786B
310
8E45145EA34A75BE1C263A676A35A8ACC6297337400BF16C54EF515F3F77CB77EB3583889C754FFA29081AA98E2222ADEF05DA3E63D2EDEA8B8756C05A7FB6CABC4A91CBF325398202CC952E70A008A830324BA200D5E5EF8F5F04C75DB4B0EE3340E071C98B823333B83577596BF3849B69F2085AA0FAFA212F26BEFF5877
310
FDE622B28D88A42E49E43326DA82D31E8CB006401E1DA726059ECEC168F97A6599036306A135688F9AD2E61A6EA178F4CD51974A9F2CCB9F36FE5EBD14601068D9C3BF01504B0304140006080000B670623B000000000000000000000000350000006662782F42384135303843342D343331462D343546312D424341352D35
310
32343432364645413344462F76657274696365732E62696E504B0304140006080800B670623BF270F1330600000004000000360000006662782F42384135303843342D343331462D343546312D424341352D3532343432364645413344462F747269616E676C65732E62696E636660600000504B0304140006080000B67062
310
3B000000000000000000000000370000006662782F42384135303843342D343331462D343546312D424341352D3532343432364645413344462F617474726962757465732E62696E504B0304140006080800B670623B08DA0BD19000000041010000360000006662782F42384135303843342D343331462D343546312D4243
310
41352D3532343432364645413344462F6469726563746F72792E786D6C858F410AC3201045AF22B36F53E9A60B35CBEEBAE80D244E44489C6234F4F835464A48035D0DF398FF9F8AF63D0E6CC63039F212F8F9020C7D47C6792B21C5FE7403D62A1188E2E60C98D7234A5830286103A55745067B9D86B8A3CF9C7F90C11DE6
310
07FB144396D7B6A82D282E9A152AD114D5EF2CB866EEE831B8EEA07A7BB5A8D7D61A2BAAEB7FD5F70921FF497D00504B0304140006080800B670623B3B4606F3FE000000A00100003B0000006662782F42384135303843342D343331462D343546312D424341352D3532343432364645413344462F7265736F75726365732F
310
636F72652E786D6C8D504B6E833010BD0A9A6D65B08134808CA354A427E8052C332156828DFCA97AFC9A40A576D7CDCCE87D344F8F9FBEE647F689CE6B6B7A6039850C8DB2A336530F315C4903D94970676DF82583CCC8197B5861107C72362E3BA4AC096842428D1D7107A5F71820538F74F4E0D50D6799CB1892C2DFF345
310
AABB9C306779A2934E701F5C0A906D4FD609C2A1B7D129F4BCD858C163D4E3AED163FAA9AF1A1D88F67CA98E6D35906AA82A52BFB39ABCD5CD915C86331BD86BD3B665CD8BD52C78D0F34F46E550061C419494B6843142CB0F5677F4D0D58717DA7494F26295FF31C565FCA7296A13AA728FBBD93C0896823C09C18BB5AFB4
310
9E65A6BD762BBE01504B010214000A0000080000B670623B3DEE336E79000000790000001B00000000000000000000000000000000006175746F6465736B2D64657369676E2D7061636B6167652E786D6C504B01021400140006080800B670623BD486FD9CA0000000F40000001300000000000000000000000000B2000000
310
5B436F6E74656E745F54797065735D2E786D6C504B01021400140006080800B670623B28ED286BEB0000007C010000080000000000000000000000000083010000636F72652E786D6C504B01021400140006080800B670623B55019EA25F0000007C000000070000000000000000000000000094020000636E782E786D6C50
310
4B01021400140006080800B670623B7BC41AC871010000D40300000C00000000000000000000000000180300006662782F636F72652E786D6C504B01021400140006080800B670623B70102A487D0000009D0000000B00000000000000000000000000B30400006662782F636E782E786D6C504B01021400140006080800B6
310
70623B3610CA3329010000120200003100000000000000000000000000590500006662782F42384135303843342D343331462D343546312D424341352D3532343432364645413344462F636F72652E786D6C504B01021400140006080800B670623B1B8617914E010000330300003000000000000000000000000000D10600
310
006662782F42384135303843342D343331462D343546312D424341352D3532343432364645413344462F636E782E786D6C504B01021400140006080800B670623BBFEF2E3B690500003C10000034000000000000000000000000006D0800006662782F42384135303843342D343331462D343546312D424341352D35323434
310
32364645413344462F6F626A656374732E786D6C504B01021400140006080000B670623B0000000000000000000000003500000000000000000000000000280E00006662782F42384135303843342D343331462D343546312D424341352D3532343432364645413344462F76657274696365732E62696E504B010214001400
310
06080800B670623BF270F133060000000400000036000000000000000000000000007B0E00006662782F42384135303843342D343331462D343546312D424341352D3532343432364645413344462F747269616E676C65732E62696E504B01021400140006080000B670623B00000000000000000000000037000000000000
310
00000000000000D50E00006662782F42384135303843342D343331462D343546312D424341352D3532343432364645413344462F617474726962757465732E62696E504B01021400140006080800B670623B08DA0BD1900000004101000036000000000000000000000000002A0F00006662782F42384135303843342D3433
310
31462D343546312D424341352D3532343432364645413344462F6469726563746F72792E786D6C504B01021400140006080800B670623B3B4606F3FE000000A00100003B000000000000000000000000000E1000006662782F42384135303843342D343331462D343546312D424341352D3532343432364645413344462F72
310
65736F75726365732F636F72652E786D6C504B0506000000000E000E0080040000651100000000
  0
XRECORD
  5
15B22
102
{ACAD_REACTORS
330
186
102
}
330
186
100
AcDbXrecord
280
     1
102
MATERIAL
148
0.0
149
0.0
149
0.0
 93
        0
 94
       63
282
     0
 72
     1
 77
     1
171
     1
175
     1
179
     1
273
     0
  0
XRECORD
  5
187
102
{ACAD_REACTORS
330
186
102
}
330
186
100
AcDbXrecord
280
     1
 70
     1
 90
429727718
  1
887D55A9-D0DD-414E-B741-A7DCD4DA2B4C
310
504B03040A0000080000B670623B3DEE336E79000000790000001B0000006175746F6465736B2D64657369676E2D7061636B6167652E786D6C3C3F786D6C2076657273696F6E3D22312E302220656E636F64696E673D227574662D3822203F3E3C666F726D6174733E3C666F726D61743E687474703A2F2F736368656D612E
310
6175746F6465736B2E636F6D2F64657369676E2D7061636B6167652F323030393C2F666F726D61743E3C2F666F726D6174733E504B0304140006080800B670623BD486FD9CA0000000F4000000130000005B436F6E74656E745F54797065735D2E786D6C7D8EC10E82300C865F65E91D8A1E8C310C0EEA1BF002731658846E
310
D98AC1B77784ABF1D8FE5FBFBF75BBCE937A534CCEB38643598122B6FEE978D0B0485F9C41B54DDD7D022595594E1A469170414C76A4D9A4D207E29CF43ECE46F218070CC6BECC4078ACAA135ACF422C856C0E68EA1BF5669944DDD7BCDE7B1F8E415D77AECB980613C2E4AC91FC167A2B244592486606FC29C8FD7F045B9A
310
EF7053A7E60B504B0304140006080800B670623BBC1638F5EC0000007C01000008000000636F72652E786D6C8D90416EC3201045AF82665B61836BE2D8C24471DB9CA01740401C94182C03558F5F9C3852BBEB6A467FFE9B197D7EF89E6EE8CB2CC17AD7032D0820E394D7D68D3DA478C67B4007C117EFE32F1B202727D3C3
310
2A83E0E3E2D3BC49CABB685CCCAAF3DA6CA20CC14440EA969B1E82BA98491632C5EC08D76296EA2A4753D06797E194AC468F2356E77DF66CCD02825543D50CACC62D39ED70FDC68EB8FD68F6F8787A6784342D1DDA1D2F5758F068A7E77DB518198D065111D2624A31A93E69DD11D6D5EC85EC3B4278B9DAFF4069D6FF8492
310
75F1B5DADE7D600104CD8FDC0782976B16B9DC83CA75CD4DFC00504B0304140006080800B670623B55019EA25F0000007C00000007000000636E782E786D6C4DCB3B0E80201045D1AD90E915ED2CF8AC45050C11660C8261F98AB1B07AC9C97D42D718D865D3E909258CFD00CCE24AC6E326A164D74DC0B4128928FF326038
310
472BA13128B1252AC747C6BAB984FC68F0B87FE8960A5C09FE86CFB69FBA01504B0304140006080800B670623B3586FFB671010000D40300000C0000006662782F636F72652E786D6CC553ED6E8320147D15C2DF4541A76D6D90A6DDD627D80B50A4CE54C120983EFEAE1F4DD7A55BBA5FF3879273EEE59E7310B6393735EA
310
95ED2AA3731C851423A5A5292A5DE6D8BB63B0C268C39935C67D29C3488B46E578803167A535BE9D2169B453DA01AA4DA16650749D7218C91A1639EEE4876A4428BC838AEE14B6429E44A9C228041AEA38EB9C0501681A32BC313F1ECE8C4C3867DE57C5CC56054CAB8E95B298A7F12E5EEED224C8E87E11242FE936C8DE96
310
AB60BB7F4D295D66D12E5B30323473E6AAE6A24E5A259C2A308F29CD82280A68FC1E256B9AAE93F489AED694323294DF34F9B678B0C957DA3DC7B3DCA9ADC33C022123F1CD2D44E450277AD04338234388F01913BE0D1A0281909D38D4171F27807A259DB1093085F157AA17B557309586747CD0CF0B46A64E983A6E0EAEEF
310
CE881F9EF1FB8E70D44297604238581EBC1B74B249C31C5AAB6CD0BB33D2C636A27ECCC62F0EFF445DC5DF95244D6DEC7F2922F30191F9F720C37DE49F504B0304140006080800B670623B4220A0FF7D0000009D0000000B0000006662782F636E782E786D6C4DCCD10A83201886E15B91FFDCE542CB0335D0EC3E6259C84A
310
C3E9D8E5AF46073BFAE0E1E315DD675BD1DBA5978F41C2FD4600B9F088930F8B849267CC01754AA418F3DF0D50183727E164506249B1EC174D6E1ECB9A0F5D7D785E68DB8151CD286E5A5363CA6B8A39E90D36D40E96B086F55A43A544F52B1D7B86D517504B0304140006080800B670623B2FA3FEDE290100001202000031
310
0000006662782F45374635344235342D363743322D343832342D383044432D4334454645303536354442422F636F72652E786D6C8D515B6EC32010BC0AE22B55850D2E386E848994D7097A0117488A1283C5A3CAF10BB523B57FF961D1ECCCECC0F2ED7DBC816FED8371B687A4C210682B9D32F6D2C314CFA883602BB8772E
310
FEA141608751F7B0C050F08B77695A20E96CD43666D43AA5177008414708E42D5F7A18E4971E876A483133C2B59A06791D2EBA22556E679EE021FA1C00CC43CA09C5717D6274C7286AD7FB06D1AEA1A8C3873DDAD3E3E98859CB0EBB1DAF67A1E02919B5C88DCA71CCD968FFAC49110B1ECDF8882FBD1EA256503418BF2342
310
106E3E08DD60B6A1EC15771B8C795DE8FF4469524F8A92B1F1AD59E2CEB20005E1F5DC105CB9F4797B84D1F7C9F908CABC55D0F2050A5C61CC1AD2F27A26E6E767C7962E8E213A9FBF7775FDCC5CC266DB960A5E970DE5F2BBBE5CCB36C50F504B0304140006080800B670623B1B8617914E01000033030000300000006662
310
782F45374635344235342D363743322D343832342D383044432D4334454645303536354442422F636E782E786D6CD593C16EC32010447F0571AD6CE3D489D20813A9877E410FBD62D82434182CC055F3F75D1292E692438FBD206B7698593D61BEFD1E2DF982108D773D6D6B460938E5B571FB9ECE6957AD29D90A1EBC4F77
310
364A9C1CA1A759A682EF839FA72269D8C9D92654AD71C72206887E0E0A22CAF926B15E498B01E0AA19451807D01A34B919F16B070157417138917400F2F6FA41FCF0092A45DEE414C19BDC21783E4BD39D891265658C3D8DEA00A3ACE59CBC8678ACB54CB26EEB6BD7839D7E9348BE70AD9C8321B9BCA7F9A4A26C542347DE
310
E050F09802D22BA6749A800A394DD62899107273365E3C82CFC6A55557BC06C10774B7ABE7AEC3B0F34CF06446280E154026D0542C187BA9DAB6628BF7B6DBB0E5A65B3EB1F58631DE64BBE083F7B65CC218087E22CABB042E51D1F2268F1FE12B3EA24D40D63E9CFE00120194D60B9D5BC67FE6D39CDF37E20AF817881F50
310
4B0304140006080800B670623B29652116630500003C100000340000006662782F45374635344235342D363743322D343832342D383044432D4334454645303536354442422F6F626A656374732E786D6CAD575D739B3814FD2B0CFB0C989834C90EA1639B24E3E9A6EDD4D3CE3E64C623834CD8006224913AFDF57B040203
310
B65BEF871F0C12D2FD3CF7E8CA7FBFCB33E3957291B2E2D674ED8969D02262715A24B76625B7D6B569BC0F7CCE98EC2D338D82E4F4D654D366E0279C55A59E8AE99654991CCDDECFFF3444440B6A1A514684B83545F44C7362934AB2988A173B2692D8C97667BB76B3702836E1A47C1E092D09A78584A5982F20C5688C7287
310
C389E904BEA3BE07BEFAD7ABA6A75739B53F43FD69212429A20365233153D70BEF2E2E6FAC4BCF9B5ADEBB0BD79ADFCF43CBBD9A4E16EF168B9BD9DD0D140BC921495BC2E9D60C1E101B9E46BED37CEA2CD6861F3329624541A3DA7F7858DBAC25C6B4A4458C3CA654405BCFEBC970E8AAD8F43E4FD558ABEC4F9FE7557F47
310
4F506B7BFBEC5BCA367FC105710E2AB8A00A554D7CB4A30DFE26FBA86D18CBF4B75418399194A72433B274C3097F33032C554B027F2046A1932B842B0FCCC0DDCBEBDB8AD2F835768F59B9ADB24C41D30C6A64AF817F2A456D59FA83F2E3DA60137255A585BCD60EC9B7929AC18DEFD49381AF1ED30BFDB109A4B1CD488294
310
C3CDE6EBC8D185AABD6568061FEE37BB95AAC7E3CA4BCE4ACAA5820FA0D526AE7DAA2869B5EE5999531BE0CC20E6FBA07C41E43FA27CF7A6206F3CDD793B4F6B919C1462CB788EDCD893FA674CDA17AB7B3B7C019F8D561FAEE966FED562DFE98C1D12C6A9FC015C2A35D7FF3D7FC398F591DA4B5FE0BFA2C0189FEA50AE22
310
92817A1ED3020951A03432862970F976B33383259812CC8E5D240BBA801CBCF8CE2BBEE3BF910DB6AAD5F79E05123AE2DB33981FB1ACCB02B69D00CB014FD68AB573A7627EF9BFD4CC2C5C7D58557C4B22FAA88925A4DBB44825CECE3D78FB060D1231F0E885BE7D673C86A3874958F593906B5502D1563157814FDAC3420D
310
F69A070A22EC4B98E23CFF171A1E5311D12C23056555ABA53B8614563B92D17D02AAB009E8F46284624E5F53D5490C560CCCC2591FF1B45421EB0EBD8EA7ED13BE7C5D7E0428CD60FEF60779EB13E6664FF711CB185F6FDED60D139A001FF60CD1FD6D086F1D51474901E26B2CB794A343BC8ED3EDB612E0DD2351FCB65CF4
310
33D511C9E14B5B40ADC6A6263DB0336A8F700DDF56271A024E70B0B3629DE21847591E55DED73D56206AB927E46FAABC5C939C55853C274C93D69FD6FA4E78BF8B11DF898C9ECD60553FAD39283BA6F18984AA23E8884F83F45C5F5F859797B31B2B9C84A1E5B9DE9D35BFF25C6B76152E422F9C5DCC3D847F5801ED09D5AF
310
41441327A25FF15487F9EB725FB666F048A4701E9A827292E6F97569A32DF61DEC01C0BB8DCBBCCC684E0B49147C1FD54BF685A0AB18C868E6973949E819523E3DAC463660E68C7D9F55A9D1EFA3BD7A76A16AE1A810F95CE59B82A4D968A376DC2E8B44BBDD86B27B368CDE0ED548C7137DA860591A83706223A12CA712B4
310
7306DBF39C0A20A6DF95C7FAF670C6EED7A61F946493D1D6926782963813403548A78AE470DEF80D2D9CEAA26E4D1C76F60BFE74219A06527D6B82DF641A51616F703CAAC6A7160E08A00BEB4810A0274592A1B36E3675E36E978A0DE80727A0D6DF2D39A75BD27E0D8837276589537B40ABB56D5A41F48F1C6FCD3188C4EB
310
A6929D2FFB89CE995A4D00AE813BDD032DC48B56BD437DFDDC2DD7AED70C2272D63DE9A72068A45A92F0A4BE17A8A06B9366E16707AD80B1FC649459952097E74BB23805982B55E0401150A165964402AA8BDF9F3E7386BB686EDCA780C0D382E5392BF460A6EFB2C6EA1937D3F809B440D5F5435C4C5CF7A9EEFAF54564BD
310
2182DA24162F98680B4E7930C21A0079709CEAEB99A372305ABE0C0D7D6078105A83F6A0296DAEE1068A47DD1C55A9F4C9B2FC69E3EFD44B81028E963DF81B504B0304140006080000B670623B000000000000000000000000350000006662782F45374635344235342D363743322D343832342D383044432D433445464530
310
3536354442422F76657274696365732E62696E504B0304140006080800B670623BF270F1330600000004000000360000006662782F45374635344235342D363743322D343832342D383044432D4334454645303536354442422F747269616E676C65732E62696E636660600000504B0304140006080000B670623B00000000
310
0000000000000000370000006662782F45374635344235342D363743322D343832342D383044432D4334454645303536354442422F617474726962757465732E62696E504B0304140006080800B670623B08DA0BD19000000041010000360000006662782F45374635344235342D363743322D343832342D383044432D4334
310
454645303536354442422F6469726563746F72792E786D6C858F410AC3201045AF22B36F53E9A60B35CBEEBAE80D244E44489C6234F4F835464A48035D0DF398FF9F8AF63D0E6CC63039F212F8F9020C7D47C6792B21C5FE7403D62A1188E2E60C98D7234A5830286103A55745067B9D86B8A3CF9C7F90C11DE607FB144396
310
D7B6A82D282E9A152AD114D5EF2CB866EEE831B8EEA07A7BB5A8D7D61A2BAAEB7FD5F70921FF497D00504B0304140006080800B670623B6378F24DFF000000A00100003B0000006662782F45374635344235342D363743322D343832342D383044432D4334454645303536354442422F7265736F75726365732F636F72652E
310
786D6C8D504B6E833010BD0A9A6D65B0094E42641C85B639412F6099496225D8C89FAAC7AF09546A77DDCC8CDE47F3F4C4F16B7C149FE88371B603565228D06A37187BED20C50BD9437194C23B177FC9A0B06AC40E6618A4B87A97A615D2CE46B431A3D60DB8822A048C50E8473E3A08FA86A32A558A5911EEE5A4F45D5DB1
310
6465A6B34E8A107D0E502C4FE609D26370C96B0CA25A58295232C3AA3143FE692E063D485EF7F5AEE71BD2D2F39634AFFC44DAF7DD9E9CCE6F9CD25DCBFA762BAAD92C4534E34F46ED51451C40D694B6843142EB0FD61C283F34FC85EE0F948A6A96FF31A569F8A729191B37F51A77B105902C0779125254735F793DCBCC7B
310
EE567E03504B010214000A0000080000B670623B3DEE336E79000000790000001B00000000000000000000000000000000006175746F6465736B2D64657369676E2D7061636B6167652E786D6C504B01021400140006080800B670623BD486FD9CA0000000F40000001300000000000000000000000000B20000005B436F6E
310
74656E745F54797065735D2E786D6C504B01021400140006080800B670623BBC1638F5EC0000007C010000080000000000000000000000000083010000636F72652E786D6C504B01021400140006080800B670623B55019EA25F0000007C000000070000000000000000000000000095020000636E782E786D6C504B010214
310
00140006080800B670623B3586FFB671010000D40300000C00000000000000000000000000190300006662782F636F72652E786D6C504B01021400140006080800B670623B4220A0FF7D0000009D0000000B00000000000000000000000000B40400006662782F636E782E786D6C504B01021400140006080800B670623B2F
310
A3FEDE290100001202000031000000000000000000000000005A0500006662782F45374635344235342D363743322D343832342D383044432D4334454645303536354442422F636F72652E786D6C504B01021400140006080800B670623B1B8617914E010000330300003000000000000000000000000000D2060000666278
310
2F45374635344235342D363743322D343832342D383044432D4334454645303536354442422F636E782E786D6C504B01021400140006080800B670623B29652116630500003C10000034000000000000000000000000006E0800006662782F45374635344235342D363743322D343832342D383044432D4334454645303536
310
354442422F6F626A656374732E786D6C504B01021400140006080000B670623B0000000000000000000000003500000000000000000000000000230E00006662782F45374635344235342D363743322D343832342D383044432D4334454645303536354442422F76657274696365732E62696E504B01021400140006080800
310
B670623BF270F13306000000040000003600000000000000000000000000760E00006662782F45374635344235342D363743322D343832342D383044432D4334454645303536354442422F747269616E676C65732E62696E504B01021400140006080000B670623B0000000000000000000000003700000000000000000000
310
000000D00E00006662782F45374635344235342D363743322D343832342D383044432D4334454645303536354442422F617474726962757465732E62696E504B01021400140006080800B670623B08DA0BD190000000410100003600000000000000000000000000250F00006662782F45374635344235342D363743322D34
310
3832342D383044432D4334454645303536354442422F6469726563746F72792E786D6C504B01021400140006080800B670623B6378F24DFF000000A00100003B00000000000000000000000000091000006662782F45374635344235342D363743322D343832342D383044432D4334454645303536354442422F7265736F75
310
726365732F636F72652E786D6C504B0506000000000E000E0080040000611100000000
  0
XRECORD
  5
15B24
102
{ACAD_REACTORS
330
110
102
}
330
110
100
AcDbXrecord
280
     1
102
MATERIAL
148
0.0
149
0.0
149
0.0
 93
        0
 94
       63
282
     0
 72
     1
 77
     1
171
     1
175
     1
179
     1
273
     0
  0
XRECORD
  5
112
102
{ACAD_REACTORS
330
110
102
}
330
110
100
AcDbXrecord
280
     1
270
     1
271
     1
  0
XRECORD
  5
111
102
{ACAD_REACTORS
330
110
102
}
330
110
100
AcDbXrecord
280
     1
270
     1
271
     1
  0
XRECORD
  5
18A
102
{ACAD_REACTORS
330
110
102
}
330
110
100
AcDbXrecord
280
     1
 70
     0
 90
1778669749
  1
9BF507EE-FAF7-4A99-A33D-4EE51894BC40
310
504B03040A0000080000B670623B3DEE336E79000000790000001B0000006175746F6465736B2D64657369676E2D7061636B6167652E786D6C3C3F786D6C2076657273696F6E3D22312E302220656E636F64696E673D227574662D3822203F3E3C666F726D6174733E3C666F726D61743E687474703A2F2F736368656D612E
310
6175746F6465736B2E636F6D2F64657369676E2D7061636B6167652F323030393C2F666F726D61743E3C2F666F726D6174733E504B0304140006080800B670623BD486FD9CA0000000F4000000130000005B436F6E74656E745F54797065735D2E786D6C7D8EC10E82300C865F65E91D8A1E8C310C0EEA1BF002731658846E
310
D98AC1B77784ABF1D8FE5FBFBF75BBCE937A534CCEB38643598122B6FEE978D0B0485F9C41B54DDD7D022595594E1A469170414C76A4D9A4D207E29CF43ECE46F218070CC6BECC4078ACAA135ACF422C856C0E68EA1BF5669944DDD7BCDE7B1F8E415D77AECB980613C2E4AC91FC167A2B244592486606FC29C8FD7F045B9A
310
EF7053A7E60B504B0304140006080800B670623BCA089DFFEC0000007C01000008000000636F72652E786D6C8D90416E83301045AF62CDB632D8402020E32882F604BD80653BC44AB011B6AB1EBF262152BBEB6A467FFE9B197D76FA9EEFE84BAFDE38DB03CD08206DA553C64E3DC470C1474027CE56E7C22F1B202B66DDC3
310
260367D3EAE2B24BD2D9A06D48AA754AEFA2F05E0740F29E9A1EBCBCEA59642286E4F0B76C11F226269DD15797E0188D42CF2346A57DE662F40ABCAEC77628C6120F654571D50C04B7F5B9C1E3997CD4F550BE3745C3F20DE62C98F9755FAE5A04AD801784B498524C8A4F5A75E4D055873772EC0861F966FF03C545FD138A
310
C686B2D8DF7D621E384D8F3C069CE55B16A93C824A75CB8DFF00504B0304140006080800B670623B55019EA25F0000007C00000007000000636E782E786D6C4DCB3B0E80201045D1AD90E915ED2CF8AC45050C11660C8261F98AB1B07AC9C97D42D718D865D3E909258CFD00CCE24AC6E326A164D74DC0B4128928FF326038
310
472BA13128B1252AC747C6BAB984FC68F0B87FE8960A5C09FE86CFB69FBA01504B0304140006080800B670623B68FC0B7272010000D40300000C0000006662782F636F72652E786D6CC5535B6E833010BC8AE5DF0A6C1E8124328E22D29EA01770C0A128602363A31CBFCB234A53A555FA553EC09AD9F5CE8C31DB5DDA060D
310
D2F4B556190E7C8A9154852E6B5565D8D993B7C668C799D1DA7E29C3488956667884316795D1AE5BA0422B2B950554E9522EA0E87B69312A1A5864B82F3E642B7CE12C54F467BF13C55954D20F7CA0A18EB3DE1A1080E621E31BF3D3F1C2C88C73E65C5D2E6C5DC2B4FA544B8379921C36797888BC3C8A032F4E73EA6D927D
310
EA1DF6F42D49F2E8350D5346C666CE6CDD5ED515460A2B4BCC434A375E1078347C0FE22D5D6DE3D50B5D6F2965642CBF6B725DF96493AB958DC245EEDCD6631E809089F8E61622B2A81703E8219C913144F84C09DF070D8140C8561C9BAB8F3340832CAC363130A576376A108D933095FA747AD0CF0B46E64E983A6D0EAE1F
310
CE089F9EF1FB8E70D44255604258581E9D1D75B259C3125A278D37D80B52DAB4A279CEC62F0EFF44DDC43F9454E8469BFF5244960322CBEF41C6FBC83F01504B0304140006080800B670623B0F71DDB67E0000009D0000000B0000006662782F636E782E786D6C4DCCD10A83201886E15B91FFDCA54DB73F502386BB8F5816
310
32D3703976F9ABD1C18E3E78F87855FB990379BBFCF2296AE02706C4C5471A7C9C349475A408A4352AA7B4FEDD80C47E761A7606A3A69CCA72D0E0C6BE8475D3E0E3F3409428EA6B27A84079A782899AA2EC1A7AE3ECCC2FD858CB2D544655BFD2B67BD87C01504B0304140006080800B670623BE134B4FB28010000120200
310
00310000006662782F38353834323741342D343835462D343034322D383541392D4331303331363839454531452F636F72652E786D6C8D515B6EC32010BC0AE22B55850D0EA424C24451959EA0172086A42831583CAA1CBF503B52FB971F16CDCECC0EACD8DFC71BF836215AEF7A481A0C817183D7D65D7A98D3197108F652
310
04EFD31F1A044E8DA6871586525C82CFD3020DDE25E352419DD76601558C264130DCCAA58771F832A36A544E8511AFCDA486ABBA988634A55D7852C4144A00300FA927949C71DABD1D28A29C7D208A6987383B6CD13BC16BB2E1DBE3911C453B0BA5C8D9EA456E758963CFD684674DAA588A64C747FC2118958C86B2C3788B
310
0841B8FB247487D98EB257CC77188BB6D2FF89F2A49F1465EBD2BA5BE2CEB2082511EDDC9042FB7CBA3DC298FBE4430275DE2A9AE1054ADC60CC08E3A29D89E5F9C5714317C7987C28DFBBBA9E0A97B0D97643A568EB864AF95D5FA9759BF207504B0304140006080800B670623B1B8617914E010000330300003000000066
310
62782F38353834323741342D343835462D343034322D383541392D4331303331363839454531452F636E782E786D6CD593C16EC32010447F0571AD6CE3D489D20813A9877E410FBD62D82434182CC055F3F75D1292E692438FBD206B7698593D61BEFD1E2DF982108D773D6D6B460938E5B571FB9ECE6957AD29D90A1EBC4F
310
77364A9C1CA1A759A682EF839FA72269D8C9D92654AD71C72206887E0E0A22CAF926B15E498B01E0AA19451807D01A34B919F16B070157417138917400F2F6FA41FCF0092A45DEE414C19BDC21783E4BD39D891265658C3D8DEA00A3ACE59CBC8678ACB54CB26EEB6BD7839D7E9348BE70AD9C8321B9BCA7F9A4A26C542347
310
DEE050F09802D22BA6749A800A394DD62899107273365E3C82CFC6A55557BC06C10774B7ABE7AEC3B0F34CF06446280E154026D0542C187BA9DAB6628BF7B6DBB0E5A65B3EB1F58631DE64BBE083F7B65CC218087E22CABB042E51D1F2268F1FE12B3EA24D40D63E9CFE00120194D60B9D5BC67FE6D39CDF37E20AF817881F
310
504B0304140006080800B670623B5933D422630500003B100000340000006662782F38353834323741342D343835462D343034322D383541392D4331303331363839454531452F6F626A656374732E786D6CAD575B6FA33814FE2B887D0642934E9B156594264D158D3A534DD4D13E548A0C38942D60649B4EBABF7E3F8321
310
40924EF6928780CDF1B97EE762EFF32E4B8D37CA45C2F21BD3B547A641F39045491EDF98A5DC5AD7A6F1D9F73863B243661A39C9E88DA9B64DDF8B392B0BBD15D12D295339D85DDEFE618890E6D434C2940871638AF08566C426A5641115AF764424B1E3EDCE76ED9AB0CF36E6A47819302D08A7B984A6D8CFC1C5A89572FB
310
CB91E9F89EA3BEFB9EFAD754E3D3544E654F5F7E920B49F2F040D880CDD89D2CEE2E2EA7D6E56432B6269F2E5CEB7679BBB0DCABF168FE693E9FCEEEA6102C240727AD09A75BD3BF876F78127A4EFDA9D5582B7E4CA590E5390D2BFB6161A5B3E618D182E611E2985001691DAB47FDA5AB7CD3F93C566B2DB2BB7D9E55DD13
310
1D468DEECDB3AB290BFE8409E21C54704115AA6AFF68436BFC8DF65E0B184BF5B74418199194272435D224E084BF9B3E481589EFF5D828747285706581E9BB7B7E5D5D911ABFC6EE312DB7659A2A689A7E85EC0DF04FA5A8344BFEA2FCB834E8845895492EAFB541F2BDA0A63FF59C6AD3F7D4637CA13FD68E34B629891172
310
98597F1D183A57B9B75A98FE9765B05BAB7C3C2EBCE0ACA05C2AF8005A4DE09AA7F29216EB9E15397500C6F47CBE77CA7778FE2BD277AF0AE2C693DD6437D1522427B9D8329E2136F6A8FA19A3E6C56ADF0E5F50CF06D48734EDCEBF22F69C56D97EC138153F804B85E6FABFC7AFEFB32E523BE1F3BD372418E363EDCA7548
310
52949E8724474014288D94610BB57C1BEC4C7F854A89CA8E5324F55B871CBC78CE1BBEE3BFE68D6A5589EF3C730474506FCFA8FCF0659516D0ED04580EEA6425581B77CAE797FF4BCECC16EB2FEB926F49481F746159D06D922712BD730FDEAE42BD40F42C7AA5EF3F198F60E86110D6DD20645A9480B795CF95E3E3A659A8
310
C55E724F408873315335CFFB8584874484344D494E59D94869DB90C26A5B64F49C802CAC1D3ABE18A098D3B7444D123D8A9E5AE8F5214F0AE5B2B6E9B575DA3E61CBD3EA2B4009FA940524DD1305FB6A1FB294F14DF0BEA90BA109ECE1481FDC3FFAE8D60E75141700BE82725371B4873751B2DD960265F788137FACE6DD40
310
B575E4F0A5C99F46629D92131467A41EE11ABD8D4CCC039CA0AFB37C93A08B232B8F0AEFCA1E0A1015DF13FC83322B362463652ECF71D3A8B1A7D1BE65DE1D62C44F22C317D35F574FEB16153BA2D13E543D10A80E74C4A65E78A6B7CBCBD1D5DD9DB59C2DAFACC96C3AB566E3F1C29ADCDD5DBAD7D3C9ED7C822ED74F80A6
310
41755310DE4443F44A9E68373FADF6596BFA0F440AE7BECE2727AE9F4F2B1B53B1E7E00CF0DD1E5C65454A339A4BA2D0FBA05ED2EF0443458F47BDBFCA484CCFE0F2ED7E3DD0013B679C7B5499467F0ECEEADDB9CA85A34CE44B99053949D2C1416DB85DE4B136BB7165FBAC0B7AB3542BED4F8CA182A549847A1319316519
310
95A83A67147B9E5101C47487F2485F1ECE38FD568F839204296D3479219888530154036E6528FBFBC66F98E0D4107563A2D7D9AFF8D389681A08F58D89F22693900A3B407754734FC51C10C010D6D640809EE4718AC1BA3ED4AEDB53CA37283F68805A7E4B72CEB0A4EDEAD5DD8C14059A76AFAA56BA6901E13F32BC51C720
310
12AF41295B5BF61BAD3195181FB506E6B40F4C10AF5AF40EF9F5B159AE5DD1F43C72D635E94310D45C2D49785C5D0B94D3B54AB3C5A38349C0587D338AB48C11CBF339599C02CCA54A70A008A8D03C0B2201D5F9EFCF8F9CE12A9A19CB0410789EB32C63B95ECCF455D658BFE0621A3DA32C5075FB101723D77DAE867E7D0F
310
D90444509B44E2151B4DC2290B065803200FBAA9BE9D392A0603F2D5C2D00D6302A615680F66D2FA166E2079D4C551A54AB758161FCEFD4E450A14704CECFEDF504B0304140006080000B670623B000000000000000000000000350000006662782F38353834323741342D343835462D343034322D383541392D4331303331
310
363839454531452F76657274696365732E62696E504B0304140006080800B670623BF270F1330600000004000000360000006662782F38353834323741342D343835462D343034322D383541392D4331303331363839454531452F747269616E676C65732E62696E636660600000504B0304140006080000B670623B000000
310
000000000000000000370000006662782F38353834323741342D343835462D343034322D383541392D4331303331363839454531452F617474726962757465732E62696E504B0304140006080800B670623B08DA0BD19000000041010000360000006662782F38353834323741342D343835462D343034322D383541392D43
310
31303331363839454531452F6469726563746F72792E786D6C858F410AC3201045AF22B36F53E9A60B35CBEEBAE80D244E44489C6234F4F835464A48035D0DF398FF9F8AF63D0E6CC63039F212F8F9020C7D47C6792B21C5FE7403D62A1188E2E60C98D7234A5830286103A55745067B9D86B8A3CF9C7F90C11DE607FB1443
310
96D7B6A82D282E9A152AD114D5EF2CB866EEE831B8EEA07A7BB5A8D7D61A2BAAEB7FD5F70921FF497D00504B0304140006080800B670623BD9A3B367FE000000A00100003B0000006662782F38353834323741342D343835462D343034322D383541392D4331303331363839454531452F7265736F75726365732F636F7265
310
2E786D6C8D504B6E833010BD0A9A6D65B01D0201194711694FD00B586642AD043BF2A7EAF16B122AB5BB6E6646EFA3797AE2F8B5DC8A4FF4C1383B002B291468B59B8C9D0748F1420E501CA5F0CEC55F3228AC5A708015062966EFD27D83B4B3116DCCA875136EA00A012314FA968F0182FEC045952AC5AC08D7F2AEF455CD
310
58B232D3592745883E07289E4FD609D26370C96B0CA27AB252A464A64D63A6FCD35C0C7A904D73EE467EE664DCD58CD4ED4849D79C5A723ED1B7A61977AF2D6F45B59AA58866F9C9A83DAA8813484E6947182394BFB3BAA7FBBEDEBFD0434FA9A856F91F53BA4FFF342563E38E6F719FB60092E5200F428A6AED2BAF479979
310
AFDDCA6F504B010214000A0000080000B670623B3DEE336E79000000790000001B00000000000000000000000000000000006175746F6465736B2D64657369676E2D7061636B6167652E786D6C504B01021400140006080800B670623BD486FD9CA0000000F40000001300000000000000000000000000B20000005B436F6E
310
74656E745F54797065735D2E786D6C504B01021400140006080800B670623BCA089DFFEC0000007C010000080000000000000000000000000083010000636F72652E786D6C504B01021400140006080800B670623B55019EA25F0000007C000000070000000000000000000000000095020000636E782E786D6C504B010214
310
00140006080800B670623B68FC0B7272010000D40300000C00000000000000000000000000190300006662782F636F72652E786D6C504B01021400140006080800B670623B0F71DDB67E0000009D0000000B00000000000000000000000000B50400006662782F636E782E786D6C504B01021400140006080800B670623BE1
310
34B4FB280100001202000031000000000000000000000000005C0500006662782F38353834323741342D343835462D343034322D383541392D4331303331363839454531452F636F72652E786D6C504B01021400140006080800B670623B1B8617914E010000330300003000000000000000000000000000D3060000666278
310
2F38353834323741342D343835462D343034322D383541392D4331303331363839454531452F636E782E786D6C504B01021400140006080800B670623B5933D422630500003B10000034000000000000000000000000006F0800006662782F38353834323741342D343835462D343034322D383541392D4331303331363839
310
454531452F6F626A656374732E786D6C504B01021400140006080000B670623B0000000000000000000000003500000000000000000000000000240E00006662782F38353834323741342D343835462D343034322D383541392D4331303331363839454531452F76657274696365732E62696E504B01021400140006080800
310
B670623BF270F13306000000040000003600000000000000000000000000770E00006662782F38353834323741342D343835462D343034322D383541392D4331303331363839454531452F747269616E676C65732E62696E504B01021400140006080000B670623B0000000000000000000000003700000000000000000000
310
000000D10E00006662782F38353834323741342D343835462D343034322D383541392D4331303331363839454531452F617474726962757465732E62696E504B01021400140006080800B670623B08DA0BD190000000410100003600000000000000000000000000260F00006662782F38353834323741342D343835462D34
310
3034322D383541392D4331303331363839454531452F6469726563746F72792E786D6C504B01021400140006080800B670623BD9A3B367FE000000A00100003B000000000000000000000000000A1000006662782F38353834323741342D343835462D343034322D383541392D4331303331363839454531452F7265736F75
310
726365732F636F72652E786D6C504B0506000000000E000E0080040000611100000000
  0
XRECORD
  5
113
102
{ACAD_REACTORS
330
110
102
}
330
110
100
AcDbXrecord
280
     1
270
     1
271
     1
  0
XRECORD
  5
114
102
{ACAD_REACTORS
330
110
102
}
330
110
100
AcDbXrecord
280
     1
270
     1
271
     1
  0
XRECORD
  5
15B46
102
{ACAD_REACTORS
330
15B45
102
}
330
15B45
100
AcDbXrecord
280
     1
102
ACAD_ROUNDTRIP_2012_MLEADER_STYLE
298
     1
  0
XRECORD
  5
15B58
102
{ACAD_REACTORS
330
15B57
102
}
330
15B57
100
AcDbXrecord
280
     1
102
DISPLAYNAME
  1
Imperial24
102
FLAGS
 90
        0
  0
CELLSTYLEMAP
  5
15B18
102
{ACAD_REACTORS
330
104
102
}
330
104
100
AcDbCellStyleMap
 90
        3
300
CELLSTYLE
  1
TABLEFORMAT_BEGIN
 90
        5
170
     1
 91
        0
 92
    32768
 62
   257
 93
        1
300
CONTENTFORMAT
  1
CONTENTFORMAT_BEGIN
 90
        0
 91
        0
 92
      512
 93
        0
300

 40
0.0
140
1.0
 94
        5
 62
     0
340
11
144
0.25
309
CONTENTFORMAT_END
171
     1
301
MARGIN
  1
CELLMARGIN_BEGIN
 40
0.06
 40
0.06
 40
0.06
 40
0.06
 40
0.18
 40
0.18
309
CELLMARGIN_END
 94
        6
 95
        1
302
GRIDFORMAT
  1
GRIDFORMAT_BEGIN
 90
        0
 91
        1
 62
     0
 92
       -2
340
0
 93
        0
 40
0.045
309
GRIDFORMAT_END
 95
        2
302
GRIDFORMAT
  1
GRIDFORMAT_BEGIN
 90
        0
 91
        1
 62
     0
 92
       -2
340
0
 93
        0
 40
0.045
309
GRIDFORMAT_END
 95
        4
302
GRIDFORMAT
  1
GRIDFORMAT_BEGIN
 90
        0
 91
        1
 62
     0
 92
       -2
340
0
 93
        0
 40
0.045
309
GRIDFORMAT_END
 95
        8
302
GRIDFORMAT
  1
GRIDFORMAT_BEGIN
 90
        0
 91
        1
 62
     0
 92
       -2
340
0
 93
        0
 40
0.045
309
GRIDFORMAT_END
 95
       16
302
GRIDFORMAT
  1
GRIDFORMAT_BEGIN
 90
        0
 91
        1
 62
     0
 92
       -2
340
0
 93
        0
 40
0.045
309
GRIDFORMAT_END
 95
       32
302
GRIDFORMAT
  1
GRIDFORMAT_BEGIN
 90
        0
 91
        1
 62
     0
 92
       -2
340
0
 93
        0
 40
0.045
309
GRIDFORMAT_END
309
TABLEFORMAT_END
  1
CELLSTYLE_BEGIN
 90
        1
 91
        1
300
_TITLE
309
CELLSTYLE_END
300
CELLSTYLE
  1
TABLEFORMAT_BEGIN
 90
        5
170
     1
 91
        0
 92
        0
 62
   257
 93
        1
300
CONTENTFORMAT
  1
CONTENTFORMAT_BEGIN
 90
        0
 91
        0
 92
      512
 93
        0
300

 40
0.0
140
1.0
 94
        5
 62
     0
340
11
144
0.18
309
CONTENTFORMAT_END
171
     1
301
MARGIN
  1
CELLMARGIN_BEGIN
 40
0.06
 40
0.06
 40
0.06
 40
0.06
 40
0.18
 40
0.18
309
CELLMARGIN_END
 94
        6
 95
        1
302
GRIDFORMAT
  1
GRIDFORMAT_BEGIN
 90
        0
 91
        1
 62
     0
 92
       -2
340
0
 93
        0
 40
0.045
309
GRIDFORMAT_END
 95
        2
302
GRIDFORMAT
  1
GRIDFORMAT_BEGIN
 90
        0
 91
        1
 62
     0
 92
       -2
340
0
 93
        0
 40
0.045
309
GRIDFORMAT_END
 95
        4
302
GRIDFORMAT
  1
GRIDFORMAT_BEGIN
 90
        0
 91
        1
 62
     0
 92
       -2
340
0
 93
        0
 40
0.045
309
GRIDFORMAT_END
 95
        8
302
GRIDFORMAT
  1
GRIDFORMAT_BEGIN
 90
        0
 91
        1
 62
     0
 92
       -2
340
0
 93
        0
 40
0.045
309
GRIDFORMAT_END
 95
       16
302
GRIDFORMAT
  1
GRIDFORMAT_BEGIN
 90
        0
 91
        1
 62
     0
 92
       -2
340
0
 93
        0
 40
0.045
309
GRIDFORMAT_END
 95
       32
302
GRIDFORMAT
  1
GRIDFORMAT_BEGIN
 90
        0
 91
        1
 62
     0
 92
       -2
340
0
 93
        0
 40
0.045
309
GRIDFORMAT_END
309
TABLEFORMAT_END
  1
CELLSTYLE_BEGIN
 90
        2
 91
        1
300
_HEADER
309
CELLSTYLE_END
300
CELLSTYLE
  1
TABLEFORMAT_BEGIN
 90
        5
170
     1
 91
        0
 92
        0
 62
   257
 93
        1
300
CONTENTFORMAT
  1
CONTENTFORMAT_BEGIN
 90
        0
 91
        0
 92
      512
 93
        0
300

 40
0.0
140
1.0
 94
        2
 62
     0
340
11
144
0.18
309
CONTENTFORMAT_END
171
     1
301
MARGIN
  1
CELLMARGIN_BEGIN
 40
0.06
 40
0.06
 40
0.06
 40
0.06
 40
0.18
 40
0.18
309
CELLMARGIN_END
 94
        6
 95
        1
302
GRIDFORMAT
  1
GRIDFORMAT_BEGIN
 90
        0
 91
        1
 62
     0
 92
       -2
340
0
 93
        0
 40
0.045
309
GRIDFORMAT_END
 95
        2
302
GRIDFORMAT
  1
GRIDFORMAT_BEGIN
 90
        0
 91
        1
 62
     0
 92
       -2
340
0
 93
        0
 40
0.045
309
GRIDFORMAT_END
 95
        4
302
GRIDFORMAT
  1
GRIDFORMAT_BEGIN
 90
        0
 91
        1
 62
     0
 92
       -2
340
0
 93
        0
 40
0.045
309
GRIDFORMAT_END
 95
        8
302
GRIDFORMAT
  1
GRIDFORMAT_BEGIN
 90
        0
 91
        1
 62
     0
 92
       -2
340
0
 93
        0
 40
0.045
309
GRIDFORMAT_END
 95
       16
302
GRIDFORMAT
  1
GRIDFORMAT_BEGIN
 90
        0
 91
        1
 62
     0
 92
       -2
340
0
 93
        0
 40
0.045
309
GRIDFORMAT_END
 95
       32
302
GRIDFORMAT
  1
GRIDFORMAT_BEGIN
 90
        0
 91
        1
 62
     0
 92
       -2
340
0
 93
        0
 40
0.045
309
GRIDFORMAT_END
309
TABLEFORMAT_END
  1
CELLSTYLE_BEGIN
 90
        3
 91
        2
300
_DATA
309
CELLSTYLE_END
  0
XRECORD
  5
15B21
102
{ACAD_REACTORS
330
104
102
}
330
104
100
AcDbXrecord
280
     1
102
ACAD_ROUNDTRIP_PRE2007_TABLESTYLE
 90
      512
 91
        0
  1

 92
      512
 93
        0
  2

 94
      512
 95
        0
  3

  0
XRECORD
  5
15B30
102
{ACAD_REACTORS
330
15B2F
102
}
330
15B2F
100
AcDbXrecord
280
     1
102
RTVSPost2010Prop28
280
     1
102
RTVSPost2010PropOp28
 70
     1
102
RTVSPost2010Prop29
280
     1
102
RTVSPost2010PropOp29
 70
     1
102
RTVSPost2010Prop30
280
     0
102
RTVSPost2010PropOp30
 70
     1
102
RTVSPost2010Prop31
280
     0
102
RTVSPost2010PropOp31
 70
     1
102
RTVSPost2010Prop32
280
     0
102
RTVSPost2010PropOp32
 70
     1
102
RTVSPost2010Prop33
280
     0
102
RTVSPost2010PropOp33
 70
     1
102
RTVSPost2010Prop34
280
     0
102
RTVSPost2010PropOp34
 70
     1
102
RTVSPost2010Prop35
280
     0
102
RTVSPost2010PropOp35
 70
     1
102
RTVSPost2010Prop36
280
     0
102
RTVSPost2010PropOp36
 70
     1
102
RTVSPost2010Prop37
 90
       50
102
RTVSPost2010PropOp37
 70
     1
102
RTVSPost2010Prop38
140
0.0
102
RTVSPost2010PropOp38
 70
     1
102
RTVSPost2010Prop39
140
1.0
102
RTVSPost2010PropOp39
 70
     1
102
RTVSPost2010Prop40
 90
        0
102
RTVSPost2010PropOp40
 70
     1
102
RTVSPost2010Prop41ColorIndex
 90
       18
102
RTVSPost2010Prop41ColorRGB
 90
        0
102
RTVSPost2010PropOp41
 70
     1
102
RTVSPost2010Prop42
 90
       50
102
RTVSPost2010PropOp42
 70
     1
102
RTVSPost2010Prop43
 90
        3
102
RTVSPost2010PropOp43
 70
     1
102
RTVSPost2010Prop44ColorIndex
 90
        5
102
RTVSPost2010Prop44ColorRGB
 90
      255
102
RTVSPost2010PropOp44
 70
     1
102
RTVSPost2010Prop45
280
     0
102
RTVSPost2010PropOp45
 70
     1
102
RTVSPost2010Prop46
 90
       50
102
RTVSPost2010PropOp46
 70
     1
102
RTVSPost2010Prop47
 90
       50
102
RTVSPost2010PropOp47
 70
     1
102
RTVSPost2010Prop48
 90
       50
102
RTVSPost2010PropOp48
 70
     1
102
RTVSPost2010Prop49
280
     0
102
RTVSPost2010PropOp49
 70
     1
102
RTVSPost2010Prop50
 90
       50
102
RTVSPost2010PropOp50
 70
     1
102
RTVSPost2010Prop51ColorIndex
 90
      256
102
RTVSPost2010Prop51ColorRGB
 90
-16777216
102
RTVSPost2010PropOp51
 70
     0
102
RTVSPost2010Prop52
140
1.0
102
RTVSPost2010PropOp52
 70
     0
102
RTVSPost2010Prop53
 90
        2
102
RTVSPost2010PropOp53
 70
     1
102
RTVSPost2010Prop54
  1
strokes_ogs.tif
102
RTVSPost2010PropOp54
 70
     1
102
RTVSPost2010Prop55
280
     0
102
RTVSPost2010PropOp55
 70
     1
102
RTVSPost2010Prop56
140
1.0
102
RTVSPost2010PropOp56
 70
     1
102
RTVSPost2010Prop57
140
1.0
102
RTVSPost2010PropOp57
 70
     1
102
RTVSPropertyOp0
 70
     1
102
RTVSPropertyOp1
 70
     1
102
RTVSPropertyOp2
 70
     1
102
RTVSPropertyOp3
 70
     1
102
RTVSPropertyOp4
 70
     1
102
RTVSPropertyOp5
 70
     1
102
RTVSPropertyOp6
 70
     1
102
RTVSPropertyOp7
 70
     1
102
RTVSPropertyOp8
 70
     1
102
RTVSPropertyOp9
 70
     1
102
RTVSPropertyOp10
 70
     1
102
RTVSPropertyOp11
 70
     1
102
RTVSPropertyOp12
 70
     1
102
RTVSPropertyOp13
 70
     1
102
RTVSPropertyOp14
 70
     1
102
RTVSPropertyOp15
 70
     1
102
RTVSPropertyOp16
 70
     1
102
RTVSPropertyOp17
 70
     1
102
RTVSPropertyOp18
 70
     1
102
RTVSPropertyOp19
 70
     1
102
RTVSPropertyOp20
 70
     1
102
RTVSPropertyOp21
 70
     1
102
RTVSPropertyOp22
 70
     1
102
RTVSPropertyOp23
 70
     1
102
RTVSPropertyOp24
 70
     1
102
RTVSPropertyOp25
 70
     1
102
RTVSPropertyOp26
 70
     1
102
RTVSPropertyOp27
 70
     1
102
RTVSPropertyOp28
 70
     1
102
RTVSPropertyOp29
 70
     1
102
RTVSPropertyOp30
 70
     1
102
RTVSPropertyOp31
 70
     1
102
RTVSPropertyOp32
 70
     1
102
RTVSPropertyOp33
 70
     1
102
RTVSPropertyOp34
 70
     1
102
RTVSPropertyOp35
 70
     1
102
RTVSPropertyOp36
 70
     1
102
RTVSPropertyOp37
 70
     1
102
RTVSPropertyOp38
 70
     1
102
RTVSPropertyOp39
 70
     1
102
RTVSPropertyOp40
 70
     1
102
RTVSPropertyOp41
 70
     1
102
RTVSPropertyOp42
 70
     1
102
RTVSPropertyOp43
 70
     1
102
RTVSPropertyOp44
 70
     1
102
RTVSPropertyOp45
 70
     1
102
RTVSPropertyOp46
 70
     1
102
RTVSPropertyOp47
 70
     1
102
RTVSPropertyOp48
 70
     1
102
RTVSPropertyOp49
 70
     1
102
RTVSPropertyOp50
 70
     1
102
RTVSPropertyOp51
 70
     0
102
RTVSPropertyOp52
 70
     0
102
RTVSPropertyOp53
 70
     1
102
RTVSPropertyOp54
 70
     1
102
RTVSPropertyOp55
 70
     1
102
RTVSPropertyOp56
 70
     1
102
RTVSPropertyOp57
 70
     1
102
RTVSPropertyOp58
 70
     1
102
RTVSPropertyOp59
 70
     1
102
RTVSPropertyOp60
 70
     1
102
RTVSPropertyOp61
 70
     1
102
RTVSPropertyOp62
 70
     1
  0
XRECORD
  5
15B2E
102
{ACAD_REACTORS
330
15B2D
102
}
330
15B2D
100
AcDbXrecord
280
     1
102
RTVSPost2010Prop28
280
     0
102
RTVSPost2010PropOp28
 70
     1
102
RTVSPost2010Prop29
280
     1
102
RTVSPost2010PropOp29
 70
     1
102
RTVSPost2010Prop30
280
     1
102
RTVSPost2010PropOp30
 70
     1
102
RTVSPost2010Prop31
280
     0
102
RTVSPost2010PropOp31
 70
     1
102
RTVSPost2010Prop32
280
     0
102
RTVSPost2010PropOp32
 70
     1
102
RTVSPost2010Prop33
280
     0
102
RTVSPost2010PropOp33
 70
     1
102
RTVSPost2010Prop34
280
     0
102
RTVSPost2010PropOp34
 70
     1
102
RTVSPost2010Prop35
280
     0
102
RTVSPost2010PropOp35
 70
     1
102
RTVSPost2010Prop36
280
     0
102
RTVSPost2010PropOp36
 70
     1
102
RTVSPost2010Prop37
 90
       50
102
RTVSPost2010PropOp37
 70
     1
102
RTVSPost2010Prop38
140
0.0
102
RTVSPost2010PropOp38
 70
     1
102
RTVSPost2010Prop39
140
1.0
102
RTVSPost2010PropOp39
 70
     1
102
RTVSPost2010Prop40
 90
        0
102
RTVSPost2010PropOp40
 70
     1
102
RTVSPost2010Prop41ColorIndex
 90
       18
102
RTVSPost2010Prop41ColorRGB
 90
        0
102
RTVSPost2010PropOp41
 70
     1
102
RTVSPost2010Prop42
 90
       50
102
RTVSPost2010PropOp42
 70
     1
102
RTVSPost2010Prop43
 90
        3
102
RTVSPost2010PropOp43
 70
     1
102
RTVSPost2010Prop44ColorIndex
 90
        5
102
RTVSPost2010Prop44ColorRGB
 90
      255
102
RTVSPost2010PropOp44
 70
     1
102
RTVSPost2010Prop45
280
     0
102
RTVSPost2010PropOp45
 70
     1
102
RTVSPost2010Prop46
 90
       50
102
RTVSPost2010PropOp46
 70
     1
102
RTVSPost2010Prop47
 90
       50
102
RTVSPost2010PropOp47
 70
     1
102
RTVSPost2010Prop48
 90
       50
102
RTVSPost2010PropOp48
 70
     1
102
RTVSPost2010Prop49
280
     0
102
RTVSPost2010PropOp49
 70
     1
102
RTVSPost2010Prop50
 90
       50
102
RTVSPost2010PropOp50
 70
     1
102
RTVSPost2010Prop51ColorIndex
 90
      256
102
RTVSPost2010Prop51ColorRGB
 90
-16777216
102
RTVSPost2010PropOp51
 70
     0
102
RTVSPost2010Prop52
140
1.0
102
RTVSPost2010PropOp52
 70
     0
102
RTVSPost2010Prop53
 90
        2
102
RTVSPost2010PropOp53
 70
     1
102
RTVSPost2010Prop54
  1
strokes_ogs.tif
102
RTVSPost2010PropOp54
 70
     1
102
RTVSPost2010Prop55
280
     0
102
RTVSPost2010PropOp55
 70
     1
102
RTVSPost2010Prop56
140
1.0
102
RTVSPost2010PropOp56
 70
     1
102
RTVSPost2010Prop57
140
1.0
102
RTVSPost2010PropOp57
 70
     1
102
RTVSPropertyOp0
 70
     1
102
RTVSPropertyOp1
 70
     1
102
RTVSPropertyOp2
 70
     1
102
RTVSPropertyOp3
 70
     1
102
RTVSPropertyOp4
 70
     1
102
RTVSPropertyOp5
 70
     1
102
RTVSPropertyOp6
 70
     1
102
RTVSPropertyOp7
 70
     1
102
RTVSPropertyOp8
 70
     1
102
RTVSPropertyOp9
 70
     1
102
RTVSPropertyOp10
 70
     1
102
RTVSPropertyOp11
 70
     1
102
RTVSPropertyOp12
 70
     1
102
RTVSPropertyOp13
 70
     1
102
RTVSPropertyOp14
 70
     1
102
RTVSPropertyOp15
 70
     1
102
RTVSPropertyOp16
 70
     1
102
RTVSPropertyOp17
 70
     1
102
RTVSPropertyOp18
 70
     1
102
RTVSPropertyOp19
 70
     1
102
RTVSPropertyOp20
 70
     1
102
RTVSPropertyOp21
 70
     1
102
RTVSPropertyOp22
 70
     1
102
RTVSPropertyOp23
 70
     1
102
RTVSPropertyOp24
 70
     1
102
RTVSPropertyOp25
 70
     1
102
RTVSPropertyOp26
 70
     1
102
RTVSPropertyOp27
 70
     1
102
RTVSPropertyOp28
 70
     1
102
RTVSPropertyOp29
 70
     1
102
RTVSPropertyOp30
 70
     1
102
RTVSPropertyOp31
 70
     1
102
RTVSPropertyOp32
 70
     1
102
RTVSPropertyOp33
 70
     1
102
RTVSPropertyOp34
 70
     1
102
RTVSPropertyOp35
 70
     1
102
RTVSPropertyOp36
 70
     1
102
RTVSPropertyOp37
 70
     1
102
RTVSPropertyOp38
 70
     1
102
RTVSPropertyOp39
 70
     1
102
RTVSPropertyOp40
 70
     1
102
RTVSPropertyOp41
 70
     1
102
RTVSPropertyOp42
 70
     1
102
RTVSPropertyOp43
 70
     1
102
RTVSPropertyOp44
 70
     1
102
RTVSPropertyOp45
 70
     1
102
RTVSPropertyOp46
 70
     1
102
RTVSPropertyOp47
 70
     1
102
RTVSPropertyOp48
 70
     1
102
RTVSPropertyOp49
 70
     1
102
RTVSPropertyOp50
 70
     1
102
RTVSPropertyOp51
 70
     0
102
RTVSPropertyOp52
 70
     0
102
RTVSPropertyOp53
 70
     1
102
RTVSPropertyOp54
 70
     1
102
RTVSPropertyOp55
 70
     1
102
RTVSPropertyOp56
 70
     1
102
RTVSPropertyOp57
 70
     1
102
RTVSPropertyOp58
 70
     1
102
RTVSPropertyOp59
 70
     1
102
RTVSPropertyOp60
 70
     1
102
RTVSPropertyOp61
 70
     1
102
RTVSPropertyOp62
 70
     1
  0
XRECORD
  5
15B3C
102
{ACAD_REACTORS
330
15B3B
102
}
330
15B3B
100
AcDbXrecord
280
     1
102
RTVSPost2010Prop28
280
     0
102
RTVSPost2010PropOp28
 70
     1
102
RTVSPost2010Prop29
280
     1
102
RTVSPost2010PropOp29
 70
     1
102
RTVSPost2010Prop30
280
     1
102
RTVSPost2010PropOp30
 70
     1
102
RTVSPost2010Prop31
280
     0
102
RTVSPost2010PropOp31
 70
     1
102
RTVSPost2010Prop32
280
     0
102
RTVSPost2010PropOp32
 70
     1
102
RTVSPost2010Prop33
280
     0
102
RTVSPost2010PropOp33
 70
     1
102
RTVSPost2010Prop34
280
     0
102
RTVSPost2010PropOp34
 70
     1
102
RTVSPost2010Prop35
280
     0
102
RTVSPost2010PropOp35
 70
     1
102
RTVSPost2010Prop36
280
     0
102
RTVSPost2010PropOp36
 70
     1
102
RTVSPost2010Prop37
 90
       50
102
RTVSPost2010PropOp37
 70
     1
102
RTVSPost2010Prop38
140
0.0
102
RTVSPost2010PropOp38
 70
     1
102
RTVSPost2010Prop39
140
1.0
102
RTVSPost2010PropOp39
 70
     1
102
RTVSPost2010Prop40
 90
        0
102
RTVSPost2010PropOp40
 70
     1
102
RTVSPost2010Prop41ColorIndex
 90
       18
102
RTVSPost2010Prop41ColorRGB
 90
        0
102
RTVSPost2010PropOp41
 70
     1
102
RTVSPost2010Prop42
 90
       50
102
RTVSPost2010PropOp42
 70
     1
102
RTVSPost2010Prop43
 90
        3
102
RTVSPost2010PropOp43
 70
     1
102
RTVSPost2010Prop44ColorIndex
 90
        5
102
RTVSPost2010Prop44ColorRGB
 90
      255
102
RTVSPost2010PropOp44
 70
     1
102
RTVSPost2010Prop45
280
     0
102
RTVSPost2010PropOp45
 70
     1
102
RTVSPost2010Prop46
 90
       50
102
RTVSPost2010PropOp46
 70
     1
102
RTVSPost2010Prop47
 90
       50
102
RTVSPost2010PropOp47
 70
     1
102
RTVSPost2010Prop48
 90
       50
102
RTVSPost2010PropOp48
 70
     1
102
RTVSPost2010Prop49
280
     0
102
RTVSPost2010PropOp49
 70
     1
102
RTVSPost2010Prop50
 90
       50
102
RTVSPost2010PropOp50
 70
     1
102
RTVSPost2010Prop51ColorIndex
 90
      256
102
RTVSPost2010Prop51ColorRGB
 90
-16777216
102
RTVSPost2010PropOp51
 70
     0
102
RTVSPost2010Prop52
140
1.0
102
RTVSPost2010PropOp52
 70
     0
102
RTVSPost2010Prop53
 90
        2
102
RTVSPost2010PropOp53
 70
     1
102
RTVSPost2010Prop54
  1
strokes_ogs.tif
102
RTVSPost2010PropOp54
 70
     1
102
RTVSPost2010Prop55
280
     0
102
RTVSPost2010PropOp55
 70
     1
102
RTVSPost2010Prop56
140
1.0
102
RTVSPost2010PropOp56
 70
     1
102
RTVSPost2010Prop57
140
1.0
102
RTVSPost2010PropOp57
 70
     1
102
RTVSPropertyOp0
 70
     1
102
RTVSPropertyOp1
 70
     1
102
RTVSPropertyOp2
 70
     1
102
RTVSPropertyOp3
 70
     1
102
RTVSPropertyOp4
 70
     1
102
RTVSPropertyOp5
 70
     1
102
RTVSPropertyOp6
 70
     1
102
RTVSPropertyOp7
 70
     1
102
RTVSPropertyOp8
 70
     1
102
RTVSPropertyOp9
 70
     1
102
RTVSPropertyOp10
 70
     1
102
RTVSPropertyOp11
 70
     1
102
RTVSPropertyOp12
 70
     1
102
RTVSPropertyOp13
 70
     1
102
RTVSPropertyOp14
 70
     1
102
RTVSPropertyOp15
 70
     1
102
RTVSPropertyOp16
 70
     1
102
RTVSPropertyOp17
 70
     1
102
RTVSPropertyOp18
 70
     1
102
RTVSPropertyOp19
 70
     1
102
RTVSPropertyOp20
 70
     1
102
RTVSPropertyOp21
 70
     1
102
RTVSPropertyOp22
 70
     1
102
RTVSPropertyOp23
 70
     1
102
RTVSPropertyOp24
 70
     1
102
RTVSPropertyOp25
 70
     1
102
RTVSPropertyOp26
 70
     1
102
RTVSPropertyOp27
 70
     1
102
RTVSPropertyOp28
 70
     1
102
RTVSPropertyOp29
 70
     1
102
RTVSPropertyOp30
 70
     1
102
RTVSPropertyOp31
 70
     1
102
RTVSPropertyOp32
 70
     1
102
RTVSPropertyOp33
 70
     1
102
RTVSPropertyOp34
 70
     1
102
RTVSPropertyOp35
 70
     1
102
RTVSPropertyOp36
 70
     1
102
RTVSPropertyOp37
 70
     1
102
RTVSPropertyOp38
 70
     1
102
RTVSPropertyOp39
 70
     1
102
RTVSPropertyOp40
 70
     1
102
RTVSPropertyOp41
 70
     1
102
RTVSPropertyOp42
 70
     1
102
RTVSPropertyOp43
 70
     1
102
RTVSPropertyOp44
 70
     1
102
RTVSPropertyOp45
 70
     1
102
RTVSPropertyOp46
 70
     1
102
RTVSPropertyOp47
 70
     1
102
RTVSPropertyOp48
 70
     1
102
RTVSPropertyOp49
 70
     1
102
RTVSPropertyOp50
 70
     1
102
RTVSPropertyOp51
 70
     0
102
RTVSPropertyOp52
 70
     0
102
RTVSPropertyOp53
 70
     1
102
RTVSPropertyOp54
 70
     1
102
RTVSPropertyOp55
 70
     1
102
RTVSPropertyOp56
 70
     1
102
RTVSPropertyOp57
 70
     1
102
RTVSPropertyOp58
 70
     1
102
RTVSPropertyOp59
 70
     1
102
RTVSPropertyOp60
 70
     1
102
RTVSPropertyOp61
 70
     1
102
RTVSPropertyOp62
 70
     1
  0
XRECORD
  5
15B44
102
{ACAD_REACTORS
330
15B43
102
}
330
15B43
100
AcDbXrecord
280
     1
102
RTVSPost2010Prop28
280
     0
102
RTVSPost2010PropOp28
 70
     1
102
RTVSPost2010Prop29
280
     1
102
RTVSPost2010PropOp29
 70
     1
102
RTVSPost2010Prop30
280
     1
102
RTVSPost2010PropOp30
 70
     1
102
RTVSPost2010Prop31
280
     0
102
RTVSPost2010PropOp31
 70
     1
102
RTVSPost2010Prop32
280
     0
102
RTVSPost2010PropOp32
 70
     1
102
RTVSPost2010Prop33
280
     0
102
RTVSPost2010PropOp33
 70
     1
102
RTVSPost2010Prop34
280
     0
102
RTVSPost2010PropOp34
 70
     1
102
RTVSPost2010Prop35
280
     0
102
RTVSPost2010PropOp35
 70
     1
102
RTVSPost2010Prop36
280
     0
102
RTVSPost2010PropOp36
 70
     1
102
RTVSPost2010Prop37
 90
       50
102
RTVSPost2010PropOp37
 70
     1
102
RTVSPost2010Prop38
140
0.0
102
RTVSPost2010PropOp38
 70
     1
102
RTVSPost2010Prop39
140
1.0
102
RTVSPost2010PropOp39
 70
     1
102
RTVSPost2010Prop40
 90
        0
102
RTVSPost2010PropOp40
 70
     1
102
RTVSPost2010Prop41ColorIndex
 90
       18
102
RTVSPost2010Prop41ColorRGB
 90
        0
102
RTVSPost2010PropOp41
 70
     1
102
RTVSPost2010Prop42
 90
       50
102
RTVSPost2010PropOp42
 70
     1
102
RTVSPost2010Prop43
 90
        3
102
RTVSPost2010PropOp43
 70
     1
102
RTVSPost2010Prop44ColorIndex
 90
        5
102
RTVSPost2010Prop44ColorRGB
 90
      255
102
RTVSPost2010PropOp44
 70
     1
102
RTVSPost2010Prop45
280
     0
102
RTVSPost2010PropOp45
 70
     1
102
RTVSPost2010Prop46
 90
       50
102
RTVSPost2010PropOp46
 70
     1
102
RTVSPost2010Prop47
 90
       50
102
RTVSPost2010PropOp47
 70
     1
102
RTVSPost2010Prop48
 90
       50
102
RTVSPost2010PropOp48
 70
     1
102
RTVSPost2010Prop49
280
     0
102
RTVSPost2010PropOp49
 70
     1
102
RTVSPost2010Prop50
 90
       50
102
RTVSPost2010PropOp50
 70
     1
102
RTVSPost2010Prop51ColorIndex
 90
      256
102
RTVSPost2010Prop51ColorRGB
 90
-16777216
102
RTVSPost2010PropOp51
 70
     0
102
RTVSPost2010Prop52
140
1.0
102
RTVSPost2010PropOp52
 70
     0
102
RTVSPost2010Prop53
 90
        2
102
RTVSPost2010PropOp53
 70
     1
102
RTVSPost2010Prop54
  1
strokes_ogs.tif
102
RTVSPost2010PropOp54
 70
     1
102
RTVSPost2010Prop55
280
     0
102
RTVSPost2010PropOp55
 70
     1
102
RTVSPost2010Prop56
140
1.0
102
RTVSPost2010PropOp56
 70
     1
102
RTVSPost2010Prop57
140
1.0
102
RTVSPost2010PropOp57
 70
     1
102
RTVSPropertyOp0
 70
     1
102
RTVSPropertyOp1
 70
     1
102
RTVSPropertyOp2
 70
     1
102
RTVSPropertyOp3
 70
     1
102
RTVSPropertyOp4
 70
     1
102
RTVSPropertyOp5
 70
     1
102
RTVSPropertyOp6
 70
     1
102
RTVSPropertyOp7
 70
     1
102
RTVSPropertyOp8
 70
     1
102
RTVSPropertyOp9
 70
     1
102
RTVSPropertyOp10
 70
     1
102
RTVSPropertyOp11
 70
     1
102
RTVSPropertyOp12
 70
     1
102
RTVSPropertyOp13
 70
     1
102
RTVSPropertyOp14
 70
     1
102
RTVSPropertyOp15
 70
     1
102
RTVSPropertyOp16
 70
     1
102
RTVSPropertyOp17
 70
     1
102
RTVSPropertyOp18
 70
     1
102
RTVSPropertyOp19
 70
     1
102
RTVSPropertyOp20
 70
     1
102
RTVSPropertyOp21
 70
     1
102
RTVSPropertyOp22
 70
     1
102
RTVSPropertyOp23
 70
     1
102
RTVSPropertyOp24
 70
     1
102
RTVSPropertyOp25
 70
     1
102
RTVSPropertyOp26
 70
     1
102
RTVSPropertyOp27
 70
     1
102
RTVSPropertyOp28
 70
     1
102
RTVSPropertyOp29
 70
     1
102
RTVSPropertyOp30
 70
     1
102
RTVSPropertyOp31
 70
     1
102
RTVSPropertyOp32
 70
     1
102
RTVSPropertyOp33
 70
     1
102
RTVSPropertyOp34
 70
     1
102
RTVSPropertyOp35
 70
     1
102
RTVSPropertyOp36
 70
     1
102
RTVSPropertyOp37
 70
     1
102
RTVSPropertyOp38
 70
     1
102
RTVSPropertyOp39
 70
     1
102
RTVSPropertyOp40
 70
     1
102
RTVSPropertyOp41
 70
     1
102
RTVSPropertyOp42
 70
     1
102
RTVSPropertyOp43
 70
     1
102
RTVSPropertyOp44
 70
     1
102
RTVSPropertyOp45
 70
     1
102
RTVSPropertyOp46
 70
     1
102
RTVSPropertyOp47
 70
     1
102
RTVSPropertyOp48
 70
     1
102
RTVSPropertyOp49
 70
     1
102
RTVSPropertyOp50
 70
     1
102
RTVSPropertyOp51
 70
     0
102
RTVSPropertyOp52
 70
     0
102
RTVSPropertyOp53
 70
     1
102
RTVSPropertyOp54
 70
     1
102
RTVSPropertyOp55
 70
     1
102
RTVSPropertyOp56
 70
     1
102
RTVSPropertyOp57
 70
     1
102
RTVSPropertyOp58
 70
     1
102
RTVSPropertyOp59
 70
     1
102
RTVSPropertyOp60
 70
     1
102
RTVSPropertyOp61
 70
     1
102
RTVSPropertyOp62
 70
     1
  0
XRECORD
  5
15B36
102
{ACAD_REACTORS
330
15B35
102
}
330
15B35
100
AcDbXrecord
280
     1
102
RTVSPost2010Prop28
280
     0
102
RTVSPost2010PropOp28
 70
     1
102
RTVSPost2010Prop29
280
     1
102
RTVSPost2010PropOp29
 70
     1
102
RTVSPost2010Prop30
280
     1
102
RTVSPost2010PropOp30
 70
     1
102
RTVSPost2010Prop31
280
     0
102
RTVSPost2010PropOp31
 70
     1
102
RTVSPost2010Prop32
280
     0
102
RTVSPost2010PropOp32
 70
     1
102
RTVSPost2010Prop33
280
     0
102
RTVSPost2010PropOp33
 70
     1
102
RTVSPost2010Prop34
280
     0
102
RTVSPost2010PropOp34
 70
     1
102
RTVSPost2010Prop35
280
     0
102
RTVSPost2010PropOp35
 70
     1
102
RTVSPost2010Prop36
280
     0
102
RTVSPost2010PropOp36
 70
     1
102
RTVSPost2010Prop37
 90
       50
102
RTVSPost2010PropOp37
 70
     1
102
RTVSPost2010Prop38
140
0.0
102
RTVSPost2010PropOp38
 70
     1
102
RTVSPost2010Prop39
140
1.0
102
RTVSPost2010PropOp39
 70
     1
102
RTVSPost2010Prop40
 90
        0
102
RTVSPost2010PropOp40
 70
     1
102
RTVSPost2010Prop41ColorIndex
 90
       18
102
RTVSPost2010Prop41ColorRGB
 90
        0
102
RTVSPost2010PropOp41
 70
     1
102
RTVSPost2010Prop42
 90
       50
102
RTVSPost2010PropOp42
 70
     1
102
RTVSPost2010Prop43
 90
        3
102
RTVSPost2010PropOp43
 70
     1
102
RTVSPost2010Prop44ColorIndex
 90
        5
102
RTVSPost2010Prop44ColorRGB
 90
      255
102
RTVSPost2010PropOp44
 70
     1
102
RTVSPost2010Prop45
280
     0
102
RTVSPost2010PropOp45
 70
     1
102
RTVSPost2010Prop46
 90
       50
102
RTVSPost2010PropOp46
 70
     1
102
RTVSPost2010Prop47
 90
       50
102
RTVSPost2010PropOp47
 70
     1
102
RTVSPost2010Prop48
 90
       50
102
RTVSPost2010PropOp48
 70
     1
102
RTVSPost2010Prop49
280
     0
102
RTVSPost2010PropOp49
 70
     1
102
RTVSPost2010Prop50
 90
       50
102
RTVSPost2010PropOp50
 70
     1
102
RTVSPost2010Prop51ColorIndex
 90
      256
102
RTVSPost2010Prop51ColorRGB
 90
-16777216
102
RTVSPost2010PropOp51
 70
     0
102
RTVSPost2010Prop52
140
1.0
102
RTVSPost2010PropOp52
 70
     0
102
RTVSPost2010Prop53
 90
        2
102
RTVSPost2010PropOp53
 70
     1
102
RTVSPost2010Prop54
  1
strokes_ogs.tif
102
RTVSPost2010PropOp54
 70
     1
102
RTVSPost2010Prop55
280
     0
102
RTVSPost2010PropOp55
 70
     1
102
RTVSPost2010Prop56
140
1.0
102
RTVSPost2010PropOp56
 70
     1
102
RTVSPost2010Prop57
140
1.0
102
RTVSPost2010PropOp57
 70
     1
102
RTVSPropertyOp0
 70
     1
102
RTVSPropertyOp1
 70
     1
102
RTVSPropertyOp2
 70
     1
102
RTVSPropertyOp3
 70
     1
102
RTVSPropertyOp4
 70
     1
102
RTVSPropertyOp5
 70
     1
102
RTVSPropertyOp6
 70
     1
102
RTVSPropertyOp7
 70
     1
102
RTVSPropertyOp8
 70
     1
102
RTVSPropertyOp9
 70
     1
102
RTVSPropertyOp10
 70
     1
102
RTVSPropertyOp11
 70
     1
102
RTVSPropertyOp12
 70
     1
102
RTVSPropertyOp13
 70
     1
102
RTVSPropertyOp14
 70
     1
102
RTVSPropertyOp15
 70
     1
102
RTVSPropertyOp16
 70
     1
102
RTVSPropertyOp17
 70
     1
102
RTVSPropertyOp18
 70
     1
102
RTVSPropertyOp19
 70
     1
102
RTVSPropertyOp20
 70
     1
102
RTVSPropertyOp21
 70
     1
102
RTVSPropertyOp22
 70
     1
102
RTVSPropertyOp23
 70
     1
102
RTVSPropertyOp24
 70
     1
102
RTVSPropertyOp25
 70
     1
102
RTVSPropertyOp26
 70
     1
102
RTVSPropertyOp27
 70
     1
102
RTVSPropertyOp28
 70
     1
102
RTVSPropertyOp29
 70
     1
102
RTVSPropertyOp30
 70
     1
102
RTVSPropertyOp31
 70
     1
102
RTVSPropertyOp32
 70
     1
102
RTVSPropertyOp33
 70
     1
102
RTVSPropertyOp34
 70
     1
102
RTVSPropertyOp35
 70
     1
102
RTVSPropertyOp36
 70
     1
102
RTVSPropertyOp37
 70
     1
102
RTVSPropertyOp38
 70
     1
102
RTVSPropertyOp39
 70
     1
102
RTVSPropertyOp40
 70
     1
102
RTVSPropertyOp41
 70
     1
102
RTVSPropertyOp42
 70
     1
102
RTVSPropertyOp43
 70
     1
102
RTVSPropertyOp44
 70
     1
102
RTVSPropertyOp45
 70
     1
102
RTVSPropertyOp46
 70
     1
102
RTVSPropertyOp47
 70
     1
102
RTVSPropertyOp48
 70
     1
102
RTVSPropertyOp49
 70
     1
102
RTVSPropertyOp50
 70
     1
102
RTVSPropertyOp51
 70
     0
102
RTVSPropertyOp52
 70
     0
102
RTVSPropertyOp53
 70
     1
102
RTVSPropertyOp54
 70
     1
102
RTVSPropertyOp55
 70
     1
102
RTVSPropertyOp56
 70
     1
102
RTVSPropertyOp57
 70
     1
102
RTVSPropertyOp58
 70
     1
102
RTVSPropertyOp59
 70
     1
102
RTVSPropertyOp60
 70
     1
102
RTVSPropertyOp61
 70
     1
102
RTVSPropertyOp62
 70
     1
  0
XRECORD
  5
15B3A
102
{ACAD_REACTORS
330
15B39
102
}
330
15B39
100
AcDbXrecord
280
     1
102
RTVSPost2010Prop28
280
     0
102
RTVSPost2010PropOp28
 70
     1
102
RTVSPost2010Prop29
280
     1
102
RTVSPost2010PropOp29
 70
     1
102
RTVSPost2010Prop30
280
     1
102
RTVSPost2010PropOp30
 70
     1
102
RTVSPost2010Prop31
280
     0
102
RTVSPost2010PropOp31
 70
     1
102
RTVSPost2010Prop32
280
     0
102
RTVSPost2010PropOp32
 70
     1
102
RTVSPost2010Prop33
280
     0
102
RTVSPost2010PropOp33
 70
     1
102
RTVSPost2010Prop34
280
     0
102
RTVSPost2010PropOp34
 70
     1
102
RTVSPost2010Prop35
280
     0
102
RTVSPost2010PropOp35
 70
     1
102
RTVSPost2010Prop36
280
     0
102
RTVSPost2010PropOp36
 70
     1
102
RTVSPost2010Prop37
 90
       50
102
RTVSPost2010PropOp37
 70
     1
102
RTVSPost2010Prop38
140
0.0
102
RTVSPost2010PropOp38
 70
     1
102
RTVSPost2010Prop39
140
1.0
102
RTVSPost2010PropOp39
 70
     1
102
RTVSPost2010Prop40
 90
        0
102
RTVSPost2010PropOp40
 70
     1
102
RTVSPost2010Prop41ColorIndex
 90
       18
102
RTVSPost2010Prop41ColorRGB
 90
        0
102
RTVSPost2010PropOp41
 70
     1
102
RTVSPost2010Prop42
 90
       50
102
RTVSPost2010PropOp42
 70
     1
102
RTVSPost2010Prop43
 90
        3
102
RTVSPost2010PropOp43
 70
     1
102
RTVSPost2010Prop44ColorIndex
 90
        5
102
RTVSPost2010Prop44ColorRGB
 90
      255
102
RTVSPost2010PropOp44
 70
     1
102
RTVSPost2010Prop45
280
     0
102
RTVSPost2010PropOp45
 70
     1
102
RTVSPost2010Prop46
 90
       50
102
RTVSPost2010PropOp46
 70
     1
102
RTVSPost2010Prop47
 90
       50
102
RTVSPost2010PropOp47
 70
     1
102
RTVSPost2010Prop48
 90
       50
102
RTVSPost2010PropOp48
 70
     1
102
RTVSPost2010Prop49
280
     0
102
RTVSPost2010PropOp49
 70
     1
102
RTVSPost2010Prop50
 90
       50
102
RTVSPost2010PropOp50
 70
     1
102
RTVSPost2010Prop51ColorIndex
 90
      256
102
RTVSPost2010Prop51ColorRGB
 90
-16777216
102
RTVSPost2010PropOp51
 70
     0
102
RTVSPost2010Prop52
140
1.0
102
RTVSPost2010PropOp52
 70
     0
102
RTVSPost2010Prop53
 90
        2
102
RTVSPost2010PropOp53
 70
     1
102
RTVSPost2010Prop54
  1
strokes_ogs.tif
102
RTVSPost2010PropOp54
 70
     1
102
RTVSPost2010Prop55
280
     0
102
RTVSPost2010PropOp55
 70
     1
102
RTVSPost2010Prop56
140
1.0
102
RTVSPost2010PropOp56
 70
     1
102
RTVSPost2010Prop57
140
1.0
102
RTVSPost2010PropOp57
 70
     1
102
RTVSPropertyOp0
 70
     1
102
RTVSPropertyOp1
 70
     1
102
RTVSPropertyOp2
 70
     1
102
RTVSPropertyOp3
 70
     1
102
RTVSPropertyOp4
 70
     1
102
RTVSPropertyOp5
 70
     1
102
RTVSPropertyOp6
 70
     1
102
RTVSPropertyOp7
 70
     1
102
RTVSPropertyOp8
 70
     1
102
RTVSPropertyOp9
 70
     1
102
RTVSPropertyOp10
 70
     1
102
RTVSPropertyOp11
 70
     1
102
RTVSPropertyOp12
 70
     1
102
RTVSPropertyOp13
 70
     1
102
RTVSPropertyOp14
 70
     1
102
RTVSPropertyOp15
 70
     1
102
RTVSPropertyOp16
 70
     1
102
RTVSPropertyOp17
 70
     1
102
RTVSPropertyOp18
 70
     1
102
RTVSPropertyOp19
 70
     1
102
RTVSPropertyOp20
 70
     1
102
RTVSPropertyOp21
 70
     1
102
RTVSPropertyOp22
 70
     1
102
RTVSPropertyOp23
 70
     1
102
RTVSPropertyOp24
 70
     1
102
RTVSPropertyOp25
 70
     1
102
RTVSPropertyOp26
 70
     1
102
RTVSPropertyOp27
 70
     1
102
RTVSPropertyOp28
 70
     1
102
RTVSPropertyOp29
 70
     1
102
RTVSPropertyOp30
 70
     1
102
RTVSPropertyOp31
 70
     1
102
RTVSPropertyOp32
 70
     1
102
RTVSPropertyOp33
 70
     1
102
RTVSPropertyOp34
 70
     1
102
RTVSPropertyOp35
 70
     1
102
RTVSPropertyOp36
 70
     1
102
RTVSPropertyOp37
 70
     1
102
RTVSPropertyOp38
 70
     1
102
RTVSPropertyOp39
 70
     1
102
RTVSPropertyOp40
 70
     1
102
RTVSPropertyOp41
 70
     1
102
RTVSPropertyOp42
 70
     1
102
RTVSPropertyOp43
 70
     1
102
RTVSPropertyOp44
 70
     1
102
RTVSPropertyOp45
 70
     1
102
RTVSPropertyOp46
 70
     1
102
RTVSPropertyOp47
 70
     1
102
RTVSPropertyOp48
 70
     1
102
RTVSPropertyOp49
 70
     1
102
RTVSPropertyOp50
 70
     1
102
RTVSPropertyOp51
 70
     0
102
RTVSPropertyOp52
 70
     0
102
RTVSPropertyOp53
 70
     1
102
RTVSPropertyOp54
 70
     1
102
RTVSPropertyOp55
 70
     1
102
RTVSPropertyOp56
 70
     1
102
RTVSPropertyOp57
 70
     1
102
RTVSPropertyOp58
 70
     1
102
RTVSPropertyOp59
 70
     1
102
RTVSPropertyOp60
 70
     1
102
RTVSPropertyOp61
 70
     1
102
RTVSPropertyOp62
 70
     1
  0
XRECORD
  5
15B4C
102
{ACAD_REACTORS
330
15B4B
102
}
330
15B4B
100
AcDbXrecord
280
     1
102
RTVSPost2010Prop28
280
     0
102
RTVSPost2010PropOp28
 70
     1
102
RTVSPost2010Prop29
280
     1
102
RTVSPost2010PropOp29
 70
     1
102
RTVSPost2010Prop30
280
     1
102
RTVSPost2010PropOp30
 70
     1
102
RTVSPost2010Prop31
280
     0
102
RTVSPost2010PropOp31
 70
     1
102
RTVSPost2010Prop32
280
     0
102
RTVSPost2010PropOp32
 70
     1
102
RTVSPost2010Prop33
280
     0
102
RTVSPost2010PropOp33
 70
     1
102
RTVSPost2010Prop34
280
     0
102
RTVSPost2010PropOp34
 70
     1
102
RTVSPost2010Prop35
280
     0
102
RTVSPost2010PropOp35
 70
     1
102
RTVSPost2010Prop36
280
     0
102
RTVSPost2010PropOp36
 70
     1
102
RTVSPost2010Prop37
 90
       50
102
RTVSPost2010PropOp37
 70
     1
102
RTVSPost2010Prop38
140
0.0
102
RTVSPost2010PropOp38
 70
     1
102
RTVSPost2010Prop39
140
1.0
102
RTVSPost2010PropOp39
 70
     1
102
RTVSPost2010Prop40
 90
        0
102
RTVSPost2010PropOp40
 70
     1
102
RTVSPost2010Prop41ColorIndex
 90
       18
102
RTVSPost2010Prop41ColorRGB
 90
        0
102
RTVSPost2010PropOp41
 70
     1
102
RTVSPost2010Prop42
 90
       50
102
RTVSPost2010PropOp42
 70
     1
102
RTVSPost2010Prop43
 90
        3
102
RTVSPost2010PropOp43
 70
     1
102
RTVSPost2010Prop44ColorIndex
 90
        5
102
RTVSPost2010Prop44ColorRGB
 90
      255
102
RTVSPost2010PropOp44
 70
     1
102
RTVSPost2010Prop45
280
     0
102
RTVSPost2010PropOp45
 70
     1
102
RTVSPost2010Prop46
 90
       50
102
RTVSPost2010PropOp46
 70
     1
102
RTVSPost2010Prop47
 90
       50
102
RTVSPost2010PropOp47
 70
     1
102
RTVSPost2010Prop48
 90
       50
102
RTVSPost2010PropOp48
 70
     1
102
RTVSPost2010Prop49
280
     0
102
RTVSPost2010PropOp49
 70
     1
102
RTVSPost2010Prop50
 90
       50
102
RTVSPost2010PropOp50
 70
     1
102
RTVSPost2010Prop51ColorIndex
 90
      256
102
RTVSPost2010Prop51ColorRGB
 90
-16777216
102
RTVSPost2010PropOp51
 70
     0
102
RTVSPost2010Prop52
140
1.0
102
RTVSPost2010PropOp52
 70
     0
102
RTVSPost2010Prop53
 90
        2
102
RTVSPost2010PropOp53
 70
     1
102
RTVSPost2010Prop54
  1
strokes_ogs.tif
102
RTVSPost2010PropOp54
 70
     1
102
RTVSPost2010Prop55
280
     0
102
RTVSPost2010PropOp55
 70
     1
102
RTVSPost2010Prop56
140
1.0
102
RTVSPost2010PropOp56
 70
     1
102
RTVSPost2010Prop57
140
1.0
102
RTVSPost2010PropOp57
 70
     1
102
RTVSPropertyOp0
 70
     0
102
RTVSPropertyOp1
 70
     0
102
RTVSPropertyOp2
 70
     0
102
RTVSPropertyOp3
 70
     0
102
RTVSPropertyOp4
 70
     0
102
RTVSPropertyOp5
 70
     0
102
RTVSPropertyOp6
 70
     0
102
RTVSPropertyOp7
 70
     0
102
RTVSPropertyOp8
 70
     0
102
RTVSPropertyOp9
 70
     0
102
RTVSPropertyOp10
 70
     0
102
RTVSPropertyOp11
 70
     0
102
RTVSPropertyOp12
 70
     0
102
RTVSPropertyOp13
 70
     0
102
RTVSPropertyOp14
 70
     2
102
RTVSPropertyOp15
 70
     0
102
RTVSPropertyOp16
 70
     0
102
RTVSPropertyOp17
 70
     0
102
RTVSPropertyOp18
 70
     0
102
RTVSPropertyOp19
 70
     0
102
RTVSPropertyOp20
 70
     0
102
RTVSPropertyOp21
 70
     0
102
RTVSPropertyOp22
 70
     0
102
RTVSPropertyOp23
 70
     0
102
RTVSPropertyOp24
 70
     0
102
RTVSPropertyOp25
 70
     0
102
RTVSPropertyOp26
 70
     0
102
RTVSPropertyOp27
 70
     0
102
RTVSPropertyOp28
 70
     1
102
RTVSPropertyOp29
 70
     1
102
RTVSPropertyOp30
 70
     1
102
RTVSPropertyOp31
 70
     1
102
RTVSPropertyOp32
 70
     1
102
RTVSPropertyOp33
 70
     1
102
RTVSPropertyOp34
 70
     1
102
RTVSPropertyOp35
 70
     1
102
RTVSPropertyOp36
 70
     1
102
RTVSPropertyOp37
 70
     1
102
RTVSPropertyOp38
 70
     1
102
RTVSPropertyOp39
 70
     1
102
RTVSPropertyOp40
 70
     1
102
RTVSPropertyOp41
 70
     1
102
RTVSPropertyOp42
 70
     1
102
RTVSPropertyOp43
 70
     1
102
RTVSPropertyOp44
 70
     1
102
RTVSPropertyOp45
 70
     1
102
RTVSPropertyOp46
 70
     1
102
RTVSPropertyOp47
 70
     1
102
RTVSPropertyOp48
 70
     1
102
RTVSPropertyOp49
 70
     1
102
RTVSPropertyOp50
 70
     1
102
RTVSPropertyOp51
 70
     0
102
RTVSPropertyOp52
 70
     0
102
RTVSPropertyOp53
 70
     1
102
RTVSPropertyOp54
 70
     1
102
RTVSPropertyOp55
 70
     1
102
RTVSPropertyOp56
 70
     1
102
RTVSPropertyOp57
 70
     1
102
RTVSPropertyOp58
 70
     1
102
RTVSPropertyOp59
 70
     1
102
RTVSPropertyOp60
 70
     1
102
RTVSPropertyOp61
 70
     1
102
RTVSPropertyOp62
 70
     1
  0
XRECORD
  5
15B42
102
{ACAD_REACTORS
330
15B41
102
}
330
15B41
100
AcDbXrecord
280
     1
102
RTVSPost2010Prop28
280
     0
102
RTVSPost2010PropOp28
 70
     1
102
RTVSPost2010Prop29
280
     1
102
RTVSPost2010PropOp29
 70
     1
102
RTVSPost2010Prop30
280
     1
102
RTVSPost2010PropOp30
 70
     1
102
RTVSPost2010Prop31
280
     0
102
RTVSPost2010PropOp31
 70
     1
102
RTVSPost2010Prop32
280
     0
102
RTVSPost2010PropOp32
 70
     1
102
RTVSPost2010Prop33
280
     0
102
RTVSPost2010PropOp33
 70
     1
102
RTVSPost2010Prop34
280
     0
102
RTVSPost2010PropOp34
 70
     1
102
RTVSPost2010Prop35
280
     0
102
RTVSPost2010PropOp35
 70
     1
102
RTVSPost2010Prop36
280
     0
102
RTVSPost2010PropOp36
 70
     1
102
RTVSPost2010Prop37
 90
       50
102
RTVSPost2010PropOp37
 70
     1
102
RTVSPost2010Prop38
140
0.0
102
RTVSPost2010PropOp38
 70
     1
102
RTVSPost2010Prop39
140
1.0
102
RTVSPost2010PropOp39
 70
     1
102
RTVSPost2010Prop40
 90
        0
102
RTVSPost2010PropOp40
 70
     1
102
RTVSPost2010Prop41ColorIndex
 90
       18
102
RTVSPost2010Prop41ColorRGB
 90
        0
102
RTVSPost2010PropOp41
 70
     1
102
RTVSPost2010Prop42
 90
       50
102
RTVSPost2010PropOp42
 70
     1
102
RTVSPost2010Prop43
 90
        3
102
RTVSPost2010PropOp43
 70
     1
102
RTVSPost2010Prop44ColorIndex
 90
        5
102
RTVSPost2010Prop44ColorRGB
 90
      255
102
RTVSPost2010PropOp44
 70
     1
102
RTVSPost2010Prop45
280
     0
102
RTVSPost2010PropOp45
 70
     1
102
RTVSPost2010Prop46
 90
       50
102
RTVSPost2010PropOp46
 70
     1
102
RTVSPost2010Prop47
 90
       50
102
RTVSPost2010PropOp47
 70
     1
102
RTVSPost2010Prop48
 90
       50
102
RTVSPost2010PropOp48
 70
     1
102
RTVSPost2010Prop49
280
     0
102
RTVSPost2010PropOp49
 70
     1
102
RTVSPost2010Prop50
 90
       50
102
RTVSPost2010PropOp50
 70
     1
102
RTVSPost2010Prop51ColorIndex
 90
      256
102
RTVSPost2010Prop51ColorRGB
 90
-16777216
102
RTVSPost2010PropOp51
 70
     0
102
RTVSPost2010Prop52
140
1.0
102
RTVSPost2010PropOp52
 70
     0
102
RTVSPost2010Prop53
 90
        2
102
RTVSPost2010PropOp53
 70
     1
102
RTVSPost2010Prop54
  1
strokes_ogs.tif
102
RTVSPost2010PropOp54
 70
     1
102
RTVSPost2010Prop55
280
     0
102
RTVSPost2010PropOp55
 70
     1
102
RTVSPost2010Prop56
140
1.0
102
RTVSPost2010PropOp56
 70
     1
102
RTVSPost2010Prop57
140
1.0
102
RTVSPost2010PropOp57
 70
     1
102
RTVSPropertyOp0
 70
     1
102
RTVSPropertyOp1
 70
     1
102
RTVSPropertyOp2
 70
     1
102
RTVSPropertyOp3
 70
     1
102
RTVSPropertyOp4
 70
     1
102
RTVSPropertyOp5
 70
     1
102
RTVSPropertyOp6
 70
     1
102
RTVSPropertyOp7
 70
     1
102
RTVSPropertyOp8
 70
     1
102
RTVSPropertyOp9
 70
     1
102
RTVSPropertyOp10
 70
     1
102
RTVSPropertyOp11
 70
     1
102
RTVSPropertyOp12
 70
     1
102
RTVSPropertyOp13
 70
     1
102
RTVSPropertyOp14
 70
     1
102
RTVSPropertyOp15
 70
     1
102
RTVSPropertyOp16
 70
     1
102
RTVSPropertyOp17
 70
     1
102
RTVSPropertyOp18
 70
     1
102
RTVSPropertyOp19
 70
     1
102
RTVSPropertyOp20
 70
     1
102
RTVSPropertyOp21
 70
     1
102
RTVSPropertyOp22
 70
     1
102
RTVSPropertyOp23
 70
     1
102
RTVSPropertyOp24
 70
     1
102
RTVSPropertyOp25
 70
     1
102
RTVSPropertyOp26
 70
     1
102
RTVSPropertyOp27
 70
     1
102
RTVSPropertyOp28
 70
     1
102
RTVSPropertyOp29
 70
     1
102
RTVSPropertyOp30
 70
     1
102
RTVSPropertyOp31
 70
     1
102
RTVSPropertyOp32
 70
     1
102
RTVSPropertyOp33
 70
     1
102
RTVSPropertyOp34
 70
     1
102
RTVSPropertyOp35
 70
     1
102
RTVSPropertyOp36
 70
     1
102
RTVSPropertyOp37
 70
     1
102
RTVSPropertyOp38
 70
     1
102
RTVSPropertyOp39
 70
     1
102
RTVSPropertyOp40
 70
     1
102
RTVSPropertyOp41
 70
     1
102
RTVSPropertyOp42
 70
     1
102
RTVSPropertyOp43
 70
     1
102
RTVSPropertyOp44
 70
     1
102
RTVSPropertyOp45
 70
     1
102
RTVSPropertyOp46
 70
     1
102
RTVSPropertyOp47
 70
     1
102
RTVSPropertyOp48
 70
     1
102
RTVSPropertyOp49
 70
     1
102
RTVSPropertyOp50
 70
     1
102
RTVSPropertyOp51
 70
     0
102
RTVSPropertyOp52
 70
     0
102
RTVSPropertyOp53
 70
     1
102
RTVSPropertyOp54
 70
     1
102
RTVSPropertyOp55
 70
     1
102
RTVSPropertyOp56
 70
     1
102
RTVSPropertyOp57
 70
     1
102
RTVSPropertyOp58
 70
     1
102
RTVSPropertyOp59
 70
     1
102
RTVSPropertyOp60
 70
     1
102
RTVSPropertyOp61
 70
     1
102
RTVSPropertyOp62
 70
     1
  0
XRECORD
  5
15B26
102
{ACAD_REACTORS
330
15B25
102
}
330
15B25
100
AcDbXrecord
280
     1
102
RTVSPost2010Prop28
280
     0
102
RTVSPost2010PropOp28
 70
     1
102
RTVSPost2010Prop29
280
     1
102
RTVSPost2010PropOp29
 70
     1
102
RTVSPost2010Prop30
280
     1
102
RTVSPost2010PropOp30
 70
     1
102
RTVSPost2010Prop31
280
     0
102
RTVSPost2010PropOp31
 70
     1
102
RTVSPost2010Prop32
280
     0
102
RTVSPost2010PropOp32
 70
     1
102
RTVSPost2010Prop33
280
     0
102
RTVSPost2010PropOp33
 70
     1
102
RTVSPost2010Prop34
280
     0
102
RTVSPost2010PropOp34
 70
     1
102
RTVSPost2010Prop35
280
     0
102
RTVSPost2010PropOp35
 70
     1
102
RTVSPost2010Prop36
280
     0
102
RTVSPost2010PropOp36
 70
     1
102
RTVSPost2010Prop37
 90
       50
102
RTVSPost2010PropOp37
 70
     1
102
RTVSPost2010Prop38
140
0.0
102
RTVSPost2010PropOp38
 70
     1
102
RTVSPost2010Prop39
140
1.0
102
RTVSPost2010PropOp39
 70
     1
102
RTVSPost2010Prop40
 90
        0
102
RTVSPost2010PropOp40
 70
     1
102
RTVSPost2010Prop41ColorIndex
 90
       18
102
RTVSPost2010Prop41ColorRGB
 90
        0
102
RTVSPost2010PropOp41
 70
     1
102
RTVSPost2010Prop42
 90
       50
102
RTVSPost2010PropOp42
 70
     1
102
RTVSPost2010Prop43
 90
        3
102
RTVSPost2010PropOp43
 70
     1
102
RTVSPost2010Prop44ColorIndex
 90
        5
102
RTVSPost2010Prop44ColorRGB
 90
      255
102
RTVSPost2010PropOp44
 70
     1
102
RTVSPost2010Prop45
280
     0
102
RTVSPost2010PropOp45
 70
     1
102
RTVSPost2010Prop46
 90
       50
102
RTVSPost2010PropOp46
 70
     1
102
RTVSPost2010Prop47
 90
       50
102
RTVSPost2010PropOp47
 70
     1
102
RTVSPost2010Prop48
 90
       50
102
RTVSPost2010PropOp48
 70
     1
102
RTVSPost2010Prop49
280
     0
102
RTVSPost2010PropOp49
 70
     1
102
RTVSPost2010Prop50
 90
       50
102
RTVSPost2010PropOp50
 70
     1
102
RTVSPost2010Prop51ColorIndex
 90
      256
102
RTVSPost2010Prop51ColorRGB
 90
-16777216
102
RTVSPost2010PropOp51
 70
     0
102
RTVSPost2010Prop52
140
1.0
102
RTVSPost2010PropOp52
 70
     0
102
RTVSPost2010Prop53
 90
        2
102
RTVSPost2010PropOp53
 70
     1
102
RTVSPost2010Prop54
  1
strokes_ogs.tif
102
RTVSPost2010PropOp54
 70
     1
102
RTVSPost2010Prop55
280
     0
102
RTVSPost2010PropOp55
 70
     1
102
RTVSPost2010Prop56
140
1.0
102
RTVSPost2010PropOp56
 70
     1
102
RTVSPost2010Prop57
140
1.0
102
RTVSPost2010PropOp57
 70
     1
102
RTVSPropertyOp0
 70
     1
102
RTVSPropertyOp1
 70
     1
102
RTVSPropertyOp2
 70
     1
102
RTVSPropertyOp3
 70
     1
102
RTVSPropertyOp4
 70
     1
102
RTVSPropertyOp5
 70
     1
102
RTVSPropertyOp6
 70
     1
102
RTVSPropertyOp7
 70
     1
102
RTVSPropertyOp8
 70
     1
102
RTVSPropertyOp9
 70
     1
102
RTVSPropertyOp10
 70
     1
102
RTVSPropertyOp11
 70
     1
102
RTVSPropertyOp12
 70
     1
102
RTVSPropertyOp13
 70
     1
102
RTVSPropertyOp14
 70
     1
102
RTVSPropertyOp15
 70
     1
102
RTVSPropertyOp16
 70
     1
102
RTVSPropertyOp17
 70
     1
102
RTVSPropertyOp18
 70
     1
102
RTVSPropertyOp19
 70
     1
102
RTVSPropertyOp20
 70
     1
102
RTVSPropertyOp21
 70
     1
102
RTVSPropertyOp22
 70
     1
102
RTVSPropertyOp23
 70
     1
102
RTVSPropertyOp24
 70
     1
102
RTVSPropertyOp25
 70
     1
102
RTVSPropertyOp26
 70
     1
102
RTVSPropertyOp27
 70
     1
102
RTVSPropertyOp28
 70
     1
102
RTVSPropertyOp29
 70
     1
102
RTVSPropertyOp30
 70
     1
102
RTVSPropertyOp31
 70
     1
102
RTVSPropertyOp32
 70
     1
102
RTVSPropertyOp33
 70
     1
102
RTVSPropertyOp34
 70
     1
102
RTVSPropertyOp35
 70
     1
102
RTVSPropertyOp36
 70
     1
102
RTVSPropertyOp37
 70
     1
102
RTVSPropertyOp38
 70
     1
102
RTVSPropertyOp39
 70
     1
102
RTVSPropertyOp40
 70
     1
102
RTVSPropertyOp41
 70
     1
102
RTVSPropertyOp42
 70
     1
102
RTVSPropertyOp43
 70
     1
102
RTVSPropertyOp44
 70
     1
102
RTVSPropertyOp45
 70
     1
102
RTVSPropertyOp46
 70
     1
102
RTVSPropertyOp47
 70
     1
102
RTVSPropertyOp48
 70
     1
102
RTVSPropertyOp49
 70
     1
102
RTVSPropertyOp50
 70
     1
102
RTVSPropertyOp51
 70
     0
102
RTVSPropertyOp52
 70
     0
102
RTVSPropertyOp53
 70
     1
102
RTVSPropertyOp54
 70
     1
102
RTVSPropertyOp55
 70
     1
102
RTVSPropertyOp56
 70
     1
102
RTVSPropertyOp57
 70
     1
102
RTVSPropertyOp58
 70
     1
102
RTVSPropertyOp59
 70
     1
102
RTVSPropertyOp60
 70
     1
102
RTVSPropertyOp61
 70
     1
102
RTVSPropertyOp62
 70
     1
  0
XRECORD
  5
15B28
102
{ACAD_REACTORS
330
15B27
102
}
330
15B27
100
AcDbXrecord
280
     1
102
RTVSPost2010Prop28
280
     0
102
RTVSPost2010PropOp28
 70
     1
102
RTVSPost2010Prop29
280
     1
102
RTVSPost2010PropOp29
 70
     1
102
RTVSPost2010Prop30
280
     1
102
RTVSPost2010PropOp30
 70
     1
102
RTVSPost2010Prop31
280
     0
102
RTVSPost2010PropOp31
 70
     1
102
RTVSPost2010Prop32
280
     0
102
RTVSPost2010PropOp32
 70
     1
102
RTVSPost2010Prop33
280
     0
102
RTVSPost2010PropOp33
 70
     1
102
RTVSPost2010Prop34
280
     0
102
RTVSPost2010PropOp34
 70
     1
102
RTVSPost2010Prop35
280
     0
102
RTVSPost2010PropOp35
 70
     1
102
RTVSPost2010Prop36
280
     0
102
RTVSPost2010PropOp36
 70
     1
102
RTVSPost2010Prop37
 90
       50
102
RTVSPost2010PropOp37
 70
     1
102
RTVSPost2010Prop38
140
0.0
102
RTVSPost2010PropOp38
 70
     1
102
RTVSPost2010Prop39
140
1.0
102
RTVSPost2010PropOp39
 70
     1
102
RTVSPost2010Prop40
 90
        0
102
RTVSPost2010PropOp40
 70
     1
102
RTVSPost2010Prop41ColorIndex
 90
       18
102
RTVSPost2010Prop41ColorRGB
 90
        0
102
RTVSPost2010PropOp41
 70
     1
102
RTVSPost2010Prop42
 90
       50
102
RTVSPost2010PropOp42
 70
     1
102
RTVSPost2010Prop43
 90
        3
102
RTVSPost2010PropOp43
 70
     1
102
RTVSPost2010Prop44ColorIndex
 90
        5
102
RTVSPost2010Prop44ColorRGB
 90
      255
102
RTVSPost2010PropOp44
 70
     1
102
RTVSPost2010Prop45
280
     0
102
RTVSPost2010PropOp45
 70
     1
102
RTVSPost2010Prop46
 90
       50
102
RTVSPost2010PropOp46
 70
     1
102
RTVSPost2010Prop47
 90
       50
102
RTVSPost2010PropOp47
 70
     1
102
RTVSPost2010Prop48
 90
       50
102
RTVSPost2010PropOp48
 70
     1
102
RTVSPost2010Prop49
280
     0
102
RTVSPost2010PropOp49
 70
     1
102
RTVSPost2010Prop50
 90
       50
102
RTVSPost2010PropOp50
 70
     1
102
RTVSPost2010Prop51ColorIndex
 90
      256
102
RTVSPost2010Prop51ColorRGB
 90
-16777216
102
RTVSPost2010PropOp51
 70
     0
102
RTVSPost2010Prop52
140
1.0
102
RTVSPost2010PropOp52
 70
     0
102
RTVSPost2010Prop53
 90
        2
102
RTVSPost2010PropOp53
 70
     1
102
RTVSPost2010Prop54
  1
strokes_ogs.tif
102
RTVSPost2010PropOp54
 70
     1
102
RTVSPost2010Prop55
280
     0
102
RTVSPost2010PropOp55
 70
     1
102
RTVSPost2010Prop56
140
1.0
102
RTVSPost2010PropOp56
 70
     1
102
RTVSPost2010Prop57
140
1.0
102
RTVSPost2010PropOp57
 70
     1
102
RTVSPropertyOp0
 70
     1
102
RTVSPropertyOp1
 70
     1
102
RTVSPropertyOp2
 70
     1
102
RTVSPropertyOp3
 70
     1
102
RTVSPropertyOp4
 70
     1
102
RTVSPropertyOp5
 70
     1
102
RTVSPropertyOp6
 70
     1
102
RTVSPropertyOp7
 70
     1
102
RTVSPropertyOp8
 70
     1
102
RTVSPropertyOp9
 70
     1
102
RTVSPropertyOp10
 70
     1
102
RTVSPropertyOp11
 70
     1
102
RTVSPropertyOp12
 70
     1
102
RTVSPropertyOp13
 70
     1
102
RTVSPropertyOp14
 70
     1
102
RTVSPropertyOp15
 70
     1
102
RTVSPropertyOp16
 70
     1
102
RTVSPropertyOp17
 70
     1
102
RTVSPropertyOp18
 70
     1
102
RTVSPropertyOp19
 70
     1
102
RTVSPropertyOp20
 70
     1
102
RTVSPropertyOp21
 70
     1
102
RTVSPropertyOp22
 70
     1
102
RTVSPropertyOp23
 70
     1
102
RTVSPropertyOp24
 70
     1
102
RTVSPropertyOp25
 70
     1
102
RTVSPropertyOp26
 70
     1
102
RTVSPropertyOp27
 70
     1
102
RTVSPropertyOp28
 70
     1
102
RTVSPropertyOp29
 70
     1
102
RTVSPropertyOp30
 70
     1
102
RTVSPropertyOp31
 70
     1
102
RTVSPropertyOp32
 70
     1
102
RTVSPropertyOp33
 70
     1
102
RTVSPropertyOp34
 70
     1
102
RTVSPropertyOp35
 70
     1
102
RTVSPropertyOp36
 70
     1
102
RTVSPropertyOp37
 70
     1
102
RTVSPropertyOp38
 70
     1
102
RTVSPropertyOp39
 70
     1
102
RTVSPropertyOp40
 70
     1
102
RTVSPropertyOp41
 70
     1
102
RTVSPropertyOp42
 70
     1
102
RTVSPropertyOp43
 70
     1
102
RTVSPropertyOp44
 70
     1
102
RTVSPropertyOp45
 70
     1
102
RTVSPropertyOp46
 70
     1
102
RTVSPropertyOp47
 70
     1
102
RTVSPropertyOp48
 70
     1
102
RTVSPropertyOp49
 70
     1
102
RTVSPropertyOp50
 70
     1
102
RTVSPropertyOp51
 70
     0
102
RTVSPropertyOp52
 70
     0
102
RTVSPropertyOp53
 70
     1
102
RTVSPropertyOp54
 70
     1
102
RTVSPropertyOp55
 70
     1
102
RTVSPropertyOp56
 70
     1
102
RTVSPropertyOp57
 70
     1
102
RTVSPropertyOp58
 70
     1
102
RTVSPropertyOp59
 70
     1
102
RTVSPropertyOp60
 70
     1
102
RTVSPropertyOp61
 70
     1
102
RTVSPropertyOp62
 70
     1
  0
XRECORD
  5
15B2A
102
{ACAD_REACTORS
330
15B29
102
}
330
15B29
100
AcDbXrecord
280
     1
102
RTVSPost2010Prop28
280
     0
102
RTVSPost2010PropOp28
 70
     1
102
RTVSPost2010Prop29
280
     1
102
RTVSPost2010PropOp29
 70
     1
102
RTVSPost2010Prop30
280
     1
102
RTVSPost2010PropOp30
 70
     1
102
RTVSPost2010Prop31
280
     0
102
RTVSPost2010PropOp31
 70
     1
102
RTVSPost2010Prop32
280
     0
102
RTVSPost2010PropOp32
 70
     1
102
RTVSPost2010Prop33
280
     0
102
RTVSPost2010PropOp33
 70
     1
102
RTVSPost2010Prop34
280
     0
102
RTVSPost2010PropOp34
 70
     1
102
RTVSPost2010Prop35
280
     0
102
RTVSPost2010PropOp35
 70
     1
102
RTVSPost2010Prop36
280
     0
102
RTVSPost2010PropOp36
 70
     1
102
RTVSPost2010Prop37
 90
       50
102
RTVSPost2010PropOp37
 70
     1
102
RTVSPost2010Prop38
140
0.0
102
RTVSPost2010PropOp38
 70
     1
102
RTVSPost2010Prop39
140
1.0
102
RTVSPost2010PropOp39
 70
     1
102
RTVSPost2010Prop40
 90
        0
102
RTVSPost2010PropOp40
 70
     1
102
RTVSPost2010Prop41ColorIndex
 90
       18
102
RTVSPost2010Prop41ColorRGB
 90
        0
102
RTVSPost2010PropOp41
 70
     1
102
RTVSPost2010Prop42
 90
       50
102
RTVSPost2010PropOp42
 70
     1
102
RTVSPost2010Prop43
 90
        3
102
RTVSPost2010PropOp43
 70
     1
102
RTVSPost2010Prop44ColorIndex
 90
        5
102
RTVSPost2010Prop44ColorRGB
 90
      255
102
RTVSPost2010PropOp44
 70
     1
102
RTVSPost2010Prop45
280
     0
102
RTVSPost2010PropOp45
 70
     1
102
RTVSPost2010Prop46
 90
       50
102
RTVSPost2010PropOp46
 70
     1
102
RTVSPost2010Prop47
 90
       50
102
RTVSPost2010PropOp47
 70
     1
102
RTVSPost2010Prop48
 90
       50
102
RTVSPost2010PropOp48
 70
     1
102
RTVSPost2010Prop49
280
     0
102
RTVSPost2010PropOp49
 70
     1
102
RTVSPost2010Prop50
 90
       50
102
RTVSPost2010PropOp50
 70
     1
102
RTVSPost2010Prop51ColorIndex
 90
      256
102
RTVSPost2010Prop51ColorRGB
 90
-16777216
102
RTVSPost2010PropOp51
 70
     0
102
RTVSPost2010Prop52
140
1.0
102
RTVSPost2010PropOp52
 70
     0
102
RTVSPost2010Prop53
 90
        2
102
RTVSPost2010PropOp53
 70
     1
102
RTVSPost2010Prop54
  1
strokes_ogs.tif
102
RTVSPost2010PropOp54
 70
     1
102
RTVSPost2010Prop55
280
     0
102
RTVSPost2010PropOp55
 70
     1
102
RTVSPost2010Prop56
140
1.0
102
RTVSPost2010PropOp56
 70
     1
102
RTVSPost2010Prop57
140
1.0
102
RTVSPost2010PropOp57
 70
     1
102
RTVSPropertyOp0
 70
     1
102
RTVSPropertyOp1
 70
     1
102
RTVSPropertyOp2
 70
     1
102
RTVSPropertyOp3
 70
     1
102
RTVSPropertyOp4
 70
     1
102
RTVSPropertyOp5
 70
     1
102
RTVSPropertyOp6
 70
     1
102
RTVSPropertyOp7
 70
     1
102
RTVSPropertyOp8
 70
     1
102
RTVSPropertyOp9
 70
     1
102
RTVSPropertyOp10
 70
     1
102
RTVSPropertyOp11
 70
     1
102
RTVSPropertyOp12
 70
     1
102
RTVSPropertyOp13
 70
     1
102
RTVSPropertyOp14
 70
     1
102
RTVSPropertyOp15
 70
     1
102
RTVSPropertyOp16
 70
     1
102
RTVSPropertyOp17
 70
     1
102
RTVSPropertyOp18
 70
     1
102
RTVSPropertyOp19
 70
     1
102
RTVSPropertyOp20
 70
     1
102
RTVSPropertyOp21
 70
     1
102
RTVSPropertyOp22
 70
     1
102
RTVSPropertyOp23
 70
     1
102
RTVSPropertyOp24
 70
     1
102
RTVSPropertyOp25
 70
     1
102
RTVSPropertyOp26
 70
     1
102
RTVSPropertyOp27
 70
     1
102
RTVSPropertyOp28
 70
     1
102
RTVSPropertyOp29
 70
     1
102
RTVSPropertyOp30
 70
     1
102
RTVSPropertyOp31
 70
     1
102
RTVSPropertyOp32
 70
     1
102
RTVSPropertyOp33
 70
     1
102
RTVSPropertyOp34
 70
     1
102
RTVSPropertyOp35
 70
     1
102
RTVSPropertyOp36
 70
     1
102
RTVSPropertyOp37
 70
     1
102
RTVSPropertyOp38
 70
     1
102
RTVSPropertyOp39
 70
     1
102
RTVSPropertyOp40
 70
     1
102
RTVSPropertyOp41
 70
     1
102
RTVSPropertyOp42
 70
     1
102
RTVSPropertyOp43
 70
     1
102
RTVSPropertyOp44
 70
     1
102
RTVSPropertyOp45
 70
     1
102
RTVSPropertyOp46
 70
     1
102
RTVSPropertyOp47
 70
     1
102
RTVSPropertyOp48
 70
     1
102
RTVSPropertyOp49
 70
     1
102
RTVSPropertyOp50
 70
     1
102
RTVSPropertyOp51
 70
     0
102
RTVSPropertyOp52
 70
     0
102
RTVSPropertyOp53
 70
     1
102
RTVSPropertyOp54
 70
     1
102
RTVSPropertyOp55
 70
     1
102
RTVSPropertyOp56
 70
     1
102
RTVSPropertyOp57
 70
     1
102
RTVSPropertyOp58
 70
     1
102
RTVSPropertyOp59
 70
     1
102
RTVSPropertyOp60
 70
     1
102
RTVSPropertyOp61
 70
     1
102
RTVSPropertyOp62
 70
     1
  0
XRECORD
  5
15B2C
102
{ACAD_REACTORS
330
15B2B
102
}
330
15B2B
100
AcDbXrecord
280
     1
102
RTVSPost2010Prop28
280
     0
102
RTVSPost2010PropOp28
 70
     1
102
RTVSPost2010Prop29
280
     1
102
RTVSPost2010PropOp29
 70
     1
102
RTVSPost2010Prop30
280
     1
102
RTVSPost2010PropOp30
 70
     1
102
RTVSPost2010Prop31
280
     0
102
RTVSPost2010PropOp31
 70
     1
102
RTVSPost2010Prop32
280
     0
102
RTVSPost2010PropOp32
 70
     1
102
RTVSPost2010Prop33
280
     0
102
RTVSPost2010PropOp33
 70
     1
102
RTVSPost2010Prop34
280
     0
102
RTVSPost2010PropOp34
 70
     1
102
RTVSPost2010Prop35
280
     0
102
RTVSPost2010PropOp35
 70
     1
102
RTVSPost2010Prop36
280
     0
102
RTVSPost2010PropOp36
 70
     1
102
RTVSPost2010Prop37
 90
       50
102
RTVSPost2010PropOp37
 70
     1
102
RTVSPost2010Prop38
140
0.0
102
RTVSPost2010PropOp38
 70
     1
102
RTVSPost2010Prop39
140
1.0
102
RTVSPost2010PropOp39
 70
     1
102
RTVSPost2010Prop40
 90
        0
102
RTVSPost2010PropOp40
 70
     1
102
RTVSPost2010Prop41ColorIndex
 90
       18
102
RTVSPost2010Prop41ColorRGB
 90
        0
102
RTVSPost2010PropOp41
 70
     1
102
RTVSPost2010Prop42
 90
       50
102
RTVSPost2010PropOp42
 70
     1
102
RTVSPost2010Prop43
 90
        3
102
RTVSPost2010PropOp43
 70
     1
102
RTVSPost2010Prop44ColorIndex
 90
        5
102
RTVSPost2010Prop44ColorRGB
 90
      255
102
RTVSPost2010PropOp44
 70
     1
102
RTVSPost2010Prop45
280
     0
102
RTVSPost2010PropOp45
 70
     1
102
RTVSPost2010Prop46
 90
       50
102
RTVSPost2010PropOp46
 70
     1
102
RTVSPost2010Prop47
 90
       50
102
RTVSPost2010PropOp47
 70
     1
102
RTVSPost2010Prop48
 90
       50
102
RTVSPost2010PropOp48
 70
     1
102
RTVSPost2010Prop49
280
     0
102
RTVSPost2010PropOp49
 70
     1
102
RTVSPost2010Prop50
 90
       50
102
RTVSPost2010PropOp50
 70
     1
102
RTVSPost2010Prop51ColorIndex
 90
      256
102
RTVSPost2010Prop51ColorRGB
 90
-16777216
102
RTVSPost2010PropOp51
 70
     0
102
RTVSPost2010Prop52
140
1.0
102
RTVSPost2010PropOp52
 70
     0
102
RTVSPost2010Prop53
 90
        2
102
RTVSPost2010PropOp53
 70
     1
102
RTVSPost2010Prop54
  1
strokes_ogs.tif
102
RTVSPost2010PropOp54
 70
     1
102
RTVSPost2010Prop55
280
     0
102
RTVSPost2010PropOp55
 70
     1
102
RTVSPost2010Prop56
140
1.0
102
RTVSPost2010PropOp56
 70
     1
102
RTVSPost2010Prop57
140
1.0
102
RTVSPost2010PropOp57
 70
     1
102
RTVSPropertyOp0
 70
     1
102
RTVSPropertyOp1
 70
     1
102
RTVSPropertyOp2
 70
     1
102
RTVSPropertyOp3
 70
     1
102
RTVSPropertyOp4
 70
     1
102
RTVSPropertyOp5
 70
     1
102
RTVSPropertyOp6
 70
     1
102
RTVSPropertyOp7
 70
     1
102
RTVSPropertyOp8
 70
     1
102
RTVSPropertyOp9
 70
     1
102
RTVSPropertyOp10
 70
     1
102
RTVSPropertyOp11
 70
     1
102
RTVSPropertyOp12
 70
     1
102
RTVSPropertyOp13
 70
     1
102
RTVSPropertyOp14
 70
     1
102
RTVSPropertyOp15
 70
     1
102
RTVSPropertyOp16
 70
     1
102
RTVSPropertyOp17
 70
     1
102
RTVSPropertyOp18
 70
     1
102
RTVSPropertyOp19
 70
     1
102
RTVSPropertyOp20
 70
     1
102
RTVSPropertyOp21
 70
     1
102
RTVSPropertyOp22
 70
     1
102
RTVSPropertyOp23
 70
     1
102
RTVSPropertyOp24
 70
     1
102
RTVSPropertyOp25
 70
     1
102
RTVSPropertyOp26
 70
     1
102
RTVSPropertyOp27
 70
     1
102
RTVSPropertyOp28
 70
     1
102
RTVSPropertyOp29
 70
     1
102
RTVSPropertyOp30
 70
     1
102
RTVSPropertyOp31
 70
     1
102
RTVSPropertyOp32
 70
     1
102
RTVSPropertyOp33
 70
     1
102
RTVSPropertyOp34
 70
     1
102
RTVSPropertyOp35
 70
     1
102
RTVSPropertyOp36
 70
     1
102
RTVSPropertyOp37
 70
     1
102
RTVSPropertyOp38
 70
     1
102
RTVSPropertyOp39
 70
     1
102
RTVSPropertyOp40
 70
     1
102
RTVSPropertyOp41
 70
     1
102
RTVSPropertyOp42
 70
     1
102
RTVSPropertyOp43
 70
     1
102
RTVSPropertyOp44
 70
     1
102
RTVSPropertyOp45
 70
     1
102
RTVSPropertyOp46
 70
     1
102
RTVSPropertyOp47
 70
     1
102
RTVSPropertyOp48
 70
     1
102
RTVSPropertyOp49
 70
     1
102
RTVSPropertyOp50
 70
     1
102
RTVSPropertyOp51
 70
     0
102
RTVSPropertyOp52
 70
     0
102
RTVSPropertyOp53
 70
     1
102
RTVSPropertyOp54
 70
     1
102
RTVSPropertyOp55
 70
     1
102
RTVSPropertyOp56
 70
     1
102
RTVSPropertyOp57
 70
     1
102
RTVSPropertyOp58
 70
     1
102
RTVSPropertyOp59
 70
     1
102
RTVSPropertyOp60
 70
     1
102
RTVSPropertyOp61
 70
     1
102
RTVSPropertyOp62
 70
     1
  0
XRECORD
  5
15B34
102
{ACAD_REACTORS
330
15B33
102
}
330
15B33
100
AcDbXrecord
280
     1
102
RTVSPost2010Prop28
280
     0
102
RTVSPost2010PropOp28
 70
     1
102
RTVSPost2010Prop29
280
     1
102
RTVSPost2010PropOp29
 70
     1
102
RTVSPost2010Prop30
280
     1
102
RTVSPost2010PropOp30
 70
     1
102
RTVSPost2010Prop31
280
     0
102
RTVSPost2010PropOp31
 70
     1
102
RTVSPost2010Prop32
280
     0
102
RTVSPost2010PropOp32
 70
     1
102
RTVSPost2010Prop33
280
     0
102
RTVSPost2010PropOp33
 70
     1
102
RTVSPost2010Prop34
280
     0
102
RTVSPost2010PropOp34
 70
     1
102
RTVSPost2010Prop35
280
     0
102
RTVSPost2010PropOp35
 70
     1
102
RTVSPost2010Prop36
280
     0
102
RTVSPost2010PropOp36
 70
     1
102
RTVSPost2010Prop37
 90
       50
102
RTVSPost2010PropOp37
 70
     1
102
RTVSPost2010Prop38
140
0.0
102
RTVSPost2010PropOp38
 70
     1
102
RTVSPost2010Prop39
140
1.0
102
RTVSPost2010PropOp39
 70
     1
102
RTVSPost2010Prop40
 90
        0
102
RTVSPost2010PropOp40
 70
     1
102
RTVSPost2010Prop41ColorIndex
 90
       18
102
RTVSPost2010Prop41ColorRGB
 90
        0
102
RTVSPost2010PropOp41
 70
     1
102
RTVSPost2010Prop42
 90
       50
102
RTVSPost2010PropOp42
 70
     1
102
RTVSPost2010Prop43
 90
        3
102
RTVSPost2010PropOp43
 70
     1
102
RTVSPost2010Prop44ColorIndex
 90
        5
102
RTVSPost2010Prop44ColorRGB
 90
      255
102
RTVSPost2010PropOp44
 70
     1
102
RTVSPost2010Prop45
280
     0
102
RTVSPost2010PropOp45
 70
     1
102
RTVSPost2010Prop46
 90
       50
102
RTVSPost2010PropOp46
 70
     1
102
RTVSPost2010Prop47
 90
       50
102
RTVSPost2010PropOp47
 70
     1
102
RTVSPost2010Prop48
 90
       50
102
RTVSPost2010PropOp48
 70
     1
102
RTVSPost2010Prop49
280
     0
102
RTVSPost2010PropOp49
 70
     1
102
RTVSPost2010Prop50
 90
       50
102
RTVSPost2010PropOp50
 70
     1
102
RTVSPost2010Prop51ColorIndex
 90
      256
102
RTVSPost2010Prop51ColorRGB
 90
-16777216
102
RTVSPost2010PropOp51
 70
     0
102
RTVSPost2010Prop52
140
1.0
102
RTVSPost2010PropOp52
 70
     0
102
RTVSPost2010Prop53
 90
        2
102
RTVSPost2010PropOp53
 70
     1
102
RTVSPost2010Prop54
  1
strokes_ogs.tif
102
RTVSPost2010PropOp54
 70
     1
102
RTVSPost2010Prop55
280
     0
102
RTVSPost2010PropOp55
 70
     1
102
RTVSPost2010Prop56
140
1.0
102
RTVSPost2010PropOp56
 70
     1
102
RTVSPost2010Prop57
140
1.0
102
RTVSPost2010PropOp57
 70
     1
102
RTVSPropertyOp0
 70
     1
102
RTVSPropertyOp1
 70
     1
102
RTVSPropertyOp2
 70
     1
102
RTVSPropertyOp3
 70
     1
102
RTVSPropertyOp4
 70
     1
102
RTVSPropertyOp5
 70
     1
102
RTVSPropertyOp6
 70
     1
102
RTVSPropertyOp7
 70
     1
102
RTVSPropertyOp8
 70
     1
102
RTVSPropertyOp9
 70
     1
102
RTVSPropertyOp10
 70
     1
102
RTVSPropertyOp11
 70
     1
102
RTVSPropertyOp12
 70
     1
102
RTVSPropertyOp13
 70
     1
102
RTVSPropertyOp14
 70
     1
102
RTVSPropertyOp15
 70
     1
102
RTVSPropertyOp16
 70
     1
102
RTVSPropertyOp17
 70
     1
102
RTVSPropertyOp18
 70
     1
102
RTVSPropertyOp19
 70
     1
102
RTVSPropertyOp20
 70
     1
102
RTVSPropertyOp21
 70
     1
102
RTVSPropertyOp22
 70
     1
102
RTVSPropertyOp23
 70
     1
102
RTVSPropertyOp24
 70
     1
102
RTVSPropertyOp25
 70
     1
102
RTVSPropertyOp26
 70
     1
102
RTVSPropertyOp27
 70
     1
102
RTVSPropertyOp28
 70
     1
102
RTVSPropertyOp29
 70
     1
102
RTVSPropertyOp30
 70
     1
102
RTVSPropertyOp31
 70
     1
102
RTVSPropertyOp32
 70
     1
102
RTVSPropertyOp33
 70
     1
102
RTVSPropertyOp34
 70
     1
102
RTVSPropertyOp35
 70
     1
102
RTVSPropertyOp36
 70
     1
102
RTVSPropertyOp37
 70
     1
102
RTVSPropertyOp38
 70
     1
102
RTVSPropertyOp39
 70
     1
102
RTVSPropertyOp40
 70
     1
102
RTVSPropertyOp41
 70
     1
102
RTVSPropertyOp42
 70
     1
102
RTVSPropertyOp43
 70
     1
102
RTVSPropertyOp44
 70
     1
102
RTVSPropertyOp45
 70
     1
102
RTVSPropertyOp46
 70
     1
102
RTVSPropertyOp47
 70
     1
102
RTVSPropertyOp48
 70
     1
102
RTVSPropertyOp49
 70
     1
102
RTVSPropertyOp50
 70
     1
102
RTVSPropertyOp51
 70
     0
102
RTVSPropertyOp52
 70
     0
102
RTVSPropertyOp53
 70
     1
102
RTVSPropertyOp54
 70
     1
102
RTVSPropertyOp55
 70
     1
102
RTVSPropertyOp56
 70
     1
102
RTVSPropertyOp57
 70
     1
102
RTVSPropertyOp58
 70
     1
102
RTVSPropertyOp59
 70
     1
102
RTVSPropertyOp60
 70
     1
102
RTVSPropertyOp61
 70
     1
102
RTVSPropertyOp62
 70
     1
  0
XRECORD
  5
15B48
102
{ACAD_REACTORS
330
15B47
102
}
330
15B47
100
AcDbXrecord
280
     1
102
RTVSPost2010Prop28
280
     0
102
RTVSPost2010PropOp28
 70
     1
102
RTVSPost2010Prop29
280
     1
102
RTVSPost2010PropOp29
 70
     1
102
RTVSPost2010Prop30
280
     1
102
RTVSPost2010PropOp30
 70
     1
102
RTVSPost2010Prop31
280
     0
102
RTVSPost2010PropOp31
 70
     1
102
RTVSPost2010Prop32
280
     0
102
RTVSPost2010PropOp32
 70
     1
102
RTVSPost2010Prop33
280
     0
102
RTVSPost2010PropOp33
 70
     1
102
RTVSPost2010Prop34
280
     0
102
RTVSPost2010PropOp34
 70
     1
102
RTVSPost2010Prop35
280
     0
102
RTVSPost2010PropOp35
 70
     1
102
RTVSPost2010Prop36
280
     0
102
RTVSPost2010PropOp36
 70
     1
102
RTVSPost2010Prop37
 90
       50
102
RTVSPost2010PropOp37
 70
     1
102
RTVSPost2010Prop38
140
0.0
102
RTVSPost2010PropOp38
 70
     1
102
RTVSPost2010Prop39
140
1.0
102
RTVSPost2010PropOp39
 70
     1
102
RTVSPost2010Prop40
 90
        0
102
RTVSPost2010PropOp40
 70
     1
102
RTVSPost2010Prop41ColorIndex
 90
       18
102
RTVSPost2010Prop41ColorRGB
 90
        0
102
RTVSPost2010PropOp41
 70
     1
102
RTVSPost2010Prop42
 90
       50
102
RTVSPost2010PropOp42
 70
     1
102
RTVSPost2010Prop43
 90
        3
102
RTVSPost2010PropOp43
 70
     1
102
RTVSPost2010Prop44ColorIndex
 90
        5
102
RTVSPost2010Prop44ColorRGB
 90
      255
102
RTVSPost2010PropOp44
 70
     1
102
RTVSPost2010Prop45
280
     0
102
RTVSPost2010PropOp45
 70
     1
102
RTVSPost2010Prop46
 90
       50
102
RTVSPost2010PropOp46
 70
     1
102
RTVSPost2010Prop47
 90
       50
102
RTVSPost2010PropOp47
 70
     1
102
RTVSPost2010Prop48
 90
       50
102
RTVSPost2010PropOp48
 70
     1
102
RTVSPost2010Prop49
280
     0
102
RTVSPost2010PropOp49
 70
     1
102
RTVSPost2010Prop50
 90
       50
102
RTVSPost2010PropOp50
 70
     1
102
RTVSPost2010Prop51ColorIndex
 90
      256
102
RTVSPost2010Prop51ColorRGB
 90
-16777216
102
RTVSPost2010PropOp51
 70
     0
102
RTVSPost2010Prop52
140
1.0
102
RTVSPost2010PropOp52
 70
     0
102
RTVSPost2010Prop53
 90
        2
102
RTVSPost2010PropOp53
 70
     1
102
RTVSPost2010Prop54
  1
strokes_ogs.tif
102
RTVSPost2010PropOp54
 70
     1
102
RTVSPost2010Prop55
280
     0
102
RTVSPost2010PropOp55
 70
     1
102
RTVSPost2010Prop56
140
1.0
102
RTVSPost2010PropOp56
 70
     1
102
RTVSPost2010Prop57
140
1.0
102
RTVSPost2010PropOp57
 70
     1
102
RTVSPropertyOp0
 70
     0
102
RTVSPropertyOp1
 70
     0
102
RTVSPropertyOp2
 70
     0
102
RTVSPropertyOp3
 70
     0
102
RTVSPropertyOp4
 70
     0
102
RTVSPropertyOp5
 70
     0
102
RTVSPropertyOp6
 70
     0
102
RTVSPropertyOp7
 70
     0
102
RTVSPropertyOp8
 70
     0
102
RTVSPropertyOp9
 70
     0
102
RTVSPropertyOp10
 70
     0
102
RTVSPropertyOp11
 70
     0
102
RTVSPropertyOp12
 70
     0
102
RTVSPropertyOp13
 70
     0
102
RTVSPropertyOp14
 70
     2
102
RTVSPropertyOp15
 70
     0
102
RTVSPropertyOp16
 70
     0
102
RTVSPropertyOp17
 70
     0
102
RTVSPropertyOp18
 70
     0
102
RTVSPropertyOp19
 70
     0
102
RTVSPropertyOp20
 70
     0
102
RTVSPropertyOp21
 70
     0
102
RTVSPropertyOp22
 70
     0
102
RTVSPropertyOp23
 70
     0
102
RTVSPropertyOp24
 70
     0
102
RTVSPropertyOp25
 70
     0
102
RTVSPropertyOp26
 70
     0
102
RTVSPropertyOp27
 70
     0
102
RTVSPropertyOp28
 70
     1
102
RTVSPropertyOp29
 70
     1
102
RTVSPropertyOp30
 70
     1
102
RTVSPropertyOp31
 70
     1
102
RTVSPropertyOp32
 70
     1
102
RTVSPropertyOp33
 70
     1
102
RTVSPropertyOp34
 70
     1
102
RTVSPropertyOp35
 70
     1
102
RTVSPropertyOp36
 70
     1
102
RTVSPropertyOp37
 70
     1
102
RTVSPropertyOp38
 70
     1
102
RTVSPropertyOp39
 70
     1
102
RTVSPropertyOp40
 70
     1
102
RTVSPropertyOp41
 70
     1
102
RTVSPropertyOp42
 70
     1
102
RTVSPropertyOp43
 70
     1
102
RTVSPropertyOp44
 70
     1
102
RTVSPropertyOp45
 70
     1
102
RTVSPropertyOp46
 70
     1
102
RTVSPropertyOp47
 70
     1
102
RTVSPropertyOp48
 70
     1
102
RTVSPropertyOp49
 70
     1
102
RTVSPropertyOp50
 70
     1
102
RTVSPropertyOp51
 70
     0
102
RTVSPropertyOp52
 70
     0
102
RTVSPropertyOp53
 70
     1
102
RTVSPropertyOp54
 70
     1
102
RTVSPropertyOp55
 70
     1
102
RTVSPropertyOp56
 70
     1
102
RTVSPropertyOp57
 70
     1
102
RTVSPropertyOp58
 70
     1
102
RTVSPropertyOp59
 70
     1
102
RTVSPropertyOp60
 70
     1
102
RTVSPropertyOp61
 70
     1
102
RTVSPropertyOp62
 70
     1
  0
XRECORD
  5
15B40
102
{ACAD_REACTORS
330
15B3F
102
}
330
15B3F
100
AcDbXrecord
280
     1
102
RTVSPost2010Prop28
280
     0
102
RTVSPost2010PropOp28
 70
     1
102
RTVSPost2010Prop29
280
     1
102
RTVSPost2010PropOp29
 70
     1
102
RTVSPost2010Prop30
280
     1
102
RTVSPost2010PropOp30
 70
     1
102
RTVSPost2010Prop31
280
     0
102
RTVSPost2010PropOp31
 70
     1
102
RTVSPost2010Prop32
280
     0
102
RTVSPost2010PropOp32
 70
     1
102
RTVSPost2010Prop33
280
     0
102
RTVSPost2010PropOp33
 70
     1
102
RTVSPost2010Prop34
280
     0
102
RTVSPost2010PropOp34
 70
     1
102
RTVSPost2010Prop35
280
     0
102
RTVSPost2010PropOp35
 70
     1
102
RTVSPost2010Prop36
280
     0
102
RTVSPost2010PropOp36
 70
     1
102
RTVSPost2010Prop37
 90
       50
102
RTVSPost2010PropOp37
 70
     1
102
RTVSPost2010Prop38
140
0.0
102
RTVSPost2010PropOp38
 70
     1
102
RTVSPost2010Prop39
140
1.0
102
RTVSPost2010PropOp39
 70
     1
102
RTVSPost2010Prop40
 90
        0
102
RTVSPost2010PropOp40
 70
     1
102
RTVSPost2010Prop41ColorIndex
 90
       18
102
RTVSPost2010Prop41ColorRGB
 90
        0
102
RTVSPost2010PropOp41
 70
     1
102
RTVSPost2010Prop42
 90
       50
102
RTVSPost2010PropOp42
 70
     1
102
RTVSPost2010Prop43
 90
        3
102
RTVSPost2010PropOp43
 70
     1
102
RTVSPost2010Prop44ColorIndex
 90
        5
102
RTVSPost2010Prop44ColorRGB
 90
      255
102
RTVSPost2010PropOp44
 70
     1
102
RTVSPost2010Prop45
280
     0
102
RTVSPost2010PropOp45
 70
     1
102
RTVSPost2010Prop46
 90
       50
102
RTVSPost2010PropOp46
 70
     1
102
RTVSPost2010Prop47
 90
       50
102
RTVSPost2010PropOp47
 70
     1
102
RTVSPost2010Prop48
 90
       50
102
RTVSPost2010PropOp48
 70
     1
102
RTVSPost2010Prop49
280
     0
102
RTVSPost2010PropOp49
 70
     1
102
RTVSPost2010Prop50
 90
       50
102
RTVSPost2010PropOp50
 70
     1
102
RTVSPost2010Prop51ColorIndex
 90
      256
102
RTVSPost2010Prop51ColorRGB
 90
-16777216
102
RTVSPost2010PropOp51
 70
     0
102
RTVSPost2010Prop52
140
1.0
102
RTVSPost2010PropOp52
 70
     0
102
RTVSPost2010Prop53
 90
        2
102
RTVSPost2010PropOp53
 70
     1
102
RTVSPost2010Prop54
  1
strokes_ogs.tif
102
RTVSPost2010PropOp54
 70
     1
102
RTVSPost2010Prop55
280
     0
102
RTVSPost2010PropOp55
 70
     1
102
RTVSPost2010Prop56
140
1.0
102
RTVSPost2010PropOp56
 70
     1
102
RTVSPost2010Prop57
140
1.0
102
RTVSPost2010PropOp57
 70
     1
102
RTVSPropertyOp0
 70
     1
102
RTVSPropertyOp1
 70
     1
102
RTVSPropertyOp2
 70
     1
102
RTVSPropertyOp3
 70
     1
102
RTVSPropertyOp4
 70
     1
102
RTVSPropertyOp5
 70
     1
102
RTVSPropertyOp6
 70
     1
102
RTVSPropertyOp7
 70
     1
102
RTVSPropertyOp8
 70
     1
102
RTVSPropertyOp9
 70
     1
102
RTVSPropertyOp10
 70
     1
102
RTVSPropertyOp11
 70
     1
102
RTVSPropertyOp12
 70
     1
102
RTVSPropertyOp13
 70
     1
102
RTVSPropertyOp14
 70
     1
102
RTVSPropertyOp15
 70
     1
102
RTVSPropertyOp16
 70
     1
102
RTVSPropertyOp17
 70
     1
102
RTVSPropertyOp18
 70
     1
102
RTVSPropertyOp19
 70
     1
102
RTVSPropertyOp20
 70
     1
102
RTVSPropertyOp21
 70
     1
102
RTVSPropertyOp22
 70
     1
102
RTVSPropertyOp23
 70
     1
102
RTVSPropertyOp24
 70
     1
102
RTVSPropertyOp25
 70
     1
102
RTVSPropertyOp26
 70
     1
102
RTVSPropertyOp27
 70
     1
102
RTVSPropertyOp28
 70
     1
102
RTVSPropertyOp29
 70
     1
102
RTVSPropertyOp30
 70
     1
102
RTVSPropertyOp31
 70
     1
102
RTVSPropertyOp32
 70
     1
102
RTVSPropertyOp33
 70
     1
102
RTVSPropertyOp34
 70
     1
102
RTVSPropertyOp35
 70
     1
102
RTVSPropertyOp36
 70
     1
102
RTVSPropertyOp37
 70
     1
102
RTVSPropertyOp38
 70
     1
102
RTVSPropertyOp39
 70
     1
102
RTVSPropertyOp40
 70
     1
102
RTVSPropertyOp41
 70
     1
102
RTVSPropertyOp42
 70
     1
102
RTVSPropertyOp43
 70
     1
102
RTVSPropertyOp44
 70
     1
102
RTVSPropertyOp45
 70
     1
102
RTVSPropertyOp46
 70
     1
102
RTVSPropertyOp47
 70
     1
102
RTVSPropertyOp48
 70
     1
102
RTVSPropertyOp49
 70
     1
102
RTVSPropertyOp50
 70
     1
102
RTVSPropertyOp51
 70
     0
102
RTVSPropertyOp52
 70
     0
102
RTVSPropertyOp53
 70
     1
102
RTVSPropertyOp54
 70
     1
102
RTVSPropertyOp55
 70
     1
102
RTVSPropertyOp56
 70
     1
102
RTVSPropertyOp57
 70
     1
102
RTVSPropertyOp58
 70
     1
102
RTVSPropertyOp59
 70
     1
102
RTVSPropertyOp60
 70
     1
102
RTVSPropertyOp61
 70
     1
102
RTVSPropertyOp62
 70
     1
  0
XRECORD
  5
15B4A
102
{ACAD_REACTORS
330
15B49
102
}
330
15B49
100
AcDbXrecord
280
     1
102
RTVSPost2010Prop28
280
     0
102
RTVSPost2010PropOp28
 70
     1
102
RTVSPost2010Prop29
280
     1
102
RTVSPost2010PropOp29
 70
     1
102
RTVSPost2010Prop30
280
     1
102
RTVSPost2010PropOp30
 70
     1
102
RTVSPost2010Prop31
280
     0
102
RTVSPost2010PropOp31
 70
     1
102
RTVSPost2010Prop32
280
     0
102
RTVSPost2010PropOp32
 70
     1
102
RTVSPost2010Prop33
280
     0
102
RTVSPost2010PropOp33
 70
     1
102
RTVSPost2010Prop34
280
     0
102
RTVSPost2010PropOp34
 70
     1
102
RTVSPost2010Prop35
280
     0
102
RTVSPost2010PropOp35
 70
     1
102
RTVSPost2010Prop36
280
     0
102
RTVSPost2010PropOp36
 70
     1
102
RTVSPost2010Prop37
 90
       50
102
RTVSPost2010PropOp37
 70
     1
102
RTVSPost2010Prop38
140
0.0
102
RTVSPost2010PropOp38
 70
     1
102
RTVSPost2010Prop39
140
1.0
102
RTVSPost2010PropOp39
 70
     1
102
RTVSPost2010Prop40
 90
        0
102
RTVSPost2010PropOp40
 70
     1
102
RTVSPost2010Prop41ColorIndex
 90
       18
102
RTVSPost2010Prop41ColorRGB
 90
        0
102
RTVSPost2010PropOp41
 70
     1
102
RTVSPost2010Prop42
 90
       50
102
RTVSPost2010PropOp42
 70
     1
102
RTVSPost2010Prop43
 90
        3
102
RTVSPost2010PropOp43
 70
     1
102
RTVSPost2010Prop44ColorIndex
 90
        5
102
RTVSPost2010Prop44ColorRGB
 90
      255
102
RTVSPost2010PropOp44
 70
     1
102
RTVSPost2010Prop45
280
     0
102
RTVSPost2010PropOp45
 70
     1
102
RTVSPost2010Prop46
 90
       50
102
RTVSPost2010PropOp46
 70
     1
102
RTVSPost2010Prop47
 90
       50
102
RTVSPost2010PropOp47
 70
     1
102
RTVSPost2010Prop48
 90
       50
102
RTVSPost2010PropOp48
 70
     1
102
RTVSPost2010Prop49
280
     0
102
RTVSPost2010PropOp49
 70
     1
102
RTVSPost2010Prop50
 90
       50
102
RTVSPost2010PropOp50
 70
     1
102
RTVSPost2010Prop51ColorIndex
 90
      256
102
RTVSPost2010Prop51ColorRGB
 90
-16777216
102
RTVSPost2010PropOp51
 70
     0
102
RTVSPost2010Prop52
140
1.0
102
RTVSPost2010PropOp52
 70
     0
102
RTVSPost2010Prop53
 90
        2
102
RTVSPost2010PropOp53
 70
     1
102
RTVSPost2010Prop54
  1
strokes_ogs.tif
102
RTVSPost2010PropOp54
 70
     1
102
RTVSPost2010Prop55
280
     0
102
RTVSPost2010PropOp55
 70
     1
102
RTVSPost2010Prop56
140
1.0
102
RTVSPost2010PropOp56
 70
     1
102
RTVSPost2010Prop57
140
1.0
102
RTVSPost2010PropOp57
 70
     1
102
RTVSPropertyOp0
 70
     0
102
RTVSPropertyOp1
 70
     0
102
RTVSPropertyOp2
 70
     0
102
RTVSPropertyOp3
 70
     0
102
RTVSPropertyOp4
 70
     0
102
RTVSPropertyOp5
 70
     0
102
RTVSPropertyOp6
 70
     0
102
RTVSPropertyOp7
 70
     0
102
RTVSPropertyOp8
 70
     0
102
RTVSPropertyOp9
 70
     0
102
RTVSPropertyOp10
 70
     0
102
RTVSPropertyOp11
 70
     0
102
RTVSPropertyOp12
 70
     0
102
RTVSPropertyOp13
 70
     0
102
RTVSPropertyOp14
 70
     2
102
RTVSPropertyOp15
 70
     0
102
RTVSPropertyOp16
 70
     0
102
RTVSPropertyOp17
 70
     0
102
RTVSPropertyOp18
 70
     0
102
RTVSPropertyOp19
 70
     0
102
RTVSPropertyOp20
 70
     0
102
RTVSPropertyOp21
 70
     0
102
RTVSPropertyOp22
 70
     0
102
RTVSPropertyOp23
 70
     0
102
RTVSPropertyOp24
 70
     0
102
RTVSPropertyOp25
 70
     0
102
RTVSPropertyOp26
 70
     0
102
RTVSPropertyOp27
 70
     0
102
RTVSPropertyOp28
 70
     1
102
RTVSPropertyOp29
 70
     1
102
RTVSPropertyOp30
 70
     1
102
RTVSPropertyOp31
 70
     1
102
RTVSPropertyOp32
 70
     1
102
RTVSPropertyOp33
 70
     1
102
RTVSPropertyOp34
 70
     1
102
RTVSPropertyOp35
 70
     1
102
RTVSPropertyOp36
 70
     1
102
RTVSPropertyOp37
 70
     1
102
RTVSPropertyOp38
 70
     1
102
RTVSPropertyOp39
 70
     1
102
RTVSPropertyOp40
 70
     1
102
RTVSPropertyOp41
 70
     1
102
RTVSPropertyOp42
 70
     1
102
RTVSPropertyOp43
 70
     1
102
RTVSPropertyOp44
 70
     1
102
RTVSPropertyOp45
 70
     1
102
RTVSPropertyOp46
 70
     1
102
RTVSPropertyOp47
 70
     1
102
RTVSPropertyOp48
 70
     1
102
RTVSPropertyOp49
 70
     1
102
RTVSPropertyOp50
 70
     1
102
RTVSPropertyOp51
 70
     0
102
RTVSPropertyOp52
 70
     0
102
RTVSPropertyOp53
 70
     1
102
RTVSPropertyOp54
 70
     1
102
RTVSPropertyOp55
 70
     1
102
RTVSPropertyOp56
 70
     1
102
RTVSPropertyOp57
 70
     1
102
RTVSPropertyOp58
 70
     1
102
RTVSPropertyOp59
 70
     1
102
RTVSPropertyOp60
 70
     1
102
RTVSPropertyOp61
 70
     1
102
RTVSPropertyOp62
 70
     1
  0
XRECORD
  5
15B38
102
{ACAD_REACTORS
330
15B37
102
}
330
15B37
100
AcDbXrecord
280
     1
102
RTVSPost2010Prop28
280
     0
102
RTVSPost2010PropOp28
 70
     1
102
RTVSPost2010Prop29
280
     1
102
RTVSPost2010PropOp29
 70
     1
102
RTVSPost2010Prop30
280
     1
102
RTVSPost2010PropOp30
 70
     1
102
RTVSPost2010Prop31
280
     0
102
RTVSPost2010PropOp31
 70
     1
102
RTVSPost2010Prop32
280
     0
102
RTVSPost2010PropOp32
 70
     1
102
RTVSPost2010Prop33
280
     0
102
RTVSPost2010PropOp33
 70
     1
102
RTVSPost2010Prop34
280
     0
102
RTVSPost2010PropOp34
 70
     1
102
RTVSPost2010Prop35
280
     0
102
RTVSPost2010PropOp35
 70
     1
102
RTVSPost2010Prop36
280
     0
102
RTVSPost2010PropOp36
 70
     1
102
RTVSPost2010Prop37
 90
       50
102
RTVSPost2010PropOp37
 70
     1
102
RTVSPost2010Prop38
140
0.0
102
RTVSPost2010PropOp38
 70
     1
102
RTVSPost2010Prop39
140
1.0
102
RTVSPost2010PropOp39
 70
     1
102
RTVSPost2010Prop40
 90
        0
102
RTVSPost2010PropOp40
 70
     1
102
RTVSPost2010Prop41ColorIndex
 90
       18
102
RTVSPost2010Prop41ColorRGB
 90
        0
102
RTVSPost2010PropOp41
 70
     1
102
RTVSPost2010Prop42
 90
       50
102
RTVSPost2010PropOp42
 70
     1
102
RTVSPost2010Prop43
 90
        3
102
RTVSPost2010PropOp43
 70
     1
102
RTVSPost2010Prop44ColorIndex
 90
        5
102
RTVSPost2010Prop44ColorRGB
 90
      255
102
RTVSPost2010PropOp44
 70
     1
102
RTVSPost2010Prop45
280
     0
102
RTVSPost2010PropOp45
 70
     1
102
RTVSPost2010Prop46
 90
       50
102
RTVSPost2010PropOp46
 70
     1
102
RTVSPost2010Prop47
 90
       50
102
RTVSPost2010PropOp47
 70
     1
102
RTVSPost2010Prop48
 90
       50
102
RTVSPost2010PropOp48
 70
     1
102
RTVSPost2010Prop49
280
     0
102
RTVSPost2010PropOp49
 70
     1
102
RTVSPost2010Prop50
 90
       50
102
RTVSPost2010PropOp50
 70
     1
102
RTVSPost2010Prop51ColorIndex
 90
      256
102
RTVSPost2010Prop51ColorRGB
 90
-16777216
102
RTVSPost2010PropOp51
 70
     0
102
RTVSPost2010Prop52
140
1.0
102
RTVSPost2010PropOp52
 70
     0
102
RTVSPost2010Prop53
 90
        2
102
RTVSPost2010PropOp53
 70
     1
102
RTVSPost2010Prop54
  1
strokes_ogs.tif
102
RTVSPost2010PropOp54
 70
     1
102
RTVSPost2010Prop55
280
     0
102
RTVSPost2010PropOp55
 70
     1
102
RTVSPost2010Prop56
140
1.0
102
RTVSPost2010PropOp56
 70
     1
102
RTVSPost2010Prop57
140
1.0
102
RTVSPost2010PropOp57
 70
     1
102
RTVSPropertyOp0
 70
     1
102
RTVSPropertyOp1
 70
     1
102
RTVSPropertyOp2
 70
     1
102
RTVSPropertyOp3
 70
     1
102
RTVSPropertyOp4
 70
     1
102
RTVSPropertyOp5
 70
     1
102
RTVSPropertyOp6
 70
     1
102
RTVSPropertyOp7
 70
     1
102
RTVSPropertyOp8
 70
     1
102
RTVSPropertyOp9
 70
     1
102
RTVSPropertyOp10
 70
     1
102
RTVSPropertyOp11
 70
     1
102
RTVSPropertyOp12
 70
     1
102
RTVSPropertyOp13
 70
     1
102
RTVSPropertyOp14
 70
     1
102
RTVSPropertyOp15
 70
     1
102
RTVSPropertyOp16
 70
     1
102
RTVSPropertyOp17
 70
     1
102
RTVSPropertyOp18
 70
     1
102
RTVSPropertyOp19
 70
     1
102
RTVSPropertyOp20
 70
     1
102
RTVSPropertyOp21
 70
     1
102
RTVSPropertyOp22
 70
     1
102
RTVSPropertyOp23
 70
     1
102
RTVSPropertyOp24
 70
     1
102
RTVSPropertyOp25
 70
     1
102
RTVSPropertyOp26
 70
     1
102
RTVSPropertyOp27
 70
     1
102
RTVSPropertyOp28
 70
     1
102
RTVSPropertyOp29
 70
     1
102
RTVSPropertyOp30
 70
     1
102
RTVSPropertyOp31
 70
     1
102
RTVSPropertyOp32
 70
     1
102
RTVSPropertyOp33
 70
     1
102
RTVSPropertyOp34
 70
     1
102
RTVSPropertyOp35
 70
     1
102
RTVSPropertyOp36
 70
     1
102
RTVSPropertyOp37
 70
     1
102
RTVSPropertyOp38
 70
     1
102
RTVSPropertyOp39
 70
     1
102
RTVSPropertyOp40
 70
     1
102
RTVSPropertyOp41
 70
     1
102
RTVSPropertyOp42
 70
     1
102
RTVSPropertyOp43
 70
     1
102
RTVSPropertyOp44
 70
     1
102
RTVSPropertyOp45
 70
     1
102
RTVSPropertyOp46
 70
     1
102
RTVSPropertyOp47
 70
     1
102
RTVSPropertyOp48
 70
     1
102
RTVSPropertyOp49
 70
     1
102
RTVSPropertyOp50
 70
     1
102
RTVSPropertyOp51
 70
     0
102
RTVSPropertyOp52
 70
     0
102
RTVSPropertyOp53
 70
     1
102
RTVSPropertyOp54
 70
     1
102
RTVSPropertyOp55
 70
     1
102
RTVSPropertyOp56
 70
     1
102
RTVSPropertyOp57
 70
     1
102
RTVSPropertyOp58
 70
     1
102
RTVSPropertyOp59
 70
     1
102
RTVSPropertyOp60
 70
     1
102
RTVSPropertyOp61
 70
     1
102
RTVSPropertyOp62
 70
     1
  0
XRECORD
  5
15B56
102
{ACAD_REACTORS
330
15B55
102
}
330
15B55
100
AcDbXrecord
280
     1
102
RTVSPost2010Prop28
280
     0
102
RTVSPost2010PropOp28
 70
     1
102
RTVSPost2010Prop29
280
     1
102
RTVSPost2010PropOp29
 70
     1
102
RTVSPost2010Prop30
280
     1
102
RTVSPost2010PropOp30
 70
     1
102
RTVSPost2010Prop31
280
     0
102
RTVSPost2010PropOp31
 70
     1
102
RTVSPost2010Prop32
280
     0
102
RTVSPost2010PropOp32
 70
     1
102
RTVSPost2010Prop33
280
     0
102
RTVSPost2010PropOp33
 70
     1
102
RTVSPost2010Prop34
280
     0
102
RTVSPost2010PropOp34
 70
     1
102
RTVSPost2010Prop35
280
     0
102
RTVSPost2010PropOp35
 70
     1
102
RTVSPost2010Prop36
280
     0
102
RTVSPost2010PropOp36
 70
     1
102
RTVSPost2010Prop37
 90
       50
102
RTVSPost2010PropOp37
 70
     1
102
RTVSPost2010Prop38
140
0.0
102
RTVSPost2010PropOp38
 70
     1
102
RTVSPost2010Prop39
140
1.0
102
RTVSPost2010PropOp39
 70
     1
102
RTVSPost2010Prop40
 90
        0
102
RTVSPost2010PropOp40
 70
     1
102
RTVSPost2010Prop41ColorIndex
 90
       18
102
RTVSPost2010Prop41ColorRGB
 90
        0
102
RTVSPost2010PropOp41
 70
     1
102
RTVSPost2010Prop42
 90
       50
102
RTVSPost2010PropOp42
 70
     1
102
RTVSPost2010Prop43
 90
        3
102
RTVSPost2010PropOp43
 70
     1
102
RTVSPost2010Prop44ColorIndex
 90
        5
102
RTVSPost2010Prop44ColorRGB
 90
      255
102
RTVSPost2010PropOp44
 70
     1
102
RTVSPost2010Prop45
280
     0
102
RTVSPost2010PropOp45
 70
     1
102
RTVSPost2010Prop46
 90
       50
102
RTVSPost2010PropOp46
 70
     1
102
RTVSPost2010Prop47
 90
       50
102
RTVSPost2010PropOp47
 70
     1
102
RTVSPost2010Prop48
 90
       50
102
RTVSPost2010PropOp48
 70
     1
102
RTVSPost2010Prop49
280
     0
102
RTVSPost2010PropOp49
 70
     1
102
RTVSPost2010Prop50
 90
       50
102
RTVSPost2010PropOp50
 70
     1
102
RTVSPost2010Prop51ColorIndex
 90
      256
102
RTVSPost2010Prop51ColorRGB
 90
-16777216
102
RTVSPost2010PropOp51
 70
     0
102
RTVSPost2010Prop52
140
1.0
102
RTVSPost2010PropOp52
 70
     0
102
RTVSPost2010Prop53
 90
        2
102
RTVSPost2010PropOp53
 70
     1
102
RTVSPost2010Prop54
  1
strokes_ogs.tif
102
RTVSPost2010PropOp54
 70
     1
102
RTVSPost2010Prop55
280
     0
102
RTVSPost2010PropOp55
 70
     1
102
RTVSPost2010Prop56
140
1.0
102
RTVSPost2010PropOp56
 70
     1
102
RTVSPost2010Prop57
140
1.0
102
RTVSPost2010PropOp57
 70
     1
102
RTVSPropertyOp0
 70
     1
102
RTVSPropertyOp1
 70
     1
102
RTVSPropertyOp2
 70
     1
102
RTVSPropertyOp3
 70
     1
102
RTVSPropertyOp4
 70
     1
102
RTVSPropertyOp5
 70
     1
102
RTVSPropertyOp6
 70
     1
102
RTVSPropertyOp7
 70
     1
102
RTVSPropertyOp8
 70
     1
102
RTVSPropertyOp9
 70
     1
102
RTVSPropertyOp10
 70
     1
102
RTVSPropertyOp11
 70
     1
102
RTVSPropertyOp12
 70
     1
102
RTVSPropertyOp13
 70
     1
102
RTVSPropertyOp14
 70
     1
102
RTVSPropertyOp15
 70
     1
102
RTVSPropertyOp16
 70
     1
102
RTVSPropertyOp17
 70
     1
102
RTVSPropertyOp18
 70
     1
102
RTVSPropertyOp19
 70
     1
102
RTVSPropertyOp20
 70
     1
102
RTVSPropertyOp21
 70
     1
102
RTVSPropertyOp22
 70
     1
102
RTVSPropertyOp23
 70
     1
102
RTVSPropertyOp24
 70
     1
102
RTVSPropertyOp25
 70
     1
102
RTVSPropertyOp26
 70
     1
102
RTVSPropertyOp27
 70
     1
102
RTVSPropertyOp28
 70
     1
102
RTVSPropertyOp29
 70
     1
102
RTVSPropertyOp30
 70
     1
102
RTVSPropertyOp31
 70
     1
102
RTVSPropertyOp32
 70
     1
102
RTVSPropertyOp33
 70
     1
102
RTVSPropertyOp34
 70
     1
102
RTVSPropertyOp35
 70
     1
102
RTVSPropertyOp36
 70
     1
102
RTVSPropertyOp37
 70
     1
102
RTVSPropertyOp38
 70
     1
102
RTVSPropertyOp39
 70
     1
102
RTVSPropertyOp40
 70
     1
102
RTVSPropertyOp41
 70
     1
102
RTVSPropertyOp42
 70
     1
102
RTVSPropertyOp43
 70
     1
102
RTVSPropertyOp44
 70
     1
102
RTVSPropertyOp45
 70
     1
102
RTVSPropertyOp46
 70
     1
102
RTVSPropertyOp47
 70
     1
102
RTVSPropertyOp48
 70
     1
102
RTVSPropertyOp49
 70
     1
102
RTVSPropertyOp50
 70
     1
102
RTVSPropertyOp51
 70
     0
102
RTVSPropertyOp52
 70
     0
102
RTVSPropertyOp53
 70
     1
102
RTVSPropertyOp54
 70
     1
102
RTVSPropertyOp55
 70
     1
102
RTVSPropertyOp56
 70
     1
102
RTVSPropertyOp57
 70
     1
102
RTVSPropertyOp58
 70
     1
102
RTVSPropertyOp59
 70
     1
102
RTVSPropertyOp60
 70
     1
102
RTVSPropertyOp61
 70
     1
102
RTVSPropertyOp62
 70
     1
  0
XRECORD
  5
15B54
102
{ACAD_REACTORS
330
15B53
102
}
330
15B53
100
AcDbXrecord
280
     1
102
RTVSPost2010Prop28
280
     0
102
RTVSPost2010PropOp28
 70
     1
102
RTVSPost2010Prop29
280
     1
102
RTVSPost2010PropOp29
 70
     1
102
RTVSPost2010Prop30
280
     1
102
RTVSPost2010PropOp30
 70
     1
102
RTVSPost2010Prop31
280
     0
102
RTVSPost2010PropOp31
 70
     1
102
RTVSPost2010Prop32
280
     0
102
RTVSPost2010PropOp32
 70
     1
102
RTVSPost2010Prop33
280
     0
102
RTVSPost2010PropOp33
 70
     1
102
RTVSPost2010Prop34
280
     0
102
RTVSPost2010PropOp34
 70
     1
102
RTVSPost2010Prop35
280
     0
102
RTVSPost2010PropOp35
 70
     1
102
RTVSPost2010Prop36
280
     0
102
RTVSPost2010PropOp36
 70
     1
102
RTVSPost2010Prop37
 90
       50
102
RTVSPost2010PropOp37
 70
     1
102
RTVSPost2010Prop38
140
0.0
102
RTVSPost2010PropOp38
 70
     1
102
RTVSPost2010Prop39
140
1.0
102
RTVSPost2010PropOp39
 70
     1
102
RTVSPost2010Prop40
 90
        0
102
RTVSPost2010PropOp40
 70
     1
102
RTVSPost2010Prop41ColorIndex
 90
       18
102
RTVSPost2010Prop41ColorRGB
 90
        0
102
RTVSPost2010PropOp41
 70
     1
102
RTVSPost2010Prop42
 90
       50
102
RTVSPost2010PropOp42
 70
     1
102
RTVSPost2010Prop43
 90
        3
102
RTVSPost2010PropOp43
 70
     1
102
RTVSPost2010Prop44ColorIndex
 90
        5
102
RTVSPost2010Prop44ColorRGB
 90
      255
102
RTVSPost2010PropOp44
 70
     1
102
RTVSPost2010Prop45
280
     0
102
RTVSPost2010PropOp45
 70
     1
102
RTVSPost2010Prop46
 90
       50
102
RTVSPost2010PropOp46
 70
     1
102
RTVSPost2010Prop47
 90
       50
102
RTVSPost2010PropOp47
 70
     1
102
RTVSPost2010Prop48
 90
       50
102
RTVSPost2010PropOp48
 70
     1
102
RTVSPost2010Prop49
280
     0
102
RTVSPost2010PropOp49
 70
     1
102
RTVSPost2010Prop50
 90
       50
102
RTVSPost2010PropOp50
 70
     1
102
RTVSPost2010Prop51ColorIndex
 90
      256
102
RTVSPost2010Prop51ColorRGB
 90
-16777216
102
RTVSPost2010PropOp51
 70
     0
102
RTVSPost2010Prop52
140
1.0
102
RTVSPost2010PropOp52
 70
     0
102
RTVSPost2010Prop53
 90
        2
102
RTVSPost2010PropOp53
 70
     1
102
RTVSPost2010Prop54
  1
strokes_ogs.tif
102
RTVSPost2010PropOp54
 70
     1
102
RTVSPost2010Prop55
280
     0
102
RTVSPost2010PropOp55
 70
     1
102
RTVSPost2010Prop56
140
1.0
102
RTVSPost2010PropOp56
 70
     1
102
RTVSPost2010Prop57
140
1.0
102
RTVSPost2010PropOp57
 70
     1
102
RTVSPropertyOp0
 70
     1
102
RTVSPropertyOp1
 70
     1
102
RTVSPropertyOp2
 70
     1
102
RTVSPropertyOp3
 70
     1
102
RTVSPropertyOp4
 70
     1
102
RTVSPropertyOp5
 70
     1
102
RTVSPropertyOp6
 70
     1
102
RTVSPropertyOp7
 70
     1
102
RTVSPropertyOp8
 70
     1
102
RTVSPropertyOp9
 70
     1
102
RTVSPropertyOp10
 70
     1
102
RTVSPropertyOp11
 70
     1
102
RTVSPropertyOp12
 70
     1
102
RTVSPropertyOp13
 70
     1
102
RTVSPropertyOp14
 70
     1
102
RTVSPropertyOp15
 70
     1
102
RTVSPropertyOp16
 70
     1
102
RTVSPropertyOp17
 70
     1
102
RTVSPropertyOp18
 70
     1
102
RTVSPropertyOp19
 70
     1
102
RTVSPropertyOp20
 70
     1
102
RTVSPropertyOp21
 70
     1
102
RTVSPropertyOp22
 70
     1
102
RTVSPropertyOp23
 70
     1
102
RTVSPropertyOp24
 70
     1
102
RTVSPropertyOp25
 70
     1
102
RTVSPropertyOp26
 70
     1
102
RTVSPropertyOp27
 70
     1
102
RTVSPropertyOp28
 70
     1
102
RTVSPropertyOp29
 70
     1
102
RTVSPropertyOp30
 70
     1
102
RTVSPropertyOp31
 70
     1
102
RTVSPropertyOp32
 70
     1
102
RTVSPropertyOp33
 70
     1
102
RTVSPropertyOp34
 70
     1
102
RTVSPropertyOp35
 70
     1
102
RTVSPropertyOp36
 70
     1
102
RTVSPropertyOp37
 70
     1
102
RTVSPropertyOp38
 70
     1
102
RTVSPropertyOp39
 70
     1
102
RTVSPropertyOp40
 70
     1
102
RTVSPropertyOp41
 70
     1
102
RTVSPropertyOp42
 70
     1
102
RTVSPropertyOp43
 70
     1
102
RTVSPropertyOp44
 70
     1
102
RTVSPropertyOp45
 70
     1
102
RTVSPropertyOp46
 70
     1
102
RTVSPropertyOp47
 70
     1
102
RTVSPropertyOp48
 70
     1
102
RTVSPropertyOp49
 70
     1
102
RTVSPropertyOp50
 70
     1
102
RTVSPropertyOp51
 70
     0
102
RTVSPropertyOp52
 70
     0
102
RTVSPropertyOp53
 70
     1
102
RTVSPropertyOp54
 70
     1
102
RTVSPropertyOp55
 70
     1
102
RTVSPropertyOp56
 70
     1
102
RTVSPropertyOp57
 70
     1
102
RTVSPropertyOp58
 70
     1
102
RTVSPropertyOp59
 70
     1
102
RTVSPropertyOp60
 70
     1
102
RTVSPropertyOp61
 70
     1
102
RTVSPropertyOp62
 70
     1
  0
XRECORD
  5
15B4E
102
{ACAD_REACTORS
330
15B4D
102
}
330
15B4D
100
AcDbXrecord
280
     1
102
RTVSPost2010Prop28
280
     0
102
RTVSPost2010PropOp28
 70
     1
102
RTVSPost2010Prop29
280
     1
102
RTVSPost2010PropOp29
 70
     1
102
RTVSPost2010Prop30
280
     1
102
RTVSPost2010PropOp30
 70
     1
102
RTVSPost2010Prop31
280
     0
102
RTVSPost2010PropOp31
 70
     1
102
RTVSPost2010Prop32
280
     0
102
RTVSPost2010PropOp32
 70
     1
102
RTVSPost2010Prop33
280
     0
102
RTVSPost2010PropOp33
 70
     1
102
RTVSPost2010Prop34
280
     0
102
RTVSPost2010PropOp34
 70
     1
102
RTVSPost2010Prop35
280
     0
102
RTVSPost2010PropOp35
 70
     1
102
RTVSPost2010Prop36
280
     0
102
RTVSPost2010PropOp36
 70
     1
102
RTVSPost2010Prop37
 90
       50
102
RTVSPost2010PropOp37
 70
     1
102
RTVSPost2010Prop38
140
0.0
102
RTVSPost2010PropOp38
 70
     1
102
RTVSPost2010Prop39
140
1.0
102
RTVSPost2010PropOp39
 70
     1
102
RTVSPost2010Prop40
 90
        0
102
RTVSPost2010PropOp40
 70
     1
102
RTVSPost2010Prop41ColorIndex
 90
       18
102
RTVSPost2010Prop41ColorRGB
 90
        0
102
RTVSPost2010PropOp41
 70
     1
102
RTVSPost2010Prop42
 90
       50
102
RTVSPost2010PropOp42
 70
     1
102
RTVSPost2010Prop43
 90
        3
102
RTVSPost2010PropOp43
 70
     1
102
RTVSPost2010Prop44ColorIndex
 90
        5
102
RTVSPost2010Prop44ColorRGB
 90
      255
102
RTVSPost2010PropOp44
 70
     1
102
RTVSPost2010Prop45
280
     0
102
RTVSPost2010PropOp45
 70
     1
102
RTVSPost2010Prop46
 90
       50
102
RTVSPost2010PropOp46
 70
     1
102
RTVSPost2010Prop47
 90
       50
102
RTVSPost2010PropOp47
 70
     1
102
RTVSPost2010Prop48
 90
       50
102
RTVSPost2010PropOp48
 70
     1
102
RTVSPost2010Prop49
280
     0
102
RTVSPost2010PropOp49
 70
     1
102
RTVSPost2010Prop50
 90
       50
102
RTVSPost2010PropOp50
 70
     1
102
RTVSPost2010Prop51ColorIndex
 90
      256
102
RTVSPost2010Prop51ColorRGB
 90
-16777216
102
RTVSPost2010PropOp51
 70
     0
102
RTVSPost2010Prop52
140
1.0
102
RTVSPost2010PropOp52
 70
     0
102
RTVSPost2010Prop53
 90
        2
102
RTVSPost2010PropOp53
 70
     1
102
RTVSPost2010Prop54
  1
strokes_ogs.tif
102
RTVSPost2010PropOp54
 70
     1
102
RTVSPost2010Prop55
280
     0
102
RTVSPost2010PropOp55
 70
     1
102
RTVSPost2010Prop56
140
1.0
102
RTVSPost2010PropOp56
 70
     1
102
RTVSPost2010Prop57
140
1.0
102
RTVSPost2010PropOp57
 70
     1
102
RTVSPropertyOp0
 70
     1
102
RTVSPropertyOp1
 70
     1
102
RTVSPropertyOp2
 70
     1
102
RTVSPropertyOp3
 70
     1
102
RTVSPropertyOp4
 70
     1
102
RTVSPropertyOp5
 70
     1
102
RTVSPropertyOp6
 70
     1
102
RTVSPropertyOp7
 70
     1
102
RTVSPropertyOp8
 70
     1
102
RTVSPropertyOp9
 70
     1
102
RTVSPropertyOp10
 70
     1
102
RTVSPropertyOp11
 70
     1
102
RTVSPropertyOp12
 70
     1
102
RTVSPropertyOp13
 70
     1
102
RTVSPropertyOp14
 70
     1
102
RTVSPropertyOp15
 70
     1
102
RTVSPropertyOp16
 70
     1
102
RTVSPropertyOp17
 70
     1
102
RTVSPropertyOp18
 70
     1
102
RTVSPropertyOp19
 70
     1
102
RTVSPropertyOp20
 70
     1
102
RTVSPropertyOp21
 70
     1
102
RTVSPropertyOp22
 70
     1
102
RTVSPropertyOp23
 70
     1
102
RTVSPropertyOp24
 70
     1
102
RTVSPropertyOp25
 70
     1
102
RTVSPropertyOp26
 70
     1
102
RTVSPropertyOp27
 70
     1
102
RTVSPropertyOp28
 70
     1
102
RTVSPropertyOp29
 70
     1
102
RTVSPropertyOp30
 70
     1
102
RTVSPropertyOp31
 70
     1
102
RTVSPropertyOp32
 70
     1
102
RTVSPropertyOp33
 70
     1
102
RTVSPropertyOp34
 70
     1
102
RTVSPropertyOp35
 70
     1
102
RTVSPropertyOp36
 70
     1
102
RTVSPropertyOp37
 70
     1
102
RTVSPropertyOp38
 70
     1
102
RTVSPropertyOp39
 70
     1
102
RTVSPropertyOp40
 70
     1
102
RTVSPropertyOp41
 70
     1
102
RTVSPropertyOp42
 70
     1
102
RTVSPropertyOp43
 70
     1
102
RTVSPropertyOp44
 70
     1
102
RTVSPropertyOp45
 70
     1
102
RTVSPropertyOp46
 70
     1
102
RTVSPropertyOp47
 70
     1
102
RTVSPropertyOp48
 70
     1
102
RTVSPropertyOp49
 70
     1
102
RTVSPropertyOp50
 70
     1
102
RTVSPropertyOp51
 70
     0
102
RTVSPropertyOp52
 70
     0
102
RTVSPropertyOp53
 70
     1
102
RTVSPropertyOp54
 70
     1
102
RTVSPropertyOp55
 70
     1
102
RTVSPropertyOp56
 70
     1
102
RTVSPropertyOp57
 70
     1
102
RTVSPropertyOp58
 70
     1
102
RTVSPropertyOp59
 70
     1
102
RTVSPropertyOp60
 70
     1
102
RTVSPropertyOp61
 70
     1
102
RTVSPropertyOp62
 70
     1
  0
XRECORD
  5
15B50
102
{ACAD_REACTORS
330
15B4F
102
}
330
15B4F
100
AcDbXrecord
280
     1
102
RTVSPost2010Prop28
280
     0
102
RTVSPost2010PropOp28
 70
     1
102
RTVSPost2010Prop29
280
     1
102
RTVSPost2010PropOp29
 70
     1
102
RTVSPost2010Prop30
280
     1
102
RTVSPost2010PropOp30
 70
     1
102
RTVSPost2010Prop31
280
     0
102
RTVSPost2010PropOp31
 70
     1
102
RTVSPost2010Prop32
280
     0
102
RTVSPost2010PropOp32
 70
     1
102
RTVSPost2010Prop33
280
     0
102
RTVSPost2010PropOp33
 70
     1
102
RTVSPost2010Prop34
280
     0
102
RTVSPost2010PropOp34
 70
     1
102
RTVSPost2010Prop35
280
     0
102
RTVSPost2010PropOp35
 70
     1
102
RTVSPost2010Prop36
280
     0
102
RTVSPost2010PropOp36
 70
     1
102
RTVSPost2010Prop37
 90
       50
102
RTVSPost2010PropOp37
 70
     1
102
RTVSPost2010Prop38
140
0.0
102
RTVSPost2010PropOp38
 70
     1
102
RTVSPost2010Prop39
140
1.0
102
RTVSPost2010PropOp39
 70
     1
102
RTVSPost2010Prop40
 90
        0
102
RTVSPost2010PropOp40
 70
     1
102
RTVSPost2010Prop41ColorIndex
 90
       18
102
RTVSPost2010Prop41ColorRGB
 90
        0
102
RTVSPost2010PropOp41
 70
     1
102
RTVSPost2010Prop42
 90
       50
102
RTVSPost2010PropOp42
 70
     1
102
RTVSPost2010Prop43
 90
        3
102
RTVSPost2010PropOp43
 70
     1
102
RTVSPost2010Prop44ColorIndex
 90
        5
102
RTVSPost2010Prop44ColorRGB
 90
      255
102
RTVSPost2010PropOp44
 70
     1
102
RTVSPost2010Prop45
280
     0
102
RTVSPost2010PropOp45
 70
     1
102
RTVSPost2010Prop46
 90
       50
102
RTVSPost2010PropOp46
 70
     1
102
RTVSPost2010Prop47
 90
       50
102
RTVSPost2010PropOp47
 70
     1
102
RTVSPost2010Prop48
 90
       50
102
RTVSPost2010PropOp48
 70
     1
102
RTVSPost2010Prop49
280
     0
102
RTVSPost2010PropOp49
 70
     1
102
RTVSPost2010Prop50
 90
       50
102
RTVSPost2010PropOp50
 70
     1
102
RTVSPost2010Prop51ColorIndex
 90
      256
102
RTVSPost2010Prop51ColorRGB
 90
-16777216
102
RTVSPost2010PropOp51
 70
     0
102
RTVSPost2010Prop52
140
1.0
102
RTVSPost2010PropOp52
 70
     0
102
RTVSPost2010Prop53
 90
        2
102
RTVSPost2010PropOp53
 70
     1
102
RTVSPost2010Prop54
  1
strokes_ogs.tif
102
RTVSPost2010PropOp54
 70
     1
102
RTVSPost2010Prop55
280
     0
102
RTVSPost2010PropOp55
 70
     1
102
RTVSPost2010Prop56
140
1.0
102
RTVSPost2010PropOp56
 70
     1
102
RTVSPost2010Prop57
140
1.0
102
RTVSPost2010PropOp57
 70
     1
102
RTVSPropertyOp0
 70
     1
102
RTVSPropertyOp1
 70
     1
102
RTVSPropertyOp2
 70
     1
102
RTVSPropertyOp3
 70
     1
102
RTVSPropertyOp4
 70
     1
102
RTVSPropertyOp5
 70
     1
102
RTVSPropertyOp6
 70
     1
102
RTVSPropertyOp7
 70
     1
102
RTVSPropertyOp8
 70
     1
102
RTVSPropertyOp9
 70
     1
102
RTVSPropertyOp10
 70
     1
102
RTVSPropertyOp11
 70
     1
102
RTVSPropertyOp12
 70
     1
102
RTVSPropertyOp13
 70
     1
102
RTVSPropertyOp14
 70
     1
102
RTVSPropertyOp15
 70
     1
102
RTVSPropertyOp16
 70
     1
102
RTVSPropertyOp17
 70
     1
102
RTVSPropertyOp18
 70
     1
102
RTVSPropertyOp19
 70
     1
102
RTVSPropertyOp20
 70
     1
102
RTVSPropertyOp21
 70
     1
102
RTVSPropertyOp22
 70
     1
102
RTVSPropertyOp23
 70
     1
102
RTVSPropertyOp24
 70
     1
102
RTVSPropertyOp25
 70
     1
102
RTVSPropertyOp26
 70
     1
102
RTVSPropertyOp27
 70
     1
102
RTVSPropertyOp28
 70
     1
102
RTVSPropertyOp29
 70
     1
102
RTVSPropertyOp30
 70
     1
102
RTVSPropertyOp31
 70
     1
102
RTVSPropertyOp32
 70
     1
102
RTVSPropertyOp33
 70
     1
102
RTVSPropertyOp34
 70
     1
102
RTVSPropertyOp35
 70
     1
102
RTVSPropertyOp36
 70
     1
102
RTVSPropertyOp37
 70
     1
102
RTVSPropertyOp38
 70
     1
102
RTVSPropertyOp39
 70
     1
102
RTVSPropertyOp40
 70
     1
102
RTVSPropertyOp41
 70
     1
102
RTVSPropertyOp42
 70
     1
102
RTVSPropertyOp43
 70
     1
102
RTVSPropertyOp44
 70
     1
102
RTVSPropertyOp45
 70
     1
102
RTVSPropertyOp46
 70
     1
102
RTVSPropertyOp47
 70
     1
102
RTVSPropertyOp48
 70
     1
102
RTVSPropertyOp49
 70
     1
102
RTVSPropertyOp50
 70
     1
102
RTVSPropertyOp51
 70
     0
102
RTVSPropertyOp52
 70
     0
102
RTVSPropertyOp53
 70
     1
102
RTVSPropertyOp54
 70
     1
102
RTVSPropertyOp55
 70
     1
102
RTVSPropertyOp56
 70
     1
102
RTVSPropertyOp57
 70
     1
102
RTVSPropertyOp58
 70
     1
102
RTVSPropertyOp59
 70
     1
102
RTVSPropertyOp60
 70
     1
102
RTVSPropertyOp61
 70
     1
102
RTVSPropertyOp62
 70
     1
  0
XRECORD
  5
15B3E
102
{ACAD_REACTORS
330
15B3D
102
}
330
15B3D
100
AcDbXrecord
280
     1
102
RTVSPost2010Prop28
280
     0
102
RTVSPost2010PropOp28
 70
     1
102
RTVSPost2010Prop29
280
     1
102
RTVSPost2010PropOp29
 70
     1
102
RTVSPost2010Prop30
280
     1
102
RTVSPost2010PropOp30
 70
     1
102
RTVSPost2010Prop31
280
     0
102
RTVSPost2010PropOp31
 70
     1
102
RTVSPost2010Prop32
280
     0
102
RTVSPost2010PropOp32
 70
     1
102
RTVSPost2010Prop33
280
     0
102
RTVSPost2010PropOp33
 70
     1
102
RTVSPost2010Prop34
280
     0
102
RTVSPost2010PropOp34
 70
     1
102
RTVSPost2010Prop35
280
     0
102
RTVSPost2010PropOp35
 70
     1
102
RTVSPost2010Prop36
280
     0
102
RTVSPost2010PropOp36
 70
     1
102
RTVSPost2010Prop37
 90
       50
102
RTVSPost2010PropOp37
 70
     1
102
RTVSPost2010Prop38
140
0.0
102
RTVSPost2010PropOp38
 70
     1
102
RTVSPost2010Prop39
140
1.0
102
RTVSPost2010PropOp39
 70
     1
102
RTVSPost2010Prop40
 90
        0
102
RTVSPost2010PropOp40
 70
     1
102
RTVSPost2010Prop41ColorIndex
 90
       18
102
RTVSPost2010Prop41ColorRGB
 90
        0
102
RTVSPost2010PropOp41
 70
     1
102
RTVSPost2010Prop42
 90
       50
102
RTVSPost2010PropOp42
 70
     1
102
RTVSPost2010Prop43
 90
        3
102
RTVSPost2010PropOp43
 70
     1
102
RTVSPost2010Prop44ColorIndex
 90
        5
102
RTVSPost2010Prop44ColorRGB
 90
      255
102
RTVSPost2010PropOp44
 70
     1
102
RTVSPost2010Prop45
280
     0
102
RTVSPost2010PropOp45
 70
     1
102
RTVSPost2010Prop46
 90
       50
102
RTVSPost2010PropOp46
 70
     1
102
RTVSPost2010Prop47
 90
       50
102
RTVSPost2010PropOp47
 70
     1
102
RTVSPost2010Prop48
 90
       50
102
RTVSPost2010PropOp48
 70
     1
102
RTVSPost2010Prop49
280
     0
102
RTVSPost2010PropOp49
 70
     1
102
RTVSPost2010Prop50
 90
       50
102
RTVSPost2010PropOp50
 70
     1
102
RTVSPost2010Prop51ColorIndex
 90
      256
102
RTVSPost2010Prop51ColorRGB
 90
-16777216
102
RTVSPost2010PropOp51
 70
     0
102
RTVSPost2010Prop52
140
1.0
102
RTVSPost2010PropOp52
 70
     0
102
RTVSPost2010Prop53
 90
        2
102
RTVSPost2010PropOp53
 70
     1
102
RTVSPost2010Prop54
  1
strokes_ogs.tif
102
RTVSPost2010PropOp54
 70
     1
102
RTVSPost2010Prop55
280
     0
102
RTVSPost2010PropOp55
 70
     1
102
RTVSPost2010Prop56
140
1.0
102
RTVSPost2010PropOp56
 70
     1
102
RTVSPost2010Prop57
140
1.0
102
RTVSPost2010PropOp57
 70
     1
102
RTVSPropertyOp0
 70
     1
102
RTVSPropertyOp1
 70
     1
102
RTVSPropertyOp2
 70
     1
102
RTVSPropertyOp3
 70
     1
102
RTVSPropertyOp4
 70
     1
102
RTVSPropertyOp5
 70
     1
102
RTVSPropertyOp6
 70
     1
102
RTVSPropertyOp7
 70
     1
102
RTVSPropertyOp8
 70
     1
102
RTVSPropertyOp9
 70
     1
102
RTVSPropertyOp10
 70
     1
102
RTVSPropertyOp11
 70
     1
102
RTVSPropertyOp12
 70
     1
102
RTVSPropertyOp13
 70
     1
102
RTVSPropertyOp14
 70
     1
102
RTVSPropertyOp15
 70
     1
102
RTVSPropertyOp16
 70
     1
102
RTVSPropertyOp17
 70
     1
102
RTVSPropertyOp18
 70
     1
102
RTVSPropertyOp19
 70
     1
102
RTVSPropertyOp20
 70
     1
102
RTVSPropertyOp21
 70
     1
102
RTVSPropertyOp22
 70
     1
102
RTVSPropertyOp23
 70
     1
102
RTVSPropertyOp24
 70
     1
102
RTVSPropertyOp25
 70
     1
102
RTVSPropertyOp26
 70
     1
102
RTVSPropertyOp27
 70
     1
102
RTVSPropertyOp28
 70
     1
102
RTVSPropertyOp29
 70
     1
102
RTVSPropertyOp30
 70
     1
102
RTVSPropertyOp31
 70
     1
102
RTVSPropertyOp32
 70
     1
102
RTVSPropertyOp33
 70
     1
102
RTVSPropertyOp34
 70
     1
102
RTVSPropertyOp35
 70
     1
102
RTVSPropertyOp36
 70
     1
102
RTVSPropertyOp37
 70
     1
102
RTVSPropertyOp38
 70
     1
102
RTVSPropertyOp39
 70
     1
102
RTVSPropertyOp40
 70
     1
102
RTVSPropertyOp41
 70
     1
102
RTVSPropertyOp42
 70
     1
102
RTVSPropertyOp43
 70
     1
102
RTVSPropertyOp44
 70
     1
102
RTVSPropertyOp45
 70
     1
102
RTVSPropertyOp46
 70
     1
102
RTVSPropertyOp47
 70
     1
102
RTVSPropertyOp48
 70
     1
102
RTVSPropertyOp49
 70
     1
102
RTVSPropertyOp50
 70
     1
102
RTVSPropertyOp51
 70
     0
102
RTVSPropertyOp52
 70
     0
102
RTVSPropertyOp53
 70
     1
102
RTVSPropertyOp54
 70
     1
102
RTVSPropertyOp55
 70
     1
102
RTVSPropertyOp56
 70
     1
102
RTVSPropertyOp57
 70
     1
102
RTVSPropertyOp58
 70
     1
102
RTVSPropertyOp59
 70
     1
102
RTVSPropertyOp60
 70
     1
102
RTVSPropertyOp61
 70
     1
102
RTVSPropertyOp62
 70
     1
  0
XRECORD
  5
15B32
102
{ACAD_REACTORS
330
15B31
102
}
330
15B31
100
AcDbXrecord
280
     1
102
RTVSPost2010Prop28
280
     0
102
RTVSPost2010PropOp28
 70
     1
102
RTVSPost2010Prop29
280
     1
102
RTVSPost2010PropOp29
 70
     1
102
RTVSPost2010Prop30
280
     1
102
RTVSPost2010PropOp30
 70
     1
102
RTVSPost2010Prop31
280
     0
102
RTVSPost2010PropOp31
 70
     1
102
RTVSPost2010Prop32
280
     0
102
RTVSPost2010PropOp32
 70
     1
102
RTVSPost2010Prop33
280
     0
102
RTVSPost2010PropOp33
 70
     1
102
RTVSPost2010Prop34
280
     0
102
RTVSPost2010PropOp34
 70
     1
102
RTVSPost2010Prop35
280
     0
102
RTVSPost2010PropOp35
 70
     1
102
RTVSPost2010Prop36
280
     0
102
RTVSPost2010PropOp36
 70
     1
102
RTVSPost2010Prop37
 90
       50
102
RTVSPost2010PropOp37
 70
     1
102
RTVSPost2010Prop38
140
0.0
102
RTVSPost2010PropOp38
 70
     1
102
RTVSPost2010Prop39
140
1.0
102
RTVSPost2010PropOp39
 70
     1
102
RTVSPost2010Prop40
 90
        0
102
RTVSPost2010PropOp40
 70
     1
102
RTVSPost2010Prop41ColorIndex
 90
       18
102
RTVSPost2010Prop41ColorRGB
 90
        0
102
RTVSPost2010PropOp41
 70
     1
102
RTVSPost2010Prop42
 90
       50
102
RTVSPost2010PropOp42
 70
     1
102
RTVSPost2010Prop43
 90
        3
102
RTVSPost2010PropOp43
 70
     1
102
RTVSPost2010Prop44ColorIndex
 90
        5
102
RTVSPost2010Prop44ColorRGB
 90
      255
102
RTVSPost2010PropOp44
 70
     1
102
RTVSPost2010Prop45
280
     0
102
RTVSPost2010PropOp45
 70
     1
102
RTVSPost2010Prop46
 90
       50
102
RTVSPost2010PropOp46
 70
     1
102
RTVSPost2010Prop47
 90
       50
102
RTVSPost2010PropOp47
 70
     1
102
RTVSPost2010Prop48
 90
       50
102
RTVSPost2010PropOp48
 70
     1
102
RTVSPost2010Prop49
280
     0
102
RTVSPost2010PropOp49
 70
     1
102
RTVSPost2010Prop50
 90
       50
102
RTVSPost2010PropOp50
 70
     1
102
RTVSPost2010Prop51ColorIndex
 90
      256
102
RTVSPost2010Prop51ColorRGB
 90
-16777216
102
RTVSPost2010PropOp51
 70
     0
102
RTVSPost2010Prop52
140
1.0
102
RTVSPost2010PropOp52
 70
     0
102
RTVSPost2010Prop53
 90
        2
102
RTVSPost2010PropOp53
 70
     1
102
RTVSPost2010Prop54
  1
strokes_ogs.tif
102
RTVSPost2010PropOp54
 70
     1
102
RTVSPost2010Prop55
280
     0
102
RTVSPost2010PropOp55
 70
     1
102
RTVSPost2010Prop56
140
1.0
102
RTVSPost2010PropOp56
 70
     1
102
RTVSPost2010Prop57
140
1.0
102
RTVSPost2010PropOp57
 70
     1
102
RTVSPropertyOp0
 70
     1
102
RTVSPropertyOp1
 70
     1
102
RTVSPropertyOp2
 70
     1
102
RTVSPropertyOp3
 70
     1
102
RTVSPropertyOp4
 70
     1
102
RTVSPropertyOp5
 70
     1
102
RTVSPropertyOp6
 70
     1
102
RTVSPropertyOp7
 70
     1
102
RTVSPropertyOp8
 70
     1
102
RTVSPropertyOp9
 70
     1
102
RTVSPropertyOp10
 70
     1
102
RTVSPropertyOp11
 70
     1
102
RTVSPropertyOp12
 70
     1
102
RTVSPropertyOp13
 70
     1
102
RTVSPropertyOp14
 70
     1
102
RTVSPropertyOp15
 70
     1
102
RTVSPropertyOp16
 70
     1
102
RTVSPropertyOp17
 70
     1
102
RTVSPropertyOp18
 70
     1
102
RTVSPropertyOp19
 70
     1
102
RTVSPropertyOp20
 70
     1
102
RTVSPropertyOp21
 70
     1
102
RTVSPropertyOp22
 70
     1
102
RTVSPropertyOp23
 70
     1
102
RTVSPropertyOp24
 70
     1
102
RTVSPropertyOp25
 70
     1
102
RTVSPropertyOp26
 70
     1
102
RTVSPropertyOp27
 70
     1
102
RTVSPropertyOp28
 70
     1
102
RTVSPropertyOp29
 70
     1
102
RTVSPropertyOp30
 70
     1
102
RTVSPropertyOp31
 70
     1
102
RTVSPropertyOp32
 70
     1
102
RTVSPropertyOp33
 70
     1
102
RTVSPropertyOp34
 70
     1
102
RTVSPropertyOp35
 70
     1
102
RTVSPropertyOp36
 70
     1
102
RTVSPropertyOp37
 70
     1
102
RTVSPropertyOp38
 70
     1
102
RTVSPropertyOp39
 70
     1
102
RTVSPropertyOp40
 70
     1
102
RTVSPropertyOp41
 70
     1
102
RTVSPropertyOp42
 70
     1
102
RTVSPropertyOp43
 70
     1
102
RTVSPropertyOp44
 70
     1
102
RTVSPropertyOp45
 70
     1
102
RTVSPropertyOp46
 70
     1
102
RTVSPropertyOp47
 70
     1
102
RTVSPropertyOp48
 70
     1
102
RTVSPropertyOp49
 70
     1
102
RTVSPropertyOp50
 70
     1
102
RTVSPropertyOp51
 70
     0
102
RTVSPropertyOp52
 70
     0
102
RTVSPropertyOp53
 70
     1
102
RTVSPropertyOp54
 70
     1
102
RTVSPropertyOp55
 70
     1
102
RTVSPropertyOp56
 70
     1
102
RTVSPropertyOp57
 70
     1
102
RTVSPropertyOp58
 70
     1
102
RTVSPropertyOp59
 70
     1
102
RTVSPropertyOp60
 70
     1
102
RTVSPropertyOp61
 70
     1
102
RTVSPropertyOp62
 70
     1
  0
XRECORD
  5
15B52
102
{ACAD_REACTORS
330
15B51
102
}
330
15B51
100
AcDbXrecord
280
     1
102
RTVSPost2010Prop28
280
     0
102
RTVSPost2010PropOp28
 70
     1
102
RTVSPost2010Prop29
280
     1
102
RTVSPost2010PropOp29
 70
     1
102
RTVSPost2010Prop30
280
     1
102
RTVSPost2010PropOp30
 70
     1
102
RTVSPost2010Prop31
280
     0
102
RTVSPost2010PropOp31
 70
     1
102
RTVSPost2010Prop32
280
     0
102
RTVSPost2010PropOp32
 70
     1
102
RTVSPost2010Prop33
280
     0
102
RTVSPost2010PropOp33
 70
     1
102
RTVSPost2010Prop34
280
     0
102
RTVSPost2010PropOp34
 70
     1
102
RTVSPost2010Prop35
280
     0
102
RTVSPost2010PropOp35
 70
     1
102
RTVSPost2010Prop36
280
     0
102
RTVSPost2010PropOp36
 70
     1
102
RTVSPost2010Prop37
 90
       50
102
RTVSPost2010PropOp37
 70
     1
102
RTVSPost2010Prop38
140
0.0
102
RTVSPost2010PropOp38
 70
     1
102
RTVSPost2010Prop39
140
1.0
102
RTVSPost2010PropOp39
 70
     1
102
RTVSPost2010Prop40
 90
        0
102
RTVSPost2010PropOp40
 70
     1
102
RTVSPost2010Prop41ColorIndex
 90
       18
102
RTVSPost2010Prop41ColorRGB
 90
        0
102
RTVSPost2010PropOp41
 70
     1
102
RTVSPost2010Prop42
 90
       50
102
RTVSPost2010PropOp42
 70
     1
102
RTVSPost2010Prop43
 90
        3
102
RTVSPost2010PropOp43
 70
     1
102
RTVSPost2010Prop44ColorIndex
 90
        5
102
RTVSPost2010Prop44ColorRGB
 90
      255
102
RTVSPost2010PropOp44
 70
     1
102
RTVSPost2010Prop45
280
     0
102
RTVSPost2010PropOp45
 70
     1
102
RTVSPost2010Prop46
 90
       50
102
RTVSPost2010PropOp46
 70
     1
102
RTVSPost2010Prop47
 90
       50
102
RTVSPost2010PropOp47
 70
     1
102
RTVSPost2010Prop48
 90
       50
102
RTVSPost2010PropOp48
 70
     1
102
RTVSPost2010Prop49
280
     0
102
RTVSPost2010PropOp49
 70
     1
102
RTVSPost2010Prop50
 90
       50
102
RTVSPost2010PropOp50
 70
     1
102
RTVSPost2010Prop51ColorIndex
 90
      256
102
RTVSPost2010Prop51ColorRGB
 90
-16777216
102
RTVSPost2010PropOp51
 70
     0
102
RTVSPost2010Prop52
140
1.0
102
RTVSPost2010PropOp52
 70
     0
102
RTVSPost2010Prop53
 90
        2
102
RTVSPost2010PropOp53
 70
     1
102
RTVSPost2010Prop54
  1
strokes_ogs.tif
102
RTVSPost2010PropOp54
 70
     1
102
RTVSPost2010Prop55
280
     0
102
RTVSPost2010PropOp55
 70
     1
102
RTVSPost2010Prop56
140
1.0
102
RTVSPost2010PropOp56
 70
     1
102
RTVSPost2010Prop57
140
1.0
102
RTVSPost2010PropOp57
 70
     1
102
RTVSPropertyOp0
 70
     1
102
RTVSPropertyOp1
 70
     1
102
RTVSPropertyOp2
 70
     1
102
RTVSPropertyOp3
 70
     1
102
RTVSPropertyOp4
 70
     1
102
RTVSPropertyOp5
 70
     1
102
RTVSPropertyOp6
 70
     1
102
RTVSPropertyOp7
 70
     1
102
RTVSPropertyOp8
 70
     1
102
RTVSPropertyOp9
 70
     1
102
RTVSPropertyOp10
 70
     1
102
RTVSPropertyOp11
 70
     1
102
RTVSPropertyOp12
 70
     1
102
RTVSPropertyOp13
 70
     1
102
RTVSPropertyOp14
 70
     1
102
RTVSPropertyOp15
 70
     1
102
RTVSPropertyOp16
 70
     1
102
RTVSPropertyOp17
 70
     1
102
RTVSPropertyOp18
 70
     1
102
RTVSPropertyOp19
 70
     1
102
RTVSPropertyOp20
 70
     1
102
RTVSPropertyOp21
 70
     1
102
RTVSPropertyOp22
 70
     1
102
RTVSPropertyOp23
 70
     1
102
RTVSPropertyOp24
 70
     1
102
RTVSPropertyOp25
 70
     1
102
RTVSPropertyOp26
 70
     1
102
RTVSPropertyOp27
 70
     1
102
RTVSPropertyOp28
 70
     1
102
RTVSPropertyOp29
 70
     1
102
RTVSPropertyOp30
 70
     1
102
RTVSPropertyOp31
 70
     1
102
RTVSPropertyOp32
 70
     1
102
RTVSPropertyOp33
 70
     1
102
RTVSPropertyOp34
 70
     1
102
RTVSPropertyOp35
 70
     1
102
RTVSPropertyOp36
 70
     1
102
RTVSPropertyOp37
 70
     1
102
RTVSPropertyOp38
 70
     1
102
RTVSPropertyOp39
 70
     1
102
RTVSPropertyOp40
 70
     1
102
RTVSPropertyOp41
 70
     1
102
RTVSPropertyOp42
 70
     1
102
RTVSPropertyOp43
 70
     1
102
RTVSPropertyOp44
 70
     1
102
RTVSPropertyOp45
 70
     1
102
RTVSPropertyOp46
 70
     1
102
RTVSPropertyOp47
 70
     1
102
RTVSPropertyOp48
 70
     1
102
RTVSPropertyOp49
 70
     1
102
RTVSPropertyOp50
 70
     1
102
RTVSPropertyOp51
 70
     0
102
RTVSPropertyOp52
 70
     0
102
RTVSPropertyOp53
 70
     1
102
RTVSPropertyOp54
 70
     1
102
RTVSPropertyOp55
 70
     1
102
RTVSPropertyOp56
 70
     1
102
RTVSPropertyOp57
 70
     1
102
RTVSPropertyOp58
 70
     1
102
RTVSPropertyOp59
 70
     1
102
RTVSPropertyOp60
 70
     1
102
RTVSPropertyOp61
 70
     1
102
RTVSPropertyOp62
 70
     1
  0
ENDSEC
  0
EOF
