  0
SECTION
  2
HEADER
  9
$ACADVER
  1
AC1015
  9
$ACADMAINTVER
 70
    18
  9
$DWGCODEPAGE
  3
ANSI_1252
  9
$INSBASE
 10
0.0
 20
0.0
 30
0.0
  9
$EXTMIN
 10
-149.5275870868092
 20
-159.7118220041876
 30
-0.0015258207003583
  9
$EXTMAX
 10
165.5877692364014
 20
207.0289770271967
 30
0.0000000349246037
  9
$LIMMIN
 10
0.0
 20
0.0
  9
$LIMMAX
 10
420.0
 20
297.0
  9
$ORTHOMODE
 70
     0
  9
$REGENMODE
 70
     1
  9
$FILLMODE
 70
     1
  9
$QTEXTMODE
 70
     0
  9
$MIRRTEXT
 70
     0
  9
$LTSCALE
 40
1.0
  9
$ATTMODE
 70
     1
  9
$TEXTSIZE
 40
2.5
  9
$TRACEWID
 40
1.0
  9
$TEXTSTYLE
  7
Standard
  9
$CLAYER
  8
0
  9
$CELTYPE
  6
ByLayer
  9
$CECOLOR
 62
   256
  9
$CELTSCALE
 40
1.0
  9
$DISPSILH
 70
     0
  9
$DIMSCALE
 40
1.0
  9
$DIMASZ
 40
2.5
  9
$DIMEXO
 40
0.625
  9
$DIMDLI
 40
3.75
  9
$DIMRND
 40
0.0
  9
$DIMDLE
 40
0.0
  9
$DIMEXE
 40
1.25
  9
$DIMTP
 40
0.0
  9
$DIMTM
 40
0.0
  9
$DIMTXT
 40
2.5
  9
$DIMCEN
 40
2.5
  9
$DIMTSZ
 40
0.0
  9
$DIMTOL
 70
     0
  9
$DIMLIM
 70
     0
  9
$DIMTIH
 70
     0
  9
$DIMTOH
 70
     0
  9
$DIMSE1
 70
     0
  9
$DIMSE2
 70
     0
  9
$DIMTAD
 70
     1
  9
$DIMZIN
 70
     8
  9
$DIMBLK
  1

  9
$DIMASO
 70
     1
  9
$DIMSHO
 70
     1
  9
$DIMPOST
  1

  9
$DIMAPOST
  1

  9
$DIMALT
 70
     0
  9
$DIMALTD
 70
     3
  9
$DIMALTF
 40
0.03937007874016
  9
$DIMLFAC
 40
1.0
  9
$DIMTOFL
 70
     1
  9
$DIMTVP
 40
0.0
  9
$DIMTIX
 70
     0
  9
$DIMSOXD
 70
     0
  9
$DIMSAH
 70
     0
  9
$DIMBLK1
  1

  9
$DIMBLK2
  1

  9
$DIMSTYLE
  2
ISO-25
  9
$DIMCLRD
 70
     0
  9
$DIMCLRE
 70
     0
  9
$DIMCLRT
 70
     0
  9
$DIMTFAC
 40
1.0
  9
$DIMGAP
 40
0.625
  9
$DIMJUST
 70
     0
  9
$DIMSD1
 70
     0
  9
$DIMSD2
 70
     0
  9
$DIMTOLJ
 70
     0
  9
$DIMTZIN
 70
     8
  9
$DIMALTZ
 70
     0
  9
$DIMALTTZ
 70
     0
  9
$DIMUPT
 70
     0
  9
$DIMDEC
 70
     2
  9
$DIMTDEC
 70
     2
  9
$DIMALTU
 70
     2
  9
$DIMALTTD
 70
     3
  9
$DIMTXSTY
  7
Standard
  9
$DIMAUNIT
 70
     0
  9
$DIMADEC
 70
     0
  9
$DIMALTRND
 40
0.0
  9
$DIMAZIN
 70
     0
  9
$DIMDSEP
 70
    44
  9
$DIMATFIT
 70
     3
  9
$DIMFRAC
 70
     0
  9
$DIMLDRBLK
  1

  9
$DIMLUNIT
 70
     2
  9
$DIMLWD
 70
    -2
  9
$DIMLWE
 70
    -2
  9
$DIMTMOVE
 70
     0
  9
$LUNITS
 70
     2
  9
$LUPREC
 70
     4
  9
$SKETCHINC
 40
1.0
  9
$FILLETRAD
 40
0.0
  9
$AUNITS
 70
     0
  9
$AUPREC
 70
     0
  9
$MENU
  1
.
  9
$ELEVATION
 40
0.0
  9
$PELEVATION
 40
0.0
  9
$THICKNESS
 40
0.0
  9
$LIMCHECK
 70
     0
  9
$CHAMFERA
 40
0.0
  9
$CHAMFERB
 40
0.0
  9
$CHAMFERC
 40
0.0
  9
$CHAMFERD
 40
0.0
  9
$SKPOLY
 70
     0
  9
$TDCREATE
 40
2460367.705740741
  9
$TDUCREATE
 40
2460367.414074074
  9
$TDUPDATE
 40
2460367.711377315
  9
$TDUUPDATE
 40
2460367.419710648
  9
$TDINDWG
 40
0.0035185185
  9
$TDUSRTIMER
 40
0.0035185185
  9
$USRTIMER
 70
     1
  9
$ANGBASE
 50
0.0
  9
$ANGDIR
 70
     0
  9
$PDMODE
 70
     0
  9
$PDSIZE
 40
0.0
  9
$PLINEWID
 40
0.0
  9
$SPLFRAME
 70
     0
  9
$SPLINETYPE
 70
     6
  9
$SPLINESEGS
 70
     8
  9
$HANDSEED
  5
2922
  9
$SURFTAB1
 70
     6
  9
$SURFTAB2
 70
     6
  9
$SURFTYPE
 70
     6
  9
$SURFU
 70
     6
  9
$SURFV
 70
     6
  9
$UCSBASE
  2

  9
$UCSNAME
  2

  9
$UCSORG
 10
0.0
 20
0.0
 30
0.0
  9
$UCSXDIR
 10
1.0
 20
0.0
 30
0.0
  9
$UCSYDIR
 10
0.0
 20
1.0
 30
0.0
  9
$UCSORTHOREF
  2

  9
$UCSORTHOVIEW
 70
     0
  9
$UCSORGTOP
 10
0.0
 20
0.0
 30
0.0
  9
$UCSORGBOTTOM
 10
0.0
 20
0.0
 30
0.0
  9
$UCSORGLEFT
 10
0.0
 20
0.0
 30
0.0
  9
$UCSORGRIGHT
 10
0.0
 20
0.0
 30
0.0
  9
$UCSORGFRONT
 10
0.0
 20
0.0
 30
0.0
  9
$UCSORGBACK
 10
0.0
 20
0.0
 30
0.0
  9
$PUCSBASE
  2

  9
$PUCSNAME
  2

  9
$PUCSORG
 10
0.0
 20
0.0
 30
0.0
  9
$PUCSXDIR
 10
1.0
 20
0.0
 30
0.0
  9
$PUCSYDIR
 10
0.0
 20
1.0
 30
0.0
  9
$PUCSORTHOREF
  2

  9
$PUCSORTHOVIEW
 70
     0
  9
$PUCSORGTOP
 10
0.0
 20
0.0
 30
0.0
  9
$PUCSORGBOTTOM
 10
0.0
 20
0.0
 30
0.0
  9
$PUCSORGLEFT
 10
0.0
 20
0.0
 30
0.0
  9
$PUCSORGRIGHT
 10
0.0
 20
0.0
 30
0.0
  9
$PUCSORGFRONT
 10
0.0
 20
0.0
 30
0.0
  9
$PUCSORGBACK
 10
0.0
 20
0.0
 30
0.0
  9
$USERI1
 70
     0
  9
$USERI2
 70
     0
  9
$USERI3
 70
     0
  9
$USERI4
 70
     0
  9
$USERI5
 70
     0
  9
$USERR1
 40
0.0
  9
$USERR2
 40
0.0
  9
$USERR3
 40
0.0
  9
$USERR4
 40
0.0
  9
$USERR5
 40
0.0
  9
$WORLDVIEW
 70
     1
  9
$SHADEDGE
 70
     3
  9
$SHADEDIF
 70
    70
  9
$TILEMODE
 70
     1
  9
$MAXACTVP
 70
    48
  9
$PINSBASE
 10
0.0
 20
0.0
 30
0.0
  9
$PLIMCHECK
 70
     0
  9
$PEXTMIN
 10
0.0
 20
0.0
 30
0.0
  9
$PEXTMAX
 10
0.0
 20
0.0
 30
0.0
  9
$PLIMMIN
 10
0.0
 20
0.0
  9
$PLIMMAX
 10
12.0
 20
9.0
  9
$UNITMODE
 70
     0
  9
$VISRETAIN
 70
     1
  9
$PLINEGEN
 70
     0
  9
$PSLTSCALE
 70
     1
  9
$TREEDEPTH
 70
  3020
  9
$CMLSTYLE
  2
Standard
  9
$CMLJUST
 70
     0
  9
$CMLSCALE
 40
20.0
  9
$PROXYGRAPHICS
 70
     1
  9
$MEASUREMENT
 70
     1
  9
$CELWEIGHT
370
    -1
  9
$ENDCAPS
280
     0
  9
$JOINSTYLE
280
     0
  9
$LWDISPLAY
290
     0
  9
$INSUNITS
 70
     4
  9
$HYPERLINKBASE
  1

  9
$STYLESHEET
  1

  9
$XEDIT
290
     1
  9
$CEPSNTYPE
380
     0
  9
$PSTYLEMODE
290
     1
  9
$FINGERPRINTGUID
  2
{09ACAAAA-6FF3-F94C-B944-1C0D1F37C415}
  9
$VERSIONGUID
  2
{670E3204-7AE7-8149-A1DA-72250602D2A4}
  9
$EXTNAMES
290
     1
  9
$PSVPSCALE
 40
0.0
  9
$OLESTARTUP
290
     0
  0
ENDSEC
  0
SECTION
  2
CLASSES
  0
CLASS
  1
ACDBDICTIONARYWDFLT
  2
AcDbDictionaryWithDefault
  3
ObjectDBX Classes
 90
        0
280
     0
281
     0
  0
CLASS
  1
ACDBPLACEHOLDER
  2
AcDbPlaceHolder
  3
ObjectDBX Classes
 90
        0
280
     0
281
     0
  0
CLASS
  1
LAYOUT
  2
AcDbLayout
  3
ObjectDBX Classes
 90
        0
280
     0
281
     0
  0
CLASS
  1
DICTIONARYVAR
  2
AcDbDictionaryVar
  3
ObjectDBX Classes
 90
        0
280
     0
281
     0
  0
CLASS
  1
TABLESTYLE
  2
AcDbTableStyle
  3
ObjectDBX Classes
 90
     4095
280
     0
281
     0
  0
CLASS
  1
MATERIAL
  2
AcDbMaterial
  3
ObjectDBX Classes
 90
     1153
280
     0
281
     0
  0
CLASS
  1
VISUALSTYLE
  2
AcDbVisualStyle
  3
ObjectDBX Classes
 90
     4095
280
     0
281
     0
  0
CLASS
  1
SCALE
  2
AcDbScale
  3
ObjectDBX Classes
 90
     1153
280
     0
281
     0
  0
CLASS
  1
MLEADERSTYLE
  2
AcDbMLeaderStyle
  3
ACDB_MLEADERSTYLE_CLASS
 90
     4095
280
     0
281
     0
  0
CLASS
  1
CELLSTYLEMAP
  2
AcDbCellStyleMap
  3
ObjectDBX Classes
 90
     1152
280
     0
281
     0
  0
CLASS
  1
EXACXREFPANELOBJECT
  2
ExAcXREFPanelObject
  3
EXAC_ESW
 90
    33793
280
     0
281
     0
  0
CLASS
  1
NPOCOLLECTION
  2
AcDbImpNonPersistentObjectsCollection
  3
ObjectDBX Classes
 90
    33921
280
     0
281
     0
  0
CLASS
  1
LAYER_INDEX
  2
AcDbLayerIndex
  3
ObjectDBX Classes
 90
    32768
280
     0
281
     0
  0
CLASS
  1
SPATIAL_INDEX
  2
AcDbSpatialIndex
  3
ObjectDBX Classes
 90
    32768
280
     0
281
     0
  0
CLASS
  1
IDBUFFER
  2
AcDbIdBuffer
  3
ObjectDBX Classes
 90
    32768
280
     0
281
     0
  0
CLASS
  1
ACDBSECTIONVIEWSTYLE
  2
AcDbSectionViewStyle
  3
ObjectDBX Classes
 90
     1025
280
     0
281
     0
  0
CLASS
  1
ACDBDETAILVIEWSTYLE
  2
AcDbDetailViewStyle
  3
ObjectDBX Classes
 90
     1025
280
     0
281
     0
  0
CLASS
  1
XRECORD
  2
AcDbXrecord
  3
ObjectDBX Classes
 90
        0
280
     0
281
     0
  0
ENDSEC
  0
SECTION
  2
TABLES
  0
TABLE
  2
VPORT
  5
8
102
{ACAD_XDICTIONARY
360
2830
102
}
330
0
100
AcDbSymbolTable
 70
     1
  0
VPORT
  5
EA
330
8
100
AcDbSymbolTableRecord
100
AcDbViewportTableRecord
  2
*Active
 70
     0
 10
0.0
 20
0.0
 11
1.0
 21
1.0
 12
8.030091074796086
 22
23.65857751150452
 13
0.0
 23
0.0
 14
10.0
 24
10.0
 15
10.0
 25
10.0
 16
0.0
 26
0.0
 36
1.0
 17
0.0
 27
0.0
 37
0.0
 40
389.9956045025679
 41
0.9846153846153848
 42
50.0
 43
0.0
 44
0.0
 50
0.0
 51
0.0
 71
     0
 72
  1000
 73
     1
 74
     3
 75
     0
 76
     1
 77
     0
 78
     0
281
     0
 65
     1
110
0.0
120
0.0
130
0.0
111
1.0
121
0.0
131
0.0
112
0.0
122
1.0
132
0.0
 79
     0
146
0.0
1001
ACAD_NAV_VCDISPLAY
1070
     3
  0
ENDTAB
  0
TABLE
  2
LTYPE
  5
5
330
0
100
AcDbSymbolTable
 70
     1
  0
LTYPE
  5
14
330
5
100
AcDbSymbolTableRecord
100
AcDbLinetypeTableRecord
  2
ByBlock
 70
     0
  3

 72
    65
 73
     0
 40
0.0
  0
LTYPE
  5
15
330
5
100
AcDbSymbolTableRecord
100
AcDbLinetypeTableRecord
  2
ByLayer
 70
     0
  3

 72
    65
 73
     0
 40
0.0
  0
LTYPE
  5
16
330
5
100
AcDbSymbolTableRecord
100
AcDbLinetypeTableRecord
  2
Continuous
 70
     0
  3
Solid line
 72
    65
 73
     0
 40
0.0
  0
ENDTAB
  0
TABLE
  2
LAYER
  5
2
102
{ACAD_XDICTIONARY
360
1FF
102
}
330
0
100
AcDbSymbolTable
 70
     1
  0
LAYER
  5
10
102
{ACAD_XDICTIONARY
360
13C
102
}
330
2
100
AcDbSymbolTableRecord
100
AcDbLayerTableRecord
  2
0
 70
     0
 62
     7
  6
Continuous
370
    -3
390
F
  0
ENDTAB
  0
TABLE
  2
STYLE
  5
3
330
0
100
AcDbSymbolTable
 70
     1
  0
STYLE
  5
11
330
3
100
AcDbSymbolTableRecord
100
AcDbTextStyleTableRecord
  2
Standard
 70
     0
 40
0.0
 41
1.0
 50
0.0
 71
     0
 42
2.5
  3
arial.ttf
  4

1001
ACAD
1000
Arial
1071
       34
  0
ENDTAB
  0
TABLE
  2
VIEW
  5
6
330
0
100
AcDbSymbolTable
 70
     0
  0
ENDTAB
  0
TABLE
  2
UCS
  5
7
330
0
100
AcDbSymbolTable
 70
     0
  0
ENDTAB
  0
TABLE
  2
APPID
  5
9
330
0
100
AcDbSymbolTable
 70
     8
  0
APPID
  5
12
330
9
100
AcDbSymbolTableRecord
100
AcDbRegAppTableRecord
  2
ACAD
 70
     0
  0
APPID
  5
9E
330
9
100
AcDbSymbolTableRecord
100
AcDbRegAppTableRecord
  2
ACAD_PSEXT
 70
     0
  0
APPID
  5
133
330
9
100
AcDbSymbolTableRecord
100
AcDbRegAppTableRecord
  2
AcadAnnoPO
 70
     0
  0
APPID
  5
134
330
9
100
AcDbSymbolTableRecord
100
AcDbRegAppTableRecord
  2
AcadAnnotative
 70
     0
  0
APPID
  5
135
330
9
100
AcDbSymbolTableRecord
100
AcDbRegAppTableRecord
  2
ACAD_DSTYLE_DIMJAG
 70
     0
  0
APPID
  5
136
330
9
100
AcDbSymbolTableRecord
100
AcDbRegAppTableRecord
  2
ACAD_DSTYLE_DIMTALN
 70
     0
  0
APPID
  5
165
330
9
100
AcDbSymbolTableRecord
100
AcDbRegAppTableRecord
  2
ACAD_MLEADERVER
 70
     0
  0
APPID
  5
217
330
9
100
AcDbSymbolTableRecord
100
AcDbRegAppTableRecord
  2
ACAD_NAV_VCDISPLAY
 70
     0
  0
ENDTAB
  0
TABLE
  2
DIMSTYLE
  5
A
330
0
100
AcDbSymbolTable
 70
     1
100
AcDbDimStyleTable
 71
     0
  0
DIMSTYLE
105
27
330
A
100
AcDbSymbolTableRecord
100
AcDbDimStyleTableRecord
  2
ISO-25
 70
     0
 41
2.5
 42
0.625
 43
3.75
 44
1.25
 73
     0
 74
     0
 77
     1
 78
     8
140
2.5
141
2.5
143
0.03937007874016
147
0.625
171
     3
172
     1
271
     2
272
     2
274
     3
278
    44
283
     0
284
     8
340
11
  0
ENDTAB
  0
TABLE
  2
BLOCK_RECORD
  5
1
330
0
100
AcDbSymbolTable
 70
     7
  0
BLOCK_RECORD
  5
1F
102
{ACAD_XDICTIONARY
360
1CE
102
}
330
1
100
AcDbSymbolTableRecord
100
AcDbBlockTableRecord
  2
*Model_Space
340
22
  0
BLOCK_RECORD
  5
D2
102
{ACAD_XDICTIONARY
360
27E3
102
}
330
1
100
AcDbSymbolTableRecord
100
AcDbBlockTableRecord
  2
*Paper_Space
340
D3
  0
BLOCK_RECORD
  5
D6
102
{ACAD_XDICTIONARY
360
27E5
102
}
330
1
100
AcDbSymbolTableRecord
100
AcDbBlockTableRecord
  2
*Paper_Space0
340
D7
  0
BLOCK_RECORD
  5
267C
330
1
100
AcDbSymbolTableRecord
100
AcDbBlockTableRecord
  2
ABR90-Front
340
0
102
{BLKREFS
331
27D9
102
}
  0
BLOCK_RECORD
  5
26AC
330
1
100
AcDbSymbolTableRecord
100
AcDbBlockTableRecord
  2
ABR90-Left
340
0
102
{BLKREFS
331
27DA
102
}
  0
BLOCK_RECORD
  5
26CC
330
1
100
AcDbSymbolTableRecord
100
AcDbBlockTableRecord
  2
ABR90-Right
340
0
102
{BLKREFS
331
27DB
102
}
  0
BLOCK_RECORD
  5
26EB
330
1
100
AcDbSymbolTableRecord
100
AcDbBlockTableRecord
  2
ABR90-Top
340
0
102
{BLKREFS
331
27DC
102
}
  0
BLOCK_RECORD
  5
271B
330
1
100
AcDbSymbolTableRecord
100
AcDbBlockTableRecord
  2
ABR90-Bottom
340
0
102
{BLKREFS
331
27DD
102
}
  0
BLOCK_RECORD
  5
275F
330
1
100
AcDbSymbolTableRecord
100
AcDbBlockTableRecord
  2
ABR90-ISO
340
0
102
{BLKREFS
331
27DE
102
}
  0
ENDTAB
  0
ENDSEC
  0
SECTION
  2
BLOCKS
  0
BLOCK
  5
20
330
1F
100
AcDbEntity
  8
0
100
AcDbBlockBegin
  2
*Model_Space
 70
     0
 10
0.0
 20
0.0
 30
0.0
  3
*Model_Space
  1

  0
ENDBLK
  5
21
330
1F
100
AcDbEntity
  8
0
100
AcDbBlockEnd
  0
BLOCK
  5
D4
330
D2
100
AcDbEntity
 67
     1
  8
0
100
AcDbBlockBegin
  2
*Paper_Space
 70
     0
 10
0.0
 20
0.0
 30
0.0
  3
*Paper_Space
  1

  0
ENDBLK
  5
D5
330
D2
100
AcDbEntity
 67
     1
  8
0
100
AcDbBlockEnd
  0
BLOCK
  5
D8
330
D6
100
AcDbEntity
 67
     1
  8
0
100
AcDbBlockBegin
  2
*Paper_Space0
 70
     0
 10
0.0
 20
0.0
 30
0.0
  3
*Paper_Space0
  1

  0
ENDBLK
  5
D9
330
D6
100
AcDbEntity
 67
     1
  8
0
100
AcDbBlockEnd
  0
BLOCK
  5
267D
330
267C
100
AcDbEntity
  8
0
100
AcDbBlockBegin
  2
ABR90-Front
 70
     0
 10
0.0
 20
0.0
 30
0.0
  3
ABR90-Front
  1

  0
LINE
  5
267F
330
267C
100
AcDbEntity
  8
0
100
AcDbLine
 10
11.26894735259583
 20
53.73105264740414
 30
0.0
 11
0.0
 21
53.73105264740416
 31
0.0
  0
ARC
  5
2680
330
267C
100
AcDbEntity
  8
0
100
AcDbCircle
 10
-0.0000000000000116
 20
53.73105264740416
 30
0.0
 40
11.26894735259585
100
AcDbArc
 50
0.0
 51
89.99999999999969
  0
ARC
  5
2681
330
267C
100
AcDbEntity
  8
0
100
AcDbCircle
 10
-0.0000000000000116
 20
53.73105264740416
 30
0.0
 40
11.26894735259585
100
AcDbArc
 50
89.99999999999969
 51
180.0
  0
LINE
  5
2682
330
267C
100
AcDbEntity
  8
0
100
AcDbLine
 10
0.0
 20
53.73105264740416
 30
0.0
 11
-11.26894735259585
 21
53.73105264740414
 31
0.0
  0
SPLINE
  5
2683
330
267C
100
AcDbEntity
  8
0
100
AcDbSpline
210
0.0
220
0.0
230
1.0
 70
     8
 71
     3
 72
    20
 73
    16
 74
     0
 42
0.000000001
 43
0.0000000001
 40
0.1711506944005041
 40
0.1711506944005041
 40
0.1711506944005041
 40
0.1711506944005041
 40
0.1935475736092407
 40
0.1935475736092407
 40
0.1935475736092407
 40
0.2714898027064927
 40
0.2714898027064927
 40
0.2714898027064927
 40
0.3124220589415433
 40
0.3124220589415433
 40
0.3124220589415433
 40
0.4073566040977041
 40
0.4073566040977041
 40
0.4073566040977041
 40
0.5
 40
0.5
 40
0.5
 40
0.5
 10
7.425556706041246
 20
3.182894331796227
 30
0.0
 10
7.258705233611697
 20
3.218359707085434
 30
0.0
 10
7.091853761182148
 20
3.25382508237464
 30
0.0
 10
6.9250022887526
 20
3.289290457663847
 30
0.0
 10
6.344351048545673
 20
3.412711688811668
 30
0.0
 10
5.763699808338746
 20
3.536132919959489
 30
0.0
 10
5.183048568131818
 20
3.659554151107311
 30
0.0
 10
4.878112904594472
 20
3.724370227279348
 30
0.0
 10
4.571961282466912
 20
3.783465618554369
 30
0.0
 10
4.264809105030991
 20
3.836798746380072
 30
0.0
 10
3.552428333955042
 20
3.960494743073088
 30
0.0
 10
2.8346633553616
 20
4.053178376675453
 30
0.0
 10
2.114228194901929
 20
4.114499190190028
 30
0.0
 10
1.411180008568801
 20
4.174340087875237
 30
0.0
 10
0.7055903098413935
 20
4.204314507205638
 30
0.0
 10
0.0000000000000008
 20
4.204314507205637
 30
0.0
  0
SPLINE
  5
2684
330
267C
100
AcDbEntity
  8
0
100
AcDbSpline
210
0.0
220
0.0
230
1.0
 70
     8
 71
     3
 72
    20
 73
    16
 74
     0
 42
0.000000001
 43
0.0000000001
 40
0.5
 40
0.5
 40
0.5
 40
0.5
 40
0.5949348083341239
 40
0.5949348083341239
 40
0.5949348083341239
 40
0.6875784610628488
 40
0.6875784610628488
 40
0.6875784610628488
 40
0.7285101972935038
 40
0.7285101972935038
 40
0.7285101972935038
 40
0.8064536112417728
 40
0.8064536112417728
 40
0.8064536112417728
 40
0.8288493055994955
 40
0.8288493055994955
 40
0.8288493055994955
 40
0.8288493055994955
 10
0.0000000000000008
 20
4.204314507205637
 30
0.0
 10
-0.7230421572397022
 20
4.204314507205632
 30
0.0
 10
-1.44608362396965
 20
4.172838050164539
 30
0.0
 10
-2.166390407847058
 20
4.11000415607842
 30
0.0
 10
-2.869313315836929
 20
4.048686694491302
 30
0.0
 10
-3.569630760072086
 20
3.957508098596695
 30
0.0
 10
-4.264820811237005
 20
3.836796713741161
 30
0.0
 10
-4.571969061185435
 20
3.783464117071948
 30
0.0
 10
-4.878116778504605
 20
3.724369403854317
 30
0.0
 10
-5.183048568131733
 20
3.659554151107289
 30
0.0
 10
-5.763708635199536
 20
3.536131043752275
 30
0.0
 10
-6.34436870226734
 20
3.412707936397257
 30
0.0
 10
-6.925028769335144
 20
3.289284829042238
 30
0.0
 10
-7.091871414903839
 20
3.253821329960225
 30
0.0
 10
-7.258714060472534
 20
3.218357830878213
 30
0.0
 10
-7.425556706041231
 20
3.182894331796199
 30
0.0
  0
SPLINE
  5
2685
330
267C
100
AcDbEntity
  8
0
100
AcDbSpline
210
0.0
220
0.0
230
1.0
 70
     8
 71
     3
 72
    28
 73
    24
 74
     0
 42
0.000000001
 43
0.0000000001
 40
0.0
 40
0.0
 40
0.0
 40
0.0
 40
0.0549173456873334
 40
0.0549173456873334
 40
0.4547848511718097
 40
0.4547848511718097
 40
0.830719631360996
 40
0.830719631360996
 40
1.182945562764136
 40
1.182945562764136
 40
1.510658895191025
 40
1.510658895191025
 40
1.854978965837213
 40
1.854978965837213
 40
2.226618230196136
 40
2.226618230196136
 40
2.625500812344318
 40
2.625500812344318
 40
3.054619066172415
 40
3.054619066172415
 40
3.266691201191967
 40
3.266691201191967
 40
3.483534230621823
 40
3.483534230621823
 40
3.483534230621823
 40
3.483534230621823
 10
11.26894735259585
 20
-0.0000000000000069
 30
0.0
 10
11.25816965161716
 20
-0.0013399677926288
 30
0.0
 10
11.23849482887756
 20
-0.0026537441079797
 30
0.0
 10
11.0030310476206
 20
-0.0132399167845573
 30
0.0
 10
10.67221286591587
 20
-0.0085232704221767
 30
0.0
 10
9.604979179415312
 20
-0.0063725312335098
 30
0.0
 10
8.905039376435329
 20
-0.0047376848526228
 30
0.0
 10
7.282364521058982
 20
-0.0022148851777279
 30
0.0
 10
6.357678871470199
 20
-0.0012682963672873
 30
0.0
 10
4.405283454870864
 20
-0.0002625366357509
 30
0.0
 10
3.369819575327593
 20
-0.0000893600062322
 30
0.0
 10
1.188109314143318
 20
0.0000272463431166
 30
0.0
 10
0.0091211085951849
 20
0.0000061437424624
 30
0.0
 10
-2.362169731140645
 20
-0.000011011127734
 30
0.0
 10
-3.583645776955282
 20
-0.0000597804604336
 30
0.0
 10
-5.878887166034115
 20
-0.0008924836605334
 30
0.0
 10
-6.971056347386229
 20
-0.0018163799475094
 30
0.0
 10
-8.862335222451214
 20
-0.0045957062898826
 30
0.0
 10
-9.667196928869296
 20
-0.006540196250255
 30
0.0
 10
-10.5068509639124
 20
-0.00816290662722
 30
0.0
 10
-10.72046805584065
 20
-0.0086648815553338
 30
0.0
 10
-11.05628064017584
 20
-0.0083695722765891
 30
0.0
 10
-11.18421834837491
 20
-0.0055197585775706
 30
0.0
 10
-11.26894735259585
 20
0.0000000000000007
 30
0.0
  0
SPLINE
  5
2686
330
267C
100
AcDbEntity
  8
0
100
AcDbSpline
210
0.0
220
0.0
230
1.0
 70
     8
 71
     3
 72
    38
 73
    34
 74
     0
 42
0.000000001
 43
0.0000000001
 40
0.0
 40
0.0
 40
0.0
 40
0.0
 40
0.0126680776470424
 40
0.0126680776470424
 40
0.0249338271013327
 40
0.0249338271013327
 40
0.0416821186139966
 40
0.0416821186139966
 40
0.0667953565530872
 40
0.0667953565530872
 40
0.100268232462691
 40
0.100268232462691
 40
0.1058441931623945
 40
0.1058441931623945
 40
0.1114201538620979
 40
0.1114201538620979
 40
0.1114303628828724
 40
0.1114303628828724
 40
0.1114504173490276
 40
0.1114504173490276
 40
0.1114896961343026
 40
0.1114896961343026
 40
0.1115661938973652
 40
0.1115661938973652
 40
0.1121469216705951
 40
0.1121469216705951
 40
0.1133083807118819
 40
0.1133083807118819
 40
0.1184857669203092
 40
0.1184857669203092
 40
0.2244502708802196
 40
0.2244502708802196
 40
0.4107572360638219
 40
0.4107572360638219
 40
0.4107572360638219
 40
0.4107572360638219
 10
-11.26894735259585
 20
2.500000000000009
 30
0.0
 10
-11.22672059032326
 20
2.499990119844909
 30
0.0
 10
-11.18430873414545
 20
2.500454181472051
 30
0.0
 10
-11.10253536583982
 20
2.502277773851238
 30
0.0
 10
-11.06284262291828
 20
2.50362305039244
 30
0.0
 10
-10.97212737472683
 20
2.50773416656171
 30
0.0
 10
-10.92184550589672
 20
2.510851211190443
 30
0.0
 10
-10.80205945265312
 20
2.520052858857113
 30
0.0
 10
-10.73468123731922
 20
2.526848569676372
 30
0.0
 10
-10.58003975593344
 20
2.545592753744792
 30
0.0
 10
-10.49287401889196
 20
2.558597409136233
 30
0.0
 10
-10.38764656157046
 20
2.57717270620693
 30
0.0
 10
-10.36833342586478
 20
2.580674886874697
 30
0.0
 10
-10.33634414007709
 20
2.586644191350064
 30
0.0
 10
-10.3293053552406
 20
2.587979584698932
 30
0.0
 10
-10.31153939895805
 20
2.59143805038099
 30
0.0
 10
-10.31150693053373
 20
2.591444371009422
 30
0.0
 10
-10.3114106809739
 20
2.591463108091691
 30
0.0
 10
-10.31134689926954
 20
2.591475524829527
 30
0.0
 10
-10.31115819210721
 20
2.591512262189874
 30
0.0
 10
-10.31103326447345
 20
2.591536583898675
 30
0.0
 10
-10.31066502421449
 20
2.591608277899611
 30
0.0
 10
-10.31042170338383
 20
2.591655654288775
 30
0.0
 10
-10.30833113311099
 20
2.592062733058964
 30
0.0
 10
-10.30648325352697
 20
2.592422749748436
 30
0.0
 10
-10.30093775061682
 20
2.593503734193672
 30
0.0
 10
-10.29723825036871
 20
2.594225638730716
 30
0.0
 10
-10.27703501743675
 20
2.598171971026616
 30
0.0
 10
-10.2604863702041
 20
2.60141881571853
 30
0.0
 10
-9.904519191070367
 20
2.671508051490201
 30
0.0
 10
-9.557190683426648
 20
2.742784332657358
 30
0.0
 10
-8.61047340940237
 20
2.935520921650176
 30
0.0
 10
-8.010750620591336
 20
3.058507525409209
 30
0.0
 10
-7.425556706041232
 20
3.182894331796201
 30
0.0
  0
SPLINE
  5
2687
330
267C
100
AcDbEntity
  8
0
100
AcDbSpline
210
0.0
220
0.0
230
1.0
 70
     8
 71
     3
 72
    42
 73
    38
 74
     0
 42
0.000000001
 43
0.0000000001
 40
0.0
 40
0.0
 40
0.0
 40
0.0
 40
0.2128198953204735
 40
0.2128198953204735
 40
0.2681260405255506
 40
0.2681260405255506
 40
0.2888712022616686
 40
0.2888712022616686
 40
0.2966495615547542
 40
0.2966495615547542
 40
0.298107834761151
 40
0.298107834761151
 40
0.2987707292123096
 40
0.2987707292123096
 40
0.2991021760989728
 40
0.2991021760989728
 40
0.2991993791957374
 40
0.2991993791957374
 40
0.2992491440679699
 40
0.2992491440679699
 40
0.2992744576329592
 40
0.2992744576329592
 40
0.2992872903719425
 40
0.2992872903719425
 40
0.2992976480834597
 40
0.2992976480834597
 40
0.3120282513345355
 40
0.3120282513345355
 40
0.3502367076900557
 40
0.3502367076900557
 40
0.3783327225320714
 40
0.3783327225320714
 40
0.394092488216538
 40
0.394092488216538
 40
0.4023352211479029
 40
0.4023352211479029
 40
0.4106985236108687
 40
0.4106985236108687
 40
0.4106985236108687
 40
0.4106985236108687
 10
7.425556706041248
 20
3.182894331796227
 30
0.0
 10
8.094028265942396
 20
3.04080631544944
 30
0.0
 10
8.781987019890944
 20
2.90036410935793
 30
0.0
 10
9.651950455646627
 20
2.723625325599413
 30
0.0
 10
9.831763445726597
 20
2.687112846268276
 30
0.0
 10
10.07796784548445
 20
2.637637370059259
 30
0.0
 10
10.14503396613654
 20
2.624221277918455
 30
0.0
 10
10.2366174548871
 20
2.606111432321596
 30
0.0
 10
10.26153121811683
 20
2.601207453622782
 30
0.0
 10
10.2909938351115
 20
2.595445112759295
 30
0.0
 10
10.29564187609212
 20
2.594537149964066
 30
0.0
 10
10.30239720886902
 20
2.593219253377565
 30
0.0
 10
10.30450755928898
 20
2.592807788851607
 30
0.0
 10
10.30767185452785
 20
2.592191207042152
 30
0.0
 10
10.30872641514556
 20
2.591985782153599
 30
0.0
 10
10.31008997652095
 20
2.591720246937985
 30
0.0
 10
10.31039916755958
 20
2.59166004160059
 30
0.0
 10
10.31086662733693
 20
2.591569026628011
 30
0.0
 10
10.31102490933939
 20
2.59153821036984
 30
0.0
 10
10.31126369646769
 20
2.591491722568027
 30
0.0
 10
10.31134420509361
 20
2.591476049276868
 30
0.0
 10
10.31146552581097
 20
2.591452431314065
 30
0.0
 10
10.31150633881118
 20
2.591444486188724
 30
0.0
 10
10.31158009271272
 20
2.591430128583932
 30
0.0
 10
10.3116130337237
 20
2.591423716049751
 30
0.0
 10
10.3521333284267
 20
2.583535820765136
 30
0.0
 10
10.38124821118364
 20
2.578230396358352
 30
0.0
 10
10.51815150483745
 20
2.554416713194576
 30
0.0
 10
10.61674394051718
 20
2.540311681301416
 30
0.0
 10
10.79364821593028
 20
2.520785152875189
 30
0.0
 10
10.87155869834699
 20
2.513960940079499
 30
0.0
 10
11.00343715535601
 20
2.506127100447704
 30
0.0
 10
11.05325068222002
 20
2.503887592848603
 30
0.0
 10
11.13102024074482
 20
2.501587422198633
 30
0.0
 10
11.15816502314044
 20
2.500991689923095
 30
0.0
 10
11.21314080156172
 20
2.500195792769459
 30
0.0
 10
11.241069711443
 20
2.499996218656563
 30
0.0
 10
11.26894735259585
 20
2.500000000000008
 30
0.0
  0
SPLINE
  5
2688
330
267C
100
AcDbEntity
  8
0
100
AcDbSpline
210
0.0
220
0.0
230
1.0
 70
     8
 71
     3
 72
    12
 73
     8
 74
     0
 42
0.000000001
 43
0.0000000001
 40
0.0
 40
0.0
 40
0.0
 40
0.0
 40
0.2383297850252353
 40
0.2383297850252353
 40
0.3947543338849353
 40
0.3947543338849353
 40
0.5503337433002429
 40
0.5503337433002429
 40
0.5503337433002429
 40
0.5503337433002429
 10
11.58689241820464
 20
17.29815676743864
 30
0.0
 10
10.79245980145386
 20
17.29815676743864
 30
0.0
 10
10.00491063563677
 20
17.32124398653936
 30
0.0
 10
8.785267129918461
 20
17.39523991828573
 30
0.0
 10
8.328566704225792
 20
17.4335851111033
 30
0.0
 10
7.492761533562152
 20
17.52621273755143
 30
0.0
 10
7.116396366227898
 20
17.58005934763153
 30
0.0
 10
6.789567423897993
 20
17.64029874920653
 30
0.0
  0
SPLINE
  5
2689
330
267C
100
AcDbEntity
  8
0
100
AcDbSpline
210
0.0
220
0.0
230
1.0
 70
     8
 71
     3
 72
    12
 73
     8
 74
     0
 42
0.000000001
 43
0.0000000001
 40
0.0
 40
0.0
 40
0.0
 40
0.0
 40
0.2420318189909772
 40
0.2420318189909772
 40
0.3958209345276102
 40
0.3958209345276102
 40
0.550491411758263
 40
0.550491411758263
 40
0.550491411758263
 40
0.550491411758263
 10
-6.789567423897999
 20
17.64029874920656
 30
0.0
 10
-7.297869111000744
 20
17.54661124028417
 30
0.0
 10
-7.9243248910237
 20
17.46869331829116
 30
0.0
 10
-9.082797661154843
 20
17.37425496621864
 30
0.0
 10
-9.561747084055555
 20
17.34605145619489
 30
0.0
 10
-10.5577326429712
 20
17.30788055915149
 30
0.0
 10
-11.0713805260315
 20
17.29815676743864
 30
0.0
 10
-11.58689241820465
 20
17.29815676743864
 30
0.0
  0
LINE
  5
268A
330
267C
100
AcDbEntity
  8
0
100
AcDbLine
 10
-6.789567423897889
 20
17.64029874920716
 30
0.0
 11
-4.659360423669006
 21
18.03292736407116
 31
0.0
  0
LINE
  5
268B
330
267C
100
AcDbEntity
  8
0
100
AcDbLine
 10
4.659360423668989
 20
18.03292736407116
 30
0.0
 11
6.789567423897882
 21
17.64029874920716
 31
0.0
  0
CIRCLE
  5
268C
330
267C
100
AcDbEntity
  8
0
100
AcDbCircle
 10
20.326148598726
 20
15.0
 30
0.0
 40
2.5
  0
CIRCLE
  5
268D
330
267C
100
AcDbEntity
  8
0
100
AcDbCircle
 10
15.8696114490445
 20
32.5
 30
0.0
 40
2.5
  0
CIRCLE
  5
268E
330
267C
100
AcDbEntity
  8
0
100
AcDbCircle
 10
21.413074299363
 20
50.0
 30
0.0
 40
2.5
  0
CIRCLE
  5
268F
330
267C
100
AcDbEntity
  8
0
100
AcDbCircle
 10
19.90683493994539
 20
82.0
 30
0.0
 40
2.5
  0
CIRCLE
  5
2690
330
267C
100
AcDbEntity
  8
0
100
AcDbCircle
 10
11.95653714968149
 20
67.5
 30
0.0
 40
2.5
  0
LINE
  5
2691
330
267C
100
AcDbEntity
  8
0
100
AcDbLine
 10
30.06218092857982
 20
6.500000000271398
 30
0.0
 11
32.49999999999999
 21
85.0
 31
0.0
  0
LINE
  5
2692
330
267C
100
AcDbEntity
  8
0
100
AcDbLine
 10
-32.50000000000002
 20
85.0
 30
0.0
 11
-30.06218092857982
 21
6.500000000271395
 31
0.0
  0
SPLINE
  5
2693
330
267C
100
AcDbEntity
  8
0
100
AcDbSpline
210
0.0
220
0.0
230
1.0
 70
     8
 71
     3
 72
     8
 73
     4
 74
     0
 42
0.000000001
 43
0.0000000001
 40
-1.0
 40
-1.0
 40
-1.0
 40
-1.0
 40
0.0
 40
0.0
 40
0.0
 40
0.0
 10
-30.06218092857981
 20
6.500000000271553
 30
0.0
 10
-29.9792796827634
 20
4.406277796376772
 30
0.0
 10
-29.97927968276502
 20
2.499999999589436
 30
0.0
 10
-30.06218092858132
 20
2.500000000000004
 30
0.0
  0
SPLINE
  5
2694
330
267C
100
AcDbEntity
  8
0
100
AcDbSpline
210
0.0
220
0.0
230
1.0
 70
     8
 71
     3
 72
     8
 73
     4
 74
     0
 42
0.000000001
 43
0.0000000001
 40
-1.0
 40
-1.0
 40
-1.0
 40
-1.0
 40
0.0
 40
0.0
 40
0.0
 40
0.0
 10
30.06218092858134
 20
2.500000000000004
 30
0.0
 10
29.97927968276361
 20
2.499999999589191
 30
0.0
 10
29.97927968276345
 20
4.406277796372127
 30
0.0
 10
30.06218092857983
 20
6.50000000027139
 30
0.0
  0
LINE
  5
2695
330
267C
100
AcDbEntity
  8
0
100
AcDbLine
 10
32.50000000000001
 20
0.0
 30
0.0
 11
32.50000000000001
 21
2.499999999999999
 31
0.0
  0
LINE
  5
2696
330
267C
100
AcDbEntity
  8
0
100
AcDbLine
 10
-32.5
 20
2.499999999999999
 30
0.0
 11
-32.5
 21
0.0
 31
0.0
  0
LINE
  5
2697
330
267C
100
AcDbEntity
  8
0
100
AcDbLine
 10
27.49999999999999
 20
90.0
 30
0.0
 11
32.49999999999999
 21
85.0
 31
0.0
  0
LINE
  5
2698
330
267C
100
AcDbEntity
  8
0
100
AcDbLine
 10
-32.50000000000002
 20
85.0
 30
0.0
 11
-27.50000000000002
 21
90.0
 31
0.0
  0
LINE
  5
2699
330
267C
100
AcDbEntity
  8
0
100
AcDbLine
 10
-27.5
 20
2.499999999999999
 30
0.0
 11
-32.5
 21
2.499999999999999
 31
0.0
  0
LINE
  5
269A
330
267C
100
AcDbEntity
  8
0
100
AcDbLine
 10
32.50000000000001
 20
2.499999999999999
 30
0.0
 11
27.5
 21
2.499999999999999
 31
0.0
  0
LINE
  5
269B
330
267C
100
AcDbEntity
  8
0
100
AcDbLine
 10
27.5
 20
0.0
 30
0.0
 11
32.50000000000001
 21
0.0
 31
0.0
  0
LINE
  5
269C
330
267C
100
AcDbEntity
  8
0
100
AcDbLine
 10
-32.5
 20
0.0
 30
0.0
 11
-27.5
 21
0.0
 31
0.0
  0
LINE
  5
269D
330
267C
100
AcDbEntity
  8
0
100
AcDbLine
 10
-27.5
 20
0.0
 30
0.0
 11
-27.5
 21
2.499999999999999
 31
0.0
  0
LINE
  5
269E
330
267C
100
AcDbEntity
  8
0
100
AcDbLine
 10
27.5
 20
2.499999999999999
 30
0.0
 11
27.5
 21
0.0
 31
0.0
  0
LINE
  5
269F
330
267C
100
AcDbEntity
  8
0
100
AcDbLine
 10
-27.50000000000002
 20
90.0
 30
0.0
 11
27.49999999999999
 21
90.0
 31
0.0
  0
LINE
  5
26A0
330
267C
100
AcDbEntity
  8
0
100
AcDbLine
 10
-27.5
 20
2.499999999999999
 30
0.0
 11
27.5
 21
2.499999999999999
 31
0.0
  0
LINE
  5
26A1
330
267C
100
AcDbEntity
  8
0
100
AcDbLine
 10
-27.5
 20
0.0
 30
0.0
 11
27.5
 21
0.0
 31
0.0
  0
CIRCLE
  5
26A2
330
267C
100
AcDbEntity
  8
0
100
AcDbCircle
 10
-15.86961144904452
 20
32.5
 30
0.0
 40
2.5
  0
CIRCLE
  5
26A3
330
267C
100
AcDbEntity
  8
0
100
AcDbCircle
 10
-11.95653714968151
 20
67.5
 30
0.0
 40
2.5
  0
CIRCLE
  5
26A4
330
267C
100
AcDbEntity
  8
0
100
AcDbCircle
 10
-19.90683493994541
 20
82.0
 30
0.0
 40
2.5
  0
CIRCLE
  5
26A5
330
267C
100
AcDbEntity
  8
0
100
AcDbCircle
 10
-21.41307429936302
 20
50.0
 30
0.0
 40
2.5
  0
CIRCLE
  5
26A6
330
267C
100
AcDbEntity
  8
0
100
AcDbCircle
 10
-20.32614859872603
 20
15.0
 30
0.0
 40
2.5
  0
CIRCLE
  5
26A7
330
267C
100
AcDbEntity
  8
0
100
AcDbCircle
 10
-0.0000000000000116
 20
77.5
 30
0.0
 40
5.5
  0
SPLINE
  5
26A8
330
267C
100
AcDbEntity
  8
0
100
AcDbSpline
210
0.0
220
0.0
230
1.0
 70
     8
 71
     3
 72
    12
 73
     8
 74
     0
 42
0.000000001
 43
0.0000000001
 40
0.0
 40
0.0
 40
0.0
 40
0.0
 40
0.2420318189908998
 40
0.2420318189908998
 40
0.3958209345304661
 40
0.3958209345304661
 40
0.5504914117582526
 40
0.5504914117582526
 40
0.5504914117582526
 40
0.5504914117582526
 10
6.78956742389798
 20
4.762246764522966
 30
0.0
 10
7.297869111000563
 20
4.142783865405272
 30
0.0
 10
7.924324891023283
 20
3.627589658556781
 30
0.0
 10
9.082797661162695
 20
3.003162175788972
 30
0.0
 10
9.561747084073052
 20
2.816680239343733
 30
0.0
 10
10.55773264299013
 20
2.56429382395082
 30
0.0
 10
11.071380526041
 20
2.500000000000003
 30
0.0
 10
11.58689241820463
 20
2.500000000000003
 30
0.0
  0
LINE
  5
26A9
330
267C
100
AcDbEntity
  8
0
100
AcDbLine
 10
4.65936042366899
 20
7.35831173453032
 30
0.0
 11
6.789567423897869
 21
4.762246764523011
 31
0.0
  0
LINE
  5
26AA
330
267C
100
AcDbEntity
  8
0
100
AcDbLine
 10
-6.789567423897872
 20
4.76224676452301
 30
0.0
 11
-4.659360423669002
 21
7.358311734530316
 31
0.0
  0
SPLINE
  5
26AB
330
267C
100
AcDbEntity
  8
0
100
AcDbSpline
210
0.0
220
0.0
230
1.0
 70
     8
 71
     3
 72
    12
 73
     8
 74
     0
 42
0.000000001
 43
0.0000000001
 40
0.0
 40
0.0
 40
0.0
 40
0.0
 40
0.2383297850332514
 40
0.2383297850332514
 40
0.3947543338883195
 40
0.3947543338883195
 40
0.5503337433003166
 40
0.5503337433003166
 40
0.5503337433003166
 40
0.5503337433003166
 10
-11.58689241820463
 20
2.500000000000003
 30
0.0
 10
-10.79245980142713
 20
2.500000000000003
 30
0.0
 10
-10.00491063558402
 20
2.652652953944014
 30
0.0
 10
-8.785267129861942
 20
3.14191491566759
 30
0.0
 10
-8.328566704185353
 20
3.395453784137018
 30
0.0
 10
-7.492761533546206
 20
4.007908727991376
 30
0.0
 10
-7.116396366220957
 20
4.363943140387834
 30
0.0
 10
-6.789567423897983
 20
4.762246764522963
 30
0.0
  0
ENDBLK
  5
267E
330
267C
100
AcDbEntity
  8
0
100
AcDbBlockEnd
  0
BLOCK
  5
26AD
330
26AC
100
AcDbEntity
  8
0
100
AcDbBlockBegin
  2
ABR90-Left
 70
     0
 10
0.0
 20
0.0
 30
0.0
  3
ABR90-Left
  1

  0
LINE
  5
26AF
330
26AC
100
AcDbEntity
  8
0
100
AcDbLine
 10
4.204314507205626
 20
53.73105264740416
 30
0.0
 11
2.500000000000005
 21
53.73105264740414
 31
0.0
  0
LINE
  5
26B0
330
26AC
100
AcDbEntity
  8
0
100
AcDbLine
 10
53.73105264740416
 20
4.204314507205637
 30
0.0
 11
53.73105264740414
 21
2.500000000000014
 31
0.0
  0
SPLINE
  5
26B1
330
26AC
100
AcDbEntity
  8
0
100
AcDbSpline
210
0.0
220
0.0
230
1.0
 70
     8
 71
     3
 72
    26
 73
    22
 74
     0
 42
0.000000001
 43
0.0000000001
 40
1.738275495264218
 40
1.738275495264218
 40
1.738275495264218
 40
1.738275495264218
 40
1.7382770857384
 40
1.7382770857384
 40
1.738291734175901
 40
1.738291734175901
 40
1.738340562300903
 40
1.738340562300903
 40
1.738535874801143
 40
1.738535874801143
 40
1.739317124816536
 40
1.739317124816536
 40
1.740879624939302
 40
1.740879624939302
 40
1.744004625915629
 40
1.744004625915629
 40
1.755569148678723
 40
1.755569148678723
 40
1.87897074166372
 40
1.87897074166372
 40
2.879063556043222
 40
2.879063556043222
 40
2.879063556043222
 40
2.879063556043222
 10
2.5
 20
64.99998408436027
 30
0.0
 10
2.500000000008754
 20
64.9999787831253
 30
0.0
 10
2.500000000017509
 20
64.99997348171752
 30
0.0
 10
2.500000000106898
 20
64.99991935201191
 30
0.0
 10
2.500000000373132
 20
64.99987052388691
 30
0.0
 10
2.500000002331079
 20
64.99965893534525
 30
0.0
 10
2.500000005899396
 20
64.99949617492858
 30
0.0
 10
2.500000034051427
 20
64.99868237284494
 30
0.0
 10
2.500000089566484
 20
64.99803133117817
 30
0.0
 10
2.500000532072412
 20
64.9947761228228
 30
0.0
 10
2.500001413855287
 20
64.99217195614725
 30
0.0
 10
2.500005641134801
 20
64.98435945683039
 30
0.0
 10
2.500010568563504
 20
64.97915112456599
 30
0.0
 10
2.500031667328261
 20
64.96352613514742
 30
0.0
 10
2.500054155162283
 20
64.95310948271506
 30
0.0
 10
2.500199309714368
 20
64.90414461873588
 30
0.0
 10
2.50042851266111
 20
64.86559655285457
 30
0.0
 10
2.504426735504336
 20
64.41572726715536
 30
0.0
 10
2.521022246081128
 20
64.00437648410806
 30
0.0
 10
2.771341029260075
 20
60.26777028627707
 30
0.0
 10
3.705803815036878
 20
57.0272111445623
 30
0.0
 10
4.204314507205623
 20
53.73105264740413
 30
0.0
  0
SPLINE
  5
26B2
330
26AC
100
AcDbEntity
  8
0
100
AcDbSpline
210
0.0
220
0.0
230
1.0
 70
     8
 71
     3
 72
    20
 73
    16
 74
     0
 42
0.000000001
 43
0.0000000001
 40
0.0
 40
0.0
 40
0.0
 40
0.0
 40
0.1073539542952997
 40
0.1073539542952997
 40
0.3926924550713331
 40
0.3926924550713331
 40
0.4872631915434063
 40
0.4872631915434063
 40
0.8844395973917539
 40
0.8844395973917539
 40
1.279849398424025
 40
1.279849398424025
 40
1.648001168509806
 40
1.648001168509806
 40
1.743184403346016
 40
1.743184403346016
 40
1.743184403346016
 40
1.743184403346016
 10
-0.0000000000000079
 20
53.73105264740416
 30
0.0
 10
-0.0035489006011982
 20
54.08379812555207
 30
0.0
 10
-0.0058745351570187
 20
54.43671195808781
 30
0.0
 10
-0.0099064498109714
 20
55.72818885143941
 30
0.0
 10
-0.0085002775637265
 20
56.66435484422482
 30
0.0
 10
-0.0076807480309361
 20
57.8447015610568
 30
0.0
 10
-0.0074287759163999
 20
58.1342738599881
 30
0.0
 10
-0.0059430769706817
 20
59.61143929032873
 30
0.0
 10
-0.0041903844936436
 20
60.72597879497358
 30
0.0
 10
-0.0016167566990898
 20
62.60999562163377
 30
0.0
 10
-0.0007760053486982
 20
63.40493613035868
 30
0.0
 10
-0.0000349353136594
 20
64.49671189404432
 30
0.0
 10
-0.0000063584160119
 20
64.83997019748063
 30
0.0
 10
0.0000003138226633
 20
64.9849395676517
 30
0.0
 10
0.0000001805354067
 20
64.9849491874797
 30
0.0
 10
0.0000000009369858
 20
64.9998445770494
 30
0.0
  0
LINE
  5
26B3
330
26AC
100
AcDbEntity
  8
0
100
AcDbLine
 10
0.0
 20
64.99984457704937
 30
0.0
 11
0.0
 21
64.99999999999997
 31
0.0
  0
SPLINE
  5
26B4
330
26AC
100
AcDbEntity
  8
0
100
AcDbSpline
210
0.0
220
0.0
230
1.0
 70
     8
 71
     3
 72
    20
 73
    16
 74
     0
 42
0.000000001
 43
0.0000000001
 40
0.0
 40
0.0
 40
0.0
 40
0.0
 40
0.0903248864422509
 40
0.0903248864422509
 40
0.4580971017537733
 40
0.4580971017537733
 40
0.8549666091711516
 40
0.8549666091711516
 40
1.156897327913627
 40
1.156897327913627
 40
1.256873564567538
 40
1.256873564567538
 40
1.653916860059132
 40
1.653916860059132
 40
1.743137324804348
 40
1.743137324804348
 40
1.743137324804348
 40
1.743137324804348
 10
64.99997890966503
 20
0.0000000000172575
 30
0.0
 10
64.98652217036227
 20
0.0000000220345103
 30
0.0
 10
64.98644135452877
 20
0.0000002575064455
 30
0.0
 10
64.85035521555814
 20
-0.0000054183569538
 30
0.0
 10
64.51325717358956
 20
-0.000029410816456
 30
0.0
 10
63.43095661160628
 20
-0.0007524351594355
 30
0.0
 10
62.63728658209027
 20
-0.0015824627284207
 30
0.0
 10
60.98139289515969
 20
-0.0038392819988597
 30
0.0
 10
60.16935787467748
 20
-0.005065133910501
 30
0.0
 10
59.01334672555088
 20
-0.0065013035036487
 30
0.0
 10
58.71867596128566
 20
-0.0068409977515752
 30
0.0
 10
57.22567273278692
 20
-0.0083426259896687
 30
0.0
 10
55.91765359225927
 20
-0.0115123013928034
 30
0.0
 10
54.31710928401393
 20
-0.0051847909947249
 30
0.0
 10
54.02384135220676
 20
-0.0030693489730196
 30
0.0
 10
53.73105264740416
 20
0.0000000000000007
 30
0.0
  0
SPLINE
  5
26B5
330
26AC
100
AcDbEntity
  8
0
100
AcDbSpline
210
0.0
220
0.0
230
1.0
 70
     8
 71
     3
 72
    34
 73
    30
 74
     0
 42
0.000000001
 43
0.0000000001
 40
0.0
 40
0.0
 40
0.0
 40
0.0
 40
0.0000921508869663
 40
0.0000921508869663
 40
0.000164692434395
 40
0.000164692434395
 40
0.0003823170783755
 40
0.0003823170783755
 40
0.0010351910524187
 40
0.0010351910524187
 40
0.0029938137071642
 40
0.0029938137071642
 40
0.0088697031095346
 40
0.0088697031095346
 40
0.0264979471032614
 40
0.0264979471032614
 40
0.0793980804081994
 40
0.0793980804081994
 40
0.2385038551512649
 40
0.2385038551512649
 40
0.5790102990516713
 40
0.5790102990516713
 40
0.9318264803372018
 40
0.9318264803372018
 40
1.307106881685525
 40
1.307106881685525
 40
1.703757203129627
 40
1.703757203129627
 40
1.743780287434729
 40
1.743780287434729
 40
1.743780287434729
 40
1.743780287434729
 10
64.99999999999997
 20
0.000000000000004
 30
0.0
 10
64.99994475939576
 20
0.000000000000004
 30
0.0
 10
65.00000161800947
 20
0.0000000000000047
 30
0.0
 10
65.00000156495878
 20
0.0000000000000047
 30
0.0
 10
65.00000151732939
 20
0.0000000000000061
 30
0.0
 10
65.00000135028368
 20
0.0000000000000061
 30
0.0
 10
65.00000108606325
 20
0.0000000000000144
 30
0.0
 10
64.99999992274808
 20
0.0000000000000131
 30
0.0
 10
64.99999798442042
 20
0.0000000000000416
 30
0.0
 10
64.9999885353915
 20
-0.0000000000000322
 30
0.0
 10
64.99997486193379
 20
-0.000000000000143
 30
0.0
 10
64.99989709322257
 20
-0.0000000000041357
 30
0.0
 10
64.99978154078938
 20
-0.0000000000104174
 30
0.0
 10
64.99909062774489
 20
-0.0000000003193786
 30
0.0
 10
64.99805779461542
 20
-0.0000000008184626
 30
0.0
 10
64.99187320029093
 20
-0.0000000249384859
 30
0.0
 10
64.9826097378293
 20
-0.0000000684732808
 30
0.0
 10
64.92719357730206
 20
-0.0000018792569945
 30
0.0
 10
64.84393557604514
 20
-0.0000061062948498
 30
0.0
 10
64.46021624101489
 20
-0.0000980786420269
 30
0.0
 10
64.01292645756203
 20
-0.0002915244432428
 30
0.0
 10
62.80996655146676
 20
-0.001389563884274
 30
0.0
 10
62.02794451829665
 20
-0.0023884510529601
 30
0.0
 10
60.1976046711018
 20
-0.0049628405779038
 30
0.0
 10
59.11288414670615
 20
-0.0065886303876456
 30
0.0
 10
56.75049335412447
 20
-0.0085971266303566
 30
0.0
 10
55.42984756992225
 20
-0.0131414913044307
 30
0.0
 10
53.99312989186889
 20
-0.002750469085946
 30
0.0
 10
53.86182972592975
 20
-0.0015157408432195
 30
0.0
 10
53.73105264740416
 20
-0.0000000000000069
 30
0.0
  0
SPLINE
  5
26B6
330
26AC
100
AcDbEntity
  8
0
100
AcDbSpline
210
0.0
220
0.0
230
1.0
 70
     8
 71
     3
 72
    24
 73
    20
 74
     0
 42
0.000000001
 43
0.0000000001
 40
0.0
 40
0.0
 40
0.0
 40
0.0
 40
0.6075030421588462
 40
0.6075030421588462
 40
1.01385246618718
 40
1.01385246618718
 40
1.082113863443937
 40
1.082113863443937
 40
1.13330793502476
 40
1.13330793502476
 40
1.138107014493391
 40
1.138107014493391
 40
1.140004246485933
 40
1.140004246485933
 40
1.140952862399942
 40
1.140952862399942
 40
1.141071439385801
 40
1.141071439385801
 40
1.141107012481546
 40
1.141107012481546
 40
1.141107012481546
 40
1.141107012481546
 10
53.73105264740413
 20
4.204314507205635
 30
0.0
 10
55.73329312515789
 20
3.90149585109008
 30
0.0
 10
57.7082157796876
 20
3.43935975120609
 30
0.0
 10
61.03166870698503
 20
2.826386298842267
 30
0.0
 10
62.37616225696331
 20
2.622561882460151
 30
0.0
 10
63.95525095314195
 20
2.526037173764898
 30
0.0
 10
64.18260390437575
 20
2.515556473522567
 30
0.0
 10
64.58061469339059
 20
2.50378263259927
 30
0.0
 10
64.75126417092477
 20
2.500846289364735
 30
0.0
 10
64.93790648854646
 20
2.500093228955412
 30
0.0
 10
64.95390338188143
 20
2.500048429313981
 30
0.0
 10
64.97622439294424
 20
2.500013620770811
 30
0.0
 10
64.98254849749942
 20
2.500006861443508
 30
0.0
 10
64.99203465560812
 20
2.500001386729234
 30
0.0
 10
64.99519670867262
 20
2.500000339203299
 30
0.0
 10
64.99875401832595
 20
2.500000036229969
 30
0.0
 10
64.99914927494528
 20
2.500000014725895
 30
0.0
 10
64.99966310855048
 20
2.500000002580237
 30
0.0
 10
64.99978168553629
 20
2.500000000871906
 30
0.0
 10
64.9999002625221
 20
2.500000000258133
 30
0.0
  0
LINE
  5
26B7
330
26AC
100
AcDbEntity
  8
0
100
AcDbLine
 10
4.762246764522963
 20
17.64029874920656
 30
0.0
 11
2.500000000000002
 21
17.29815676743864
 31
0.0
  0
LINE
  5
26B8
330
26AC
100
AcDbEntity
  8
0
100
AcDbLine
 10
4.762246764523008
 20
17.64029874920716
 30
0.0
 11
7.358311734530328
 21
18.03292736407116
 31
0.0
  0
LINE
  5
26B9
330
26AC
100
AcDbEntity
  8
0
100
AcDbLine
 10
4.204314507205624
 20
53.73105264740416
 30
0.0
 11
9.553093169413685
 21
18.36486589591246
 31
0.0
  0
LINE
  5
26BA
330
26AC
100
AcDbEntity
  8
0
100
AcDbLine
 10
2.500000000000007
 20
85.0
 30
0.0
 11
2.500000000000006
 21
90.0
 31
0.0
  0
LINE
  5
26BB
330
26AC
100
AcDbEntity
  8
0
100
AcDbLine
 10
90.0
 20
2.499999999999999
 30
0.0
 11
85.00000000000001
 21
2.499999999999999
 31
0.0
  0
LINE
  5
26BC
330
26AC
100
AcDbEntity
  8
0
100
AcDbLine
 10
0.0
 20
90.0
 30
0.0
 11
0.0
 21
85.0
 31
0.0
  0
LINE
  5
26BD
330
26AC
100
AcDbEntity
  8
0
100
AcDbLine
 10
85.0
 20
0.0
 30
0.0
 11
90.0
 21
0.0
 31
0.0
  0
LINE
  5
26BE
330
26AC
100
AcDbEntity
  8
0
100
AcDbLine
 10
90.0
 20
0.0
 30
0.0
 11
90.0
 21
2.499999999999999
 31
0.0
  0
LINE
  5
26BF
330
26AC
100
AcDbEntity
  8
0
100
AcDbLine
 10
2.500000000000006
 20
90.0
 30
0.0
 11
0.0
 21
90.0
 31
0.0
  0
LINE
  5
26C0
330
26AC
100
AcDbEntity
  8
0
100
AcDbLine
 10
2.500000000000007
 20
85.0
 30
0.0
 11
2.500000000000006
 21
6.500000000271395
 31
0.0
  0
LINE
  5
26C1
330
26AC
100
AcDbEntity
  8
0
100
AcDbLine
 10
6.500000001000093
 20
2.500000000000004
 30
0.0
 11
85.00000000000001
 21
2.499999999999999
 31
0.0
  0
LINE
  5
26C2
330
26AC
100
AcDbEntity
  8
0
100
AcDbLine
 10
0.0
 20
6.500000000441011
 30
0.0
 11
0.0
 21
85.0
 31
0.0
  0
SPLINE
  5
26C3
330
26AC
100
AcDbEntity
  8
0
100
AcDbSpline
210
0.0
220
0.0
230
1.0
 70
     8
 71
     3
 72
     8
 73
     4
 74
     0
 42
0.000000001
 43
0.0000000001
 40
0.0
 40
0.0
 40
0.0
 40
0.0
 40
1.0
 40
1.0
 40
1.0
 40
1.0
 10
6.50000000127462
 20
0.0000000000000044
 30
0.0
 10
3.097701419945526
 20
-0.0000000006671677
 30
0.0
 10
-0.0000000002309663
 20
3.097701419112252
 30
0.0
 10
0.0000000000000065
 20
6.50000000044127
 30
0.0
  0
LINE
  5
26C4
330
26AC
100
AcDbEntity
  8
0
100
AcDbLine
 10
85.0
 20
0.0
 30
0.0
 11
6.500000001000092
 21
0.0
 31
0.0
  0
SPLINE
  5
26C5
330
26AC
100
AcDbEntity
  8
0
100
AcDbSpline
210
0.0
220
0.0
230
1.0
 70
     8
 71
     3
 72
     8
 73
     4
 74
     0
 42
0.000000001
 43
0.0000000001
 40
-1.0
 40
-1.0
 40
-1.0
 40
-1.0
 40
0.0
 40
0.0
 40
0.0
 40
0.0
 10
2.500000000000006
 20
6.500000000271553
 30
0.0
 10
2.499999999857869
 20
4.406277796376772
 30
0.0
 10
4.406277796889557
 20
2.499999999589436
 30
0.0
 10
6.500000000784384
 20
2.500000000000004
 30
0.0
  0
LINE
  5
26C6
330
26AC
100
AcDbEntity
  8
0
100
AcDbLine
 10
0.0
 20
85.0
 30
0.0
 11
2.500000000000007
 21
85.0
 31
0.0
  0
LINE
  5
26C7
330
26AC
100
AcDbEntity
  8
0
100
AcDbLine
 10
85.00000000000001
 20
2.499999999999999
 30
0.0
 11
85.0
 21
0.0
 31
0.0
  0
LINE
  5
26C8
330
26AC
100
AcDbEntity
  8
0
100
AcDbLine
 10
17.6402987492072
 20
4.76224676452301
 30
0.0
 11
18.03292736407119
 21
7.358311734530316
 31
0.0
  0
LINE
  5
26C9
330
26AC
100
AcDbEntity
  8
0
100
AcDbLine
 10
17.29815676743867
 20
2.500000000000003
 30
0.0
 11
17.64029874920659
 21
4.762246764522963
 31
0.0
  0
LINE
  5
26CA
330
26AC
100
AcDbEntity
  8
0
100
AcDbLine
 10
18.36486589591245
 20
9.553093169413685
 30
0.0
 11
53.73105264740416
 21
4.204314507205638
 31
0.0
  0
ARC
  5
26CB
330
26AC
100
AcDbEntity
  8
0
100
AcDbCircle
 10
19.93502884254441
 20
19.9350288425444
 30
0.0
 40
10.5
100
AcDbArc
 50
188.6002309089422
 51
261.3997690910577
  0
ENDBLK
  5
26AE
330
26AC
100
AcDbEntity
  8
0
100
AcDbBlockEnd
  0
BLOCK
  5
26CD
330
26CC
100
AcDbEntity
  8
0
100
AcDbBlockBegin
  2
ABR90-Right
 70
     0
 10
0.0
 20
0.0
 30
0.0
  3
ABR90-Right
  1

  0
LINE
  5
26CF
330
26CC
100
AcDbEntity
  8
0
100
AcDbLine
 10
-2.499999999999999
 20
53.73105264740414
 30
0.0
 11
-4.204314507205626
 21
53.73105264740416
 31
0.0
  0
LINE
  5
26D0
330
26CC
100
AcDbEntity
  8
0
100
AcDbLine
 10
-53.73105264740414
 20
2.500000000000013
 30
0.0
 11
-53.73105264740416
 21
4.204314507205636
 31
0.0
  0
SPLINE
  5
26D1
330
26CC
100
AcDbEntity
  8
0
100
AcDbSpline
210
0.0
220
0.0
230
1.0
 70
     8
 71
     3
 72
    24
 73
    20
 74
     0
 42
0.000000001
 43
0.0000000001
 40
0.0
 40
0.0
 40
0.0
 40
0.0
 40
0.6075030421587189
 40
0.6075030421587189
 40
1.013852466187147
 40
1.013852466187147
 40
1.08211386344392
 40
1.08211386344392
 40
1.133307935024754
 40
1.133307935024754
 40
1.138107014493384
 40
1.138107014493384
 40
1.140004246485925
 40
1.140004246485925
 40
1.140952862399932
 40
1.140952862399932
 40
1.141071439385793
 40
1.141071439385793
 40
1.141107012481535
 40
1.141107012481535
 40
1.141107012481535
 40
1.141107012481535
 10
-4.204314507205623
 20
53.73105264740413
 30
0.0
 10
-3.901495851090132
 20
55.73329312515747
 30
0.0
 10
-3.439359751206275
 20
57.70821577968677
 30
0.0
 10
-2.826386298842404
 20
61.03166870698409
 30
0.0
 10
-2.622561882460194
 20
62.37616225696267
 30
0.0
 10
-2.526037173764896
 20
63.95525095314169
 30
0.0
 10
-2.515556473522562
 20
64.18260390437554
 30
0.0
 10
-2.503782632599258
 20
64.58061469339044
 30
0.0
 10
-2.500846289364722
 20
64.75126417092461
 30
0.0
 10
-2.500093228955399
 20
64.9379064885464
 30
0.0
 10
-2.500048429313966
 20
64.95390338188139
 30
0.0
 10
-2.500013620770796
 20
64.97622439294417
 30
0.0
 10
-2.500006861443492
 20
64.98254849749935
 30
0.0
 10
-2.500001386729219
 20
64.99203465560805
 30
0.0
 10
-2.500000339203286
 20
64.99519670867257
 30
0.0
 10
-2.500000036229956
 20
64.99875401832586
 30
0.0
 10
-2.50000001472588
 20
64.99914927494518
 30
0.0
 10
-2.500000002580222
 20
64.9996631085504
 30
0.0
 10
-2.500000000871891
 20
64.99978168553621
 30
0.0
 10
-2.500000000258118
 20
64.999900262522
 30
0.0
  0
SPLINE
  5
26D2
330
26CC
100
AcDbEntity
  8
0
100
AcDbSpline
210
0.0
220
0.0
230
1.0
 70
     8
 71
     3
 72
    20
 73
    16
 74
     0
 42
0.000000001
 43
0.0000000001
 40
0.0
 40
0.0
 40
0.0
 40
0.0
 40
0.0903248864422601
 40
0.0903248864422601
 40
0.4580971017537835
 40
0.4580971017537835
 40
0.854966609171165
 40
0.854966609171165
 40
1.156897327913633
 40
1.156897327913633
 40
1.256873564567539
 40
1.256873564567539
 40
1.653916860059136
 40
1.653916860059136
 40
1.74313732480435
 40
1.74313732480435
 40
1.74313732480435
 40
1.74313732480435
 10
-0.0000000000172439
 20
64.99997890966504
 30
0.0
 10
-0.0000000220344968
 20
64.98652217036227
 30
0.0
 10
-0.0000002575064321
 20
64.98644135452877
 30
0.0
 10
0.0000054183569669
 20
64.85035521555812
 30
0.0
 10
0.0000294108164687
 20
64.51325717358958
 30
0.0
 10
0.0007524351594475
 20
63.43095661160625
 30
0.0
 10
0.0015824627284323
 20
62.6372865820902
 30
0.0
 10
0.0038392819988707
 20
60.9813928951596
 30
0.0
 10
0.0050651339105116
 20
60.16935787467739
 30
0.0
 10
0.0065013035036589
 20
59.01334672555086
 30
0.0
 10
0.0068409977515853
 20
58.71867596128563
 30
0.0
 10
0.0083426259896783
 20
57.2256727327869
 30
0.0
 10
0.0115123013928127
 20
55.91765359225925
 30
0.0
 10
0.0051847909947336
 20
54.31710928401392
 30
0.0
 10
0.0030693489730282
 20
54.02384135220675
 30
0.0
 10
0.0000000000000079
 20
53.73105264740416
 30
0.0
  0
SPLINE
  5
26D3
330
26CC
100
AcDbEntity
  8
0
100
AcDbSpline
210
0.0
220
0.0
230
1.0
 70
     8
 71
     3
 72
    34
 73
    30
 74
     0
 42
0.000000001
 43
0.0000000001
 40
0.0
 40
0.0
 40
0.0
 40
0.0
 40
0.0000921508869663
 40
0.0000921508869663
 40
0.000164692434395
 40
0.000164692434395
 40
0.0003823170783755
 40
0.0003823170783755
 40
0.0010351910524187
 40
0.0010351910524187
 40
0.0029938137071642
 40
0.0029938137071642
 40
0.0088697031095346
 40
0.0088697031095346
 40
0.0264979471032609
 40
0.0264979471032609
 40
0.0793980804081987
 40
0.0793980804081987
 40
0.238503855151264
 40
0.238503855151264
 40
0.5790102990516695
 40
0.5790102990516695
 40
0.9318264803371993
 40
0.9318264803371993
 40
1.307106881685523
 40
1.307106881685523
 40
1.703757203129625
 40
1.703757203129625
 40
1.743780287434729
 40
1.743780287434729
 40
1.743780287434729
 40
1.743780287434729
 10
0.0000000000000096
 20
64.99999999999997
 30
0.0
 10
0.0000000000000096
 20
64.99994475939576
 30
0.0
 10
0.0000000000000089
 20
65.00000161800947
 30
0.0
 10
0.0000000000000089
 20
65.00000156495878
 30
0.0
 10
0.0000000000000075
 20
65.00000151732939
 30
0.0
 10
0.0000000000000075
 20
65.00000135028368
 30
0.0
 10
-0.0000000000000008
 20
65.00000108606325
 30
0.0
 10
0.0000000000000005
 20
64.99999992274808
 30
0.0
 10
-0.000000000000028
 20
64.99999798442042
 30
0.0
 10
0.0000000000000458
 20
64.9999885353915
 30
0.0
 10
0.0000000000001567
 20
64.99997486193379
 30
0.0
 10
0.0000000000041493
 20
64.99989709322257
 30
0.0
 10
0.000000000010431
 20
64.99978154078937
 30
0.0
 10
0.0000000003193922
 20
64.99909062774488
 30
0.0
 10
0.0000000008184763
 20
64.99805779461542
 30
0.0
 10
0.0000000249384996
 20
64.99187320029093
 30
0.0
 10
0.0000000684732945
 20
64.98260973782928
 30
0.0
 10
0.0000018792570084
 20
64.92719357730203
 30
0.0
 10
0.0000061062948638
 20
64.84393557604512
 30
0.0
 10
0.0000980786420411
 20
64.46021624101487
 30
0.0
 10
0.0002915244432572
 20
64.01292645756206
 30
0.0
 10
0.0013895638842885
 20
62.80996655146679
 30
0.0
 10
0.0023884510529746
 20
62.02794451829667
 30
0.0
 10
0.0049628405779183
 20
60.19760467110182
 30
0.0
 10
0.00658863038766
 20
59.11288414670619
 30
0.0
 10
0.0085971266303707
 20
56.75049335412452
 30
0.0
 10
0.0131414913044444
 20
55.42984756992226
 30
0.0
 10
0.0027504690859598
 20
53.99312989186892
 30
0.0
 10
0.0015157408432332
 20
53.86182972592976
 30
0.0
 10
0.0000000000000205
 20
53.73105264740416
 30
0.0
  0
SPLINE
  5
26D4
330
26CC
100
AcDbEntity
  8
0
100
AcDbSpline
210
0.0
220
0.0
230
1.0
 70
     8
 71
     3
 72
    32
 73
    28
 74
     0
 42
0.000000001
 43
0.0000000001
 40
0.0
 40
0.0
 40
0.0
 40
0.0
 40
0.1685378382891322
 40
0.1685378382891322
 40
0.561905492893577
 40
0.561905492893577
 40
0.9286309283604893
 40
0.9286309283604893
 40
1.275827934975742
 40
1.275827934975742
 40
1.588722941626656
 40
1.588722941626656
 40
1.692041853998594
 40
1.692041853998594
 40
1.726443829979262
 40
1.726443829979262
 40
1.737909735689861
 40
1.737909735689861
 40
1.741731651356834
 40
1.741731651356834
 40
1.743005621441965
 40
1.743005621441965
 40
1.743430278017254
 40
1.743430278017254
 40
1.743571830204821
 40
1.743571830204821
 40
1.743751647997887
 40
1.743751647997887
 40
1.743751647997887
 40
1.743751647997887
 10
-53.73105264740416
 20
-0.0000000000000069
 30
0.0
 10
-54.28668570407085
 20
-0.0048341573564487
 30
0.0
 10
-54.84064639690519
 20
-0.0075732651038376
 30
0.0
 10
-56.67920042615328
 20
-0.0097068282095113
 30
0.0
 10
-57.94680390315345
 20
-0.0077670225527004
 30
0.0
 10
-60.15787359240921
 20
-0.0051252363512004
 30
0.0
 10
-61.14654705270435
 20
-0.0035858181570825
 30
0.0
 10
-62.77875032961436
 20
-0.0014272874570313
 30
0.0
 10
-63.45361235010111
 20
-0.000746973958562
 30
0.0
 10
-64.40441315362045
 20
-0.0000940971701072
 30
0.0
 10
-64.72341390352662
 20
-0.0000248029421969
 30
0.0
 10
-64.93385678598122
 20
-0.000001049093542
 30
0.0
 10
-64.96909694935562
 20
-0.000000350030359
 30
0.0
 10
-64.99260932071242
 20
-0.0000000121492526
 30
0.0
 10
-64.99653917213072
 20
-0.0000000045799619
 30
0.0
 10
-64.99916837828525
 20
-0.0000000001523008
 30
0.0
 10
-64.99960823478872
 20
-0.0000000000597921
 30
0.0
 10
-64.99990429061835
 20
-0.0000000000021331
 30
0.0
 10
-64.9999541042653
 20
-0.0000000000008327
 30
0.0
 10
-64.9999882369612
 20
-0.0000000000000339
 30
0.0
 10
-64.99999667887985
 20
0.0000000000000558
 30
0.0
 10
-65.00000110824972
 20
0.0000000000000737
 30
0.0
 10
-65.00000211428835
 20
0.0000000000000186
 30
0.0
 10
-65.00000275033645
 20
0.0000000000000191
 30
0.0
 10
-65.00000293169091
 20
0.0000000000000089
 30
0.0
 10
-65.00000313369118
 20
0.0000000000000089
 30
0.0
 10
-64.99989220675063
 20
0.000000000000004
 30
0.0
 10
-64.99999999999997
 20
0.000000000000004
 30
0.0
  0
SPLINE
  5
26D5
330
26CC
100
AcDbEntity
  8
0
100
AcDbSpline
210
0.0
220
0.0
230
1.0
 70
     8
 71
     3
 72
    26
 73
    22
 74
     0
 42
0.000000001
 43
0.0000000001
 40
1.738275494542351
 40
1.738275494542351
 40
1.738275494542351
 40
1.738275494542351
 40
1.7382770857384
 40
1.7382770857384
 40
1.7382917341759
 40
1.7382917341759
 40
1.738340562300904
 40
1.738340562300904
 40
1.738535874801144
 40
1.738535874801144
 40
1.739317124816539
 40
1.739317124816539
 40
1.740879624939305
 40
1.740879624939305
 40
1.744004625915632
 40
1.744004625915632
 40
1.755569148678728
 40
1.755569148678728
 40
1.878970741663725
 40
1.878970741663725
 40
2.879063556043227
 40
2.879063556043227
 40
2.879063556043227
 40
2.879063556043227
 10
-64.99998409157853
 20
2.5
 30
0.0
 10
-64.99997878793765
 20
2.500000000008759
 30
0.0
 10
-64.9999734841238
 20
2.500000000017517
 30
0.0
 10
-64.99991935201197
 20
2.50000000010691
 30
0.0
 10
-64.99987052388696
 20
2.500000000373147
 30
0.0
 10
-64.99965893534529
 20
2.500000002331094
 30
0.0
 10
-64.99949617492863
 20
2.50000000589941
 30
0.0
 10
-64.99868237284497
 20
2.500000034051441
 30
0.0
 10
-64.99803133117819
 20
2.500000089566497
 30
0.0
 10
-64.99477612282283
 20
2.500000532072426
 30
0.0
 10
-64.99217195614727
 20
2.500001413855301
 30
0.0
 10
-64.9843594568304
 20
2.500005641134816
 30
0.0
 10
-64.97915112456602
 20
2.500010568563519
 30
0.0
 10
-64.96352613514743
 20
2.500031667328276
 30
0.0
 10
-64.95310948271509
 20
2.500054155162295
 30
0.0
 10
-64.9041446187359
 20
2.500199309714381
 30
0.0
 10
-64.86559655285458
 20
2.500428512661124
 30
0.0
 10
-64.41572726715536
 20
2.504426735504349
 30
0.0
 10
-64.00437648410806
 20
2.521022246081143
 30
0.0
 10
-60.26777028627706
 20
2.771341029260089
 30
0.0
 10
-57.0272111445623
 20
3.705803815036891
 30
0.0
 10
-53.73105264740413
 20
4.204314507205635
 30
0.0
  0
LINE
  5
26D6
330
26CC
100
AcDbEntity
  8
0
100
AcDbLine
 10
-2.499999999999997
 20
17.29815676743864
 30
0.0
 11
-4.76224676452296
 21
17.64029874920653
 31
0.0
  0
LINE
  5
26D7
330
26CC
100
AcDbEntity
  8
0
100
AcDbLine
 10
-7.35831173453033
 20
18.03292736407116
 30
0.0
 11
-4.762246764523004
 21
17.64029874920716
 31
0.0
  0
LINE
  5
26D8
330
26CC
100
AcDbEntity
  8
0
100
AcDbLine
 10
-9.553093169413685
 20
18.36486589591246
 30
0.0
 11
-4.204314507205625
 21
53.73105264740416
 31
0.0
  0
LINE
  5
26D9
330
26CC
100
AcDbEntity
  8
0
100
AcDbLine
 10
-2.499999999999993
 20
6.500000000271398
 30
0.0
 11
-2.499999999999992
 21
85.0
 31
0.0
  0
LINE
  5
26DA
330
26CC
100
AcDbEntity
  8
0
100
AcDbLine
 10
-85.00000000000001
 20
2.499999999999999
 30
0.0
 11
-6.500000001000456
 21
2.500000000000004
 31
0.0
  0
LINE
  5
26DB
330
26CC
100
AcDbEntity
  8
0
100
AcDbLine
 10
0.0
 20
85.0
 30
0.0
 11
0.0
 21
6.500000000441019
 31
0.0
  0
LINE
  5
26DC
330
26CC
100
AcDbEntity
  8
0
100
AcDbLine
 10
-6.500000001000455
 20
0.0
 30
0.0
 11
-85.00000000000001
 21
0.0
 31
0.0
  0
SPLINE
  5
26DD
330
26CC
100
AcDbEntity
  8
0
100
AcDbSpline
210
0.0
220
0.0
230
1.0
 70
     8
 71
     3
 72
     8
 73
     4
 74
     0
 42
0.000000001
 43
0.0000000001
 40
0.0
 40
0.0
 40
0.0
 40
0.0
 40
1.0
 40
1.0
 40
1.0
 40
1.0
 10
0.0000000000000065
 20
6.500000000441007
 30
0.0
 10
0.0000000002308418
 20
3.097701419104704
 30
0.0
 10
-3.097701419946257
 20
-0.0000000006675658
 30
0.0
 10
-6.500000001275367
 20
0.0000000000000044
 30
0.0
  0
SPLINE
  5
26DE
330
26CC
100
AcDbEntity
  8
0
100
AcDbSpline
210
0.0
220
0.0
230
1.0
 70
     8
 71
     3
 72
     8
 73
     4
 74
     0
 42
0.000000001
 43
0.0000000001
 40
-1.0
 40
-1.0
 40
-1.0
 40
-1.0
 40
0.0
 40
0.0
 40
0.0
 40
0.0
 10
-6.500000000784838
 20
2.500000000000004
 30
0.0
 10
-4.406277796890002
 20
2.499999999589191
 30
0.0
 10
-2.49999999985794
 20
4.406277796372127
 30
0.0
 10
-2.499999999999993
 20
6.50000000027139
 30
0.0
  0
LINE
  5
26DF
330
26CC
100
AcDbEntity
  8
0
100
AcDbLine
 10
-2.499999999999992
 20
85.0
 30
0.0
 11
0.0
 21
85.0
 31
0.0
  0
LINE
  5
26E0
330
26CC
100
AcDbEntity
  8
0
100
AcDbLine
 10
-85.00000000000001
 20
0.0
 30
0.0
 11
-85.00000000000001
 21
2.499999999999999
 31
0.0
  0
LINE
  5
26E1
330
26CC
100
AcDbEntity
  8
0
100
AcDbLine
 10
-2.499999999999993
 20
90.0
 30
0.0
 11
-2.499999999999992
 21
85.0
 31
0.0
  0
LINE
  5
26E2
330
26CC
100
AcDbEntity
  8
0
100
AcDbLine
 10
-85.00000000000001
 20
2.499999999999999
 30
0.0
 11
-90.0
 21
2.499999999999999
 31
0.0
  0
LINE
  5
26E3
330
26CC
100
AcDbEntity
  8
0
100
AcDbLine
 10
0.0
 20
85.0
 30
0.0
 11
0.0
 21
90.0
 31
0.0
  0
LINE
  5
26E4
330
26CC
100
AcDbEntity
  8
0
100
AcDbLine
 10
-90.0
 20
0.0
 30
0.0
 11
-85.00000000000001
 21
0.0
 31
0.0
  0
LINE
  5
26E5
330
26CC
100
AcDbEntity
  8
0
100
AcDbLine
 10
-90.0
 20
2.499999999999999
 30
0.0
 11
-90.0
 21
0.0
 31
0.0
  0
LINE
  5
26E6
330
26CC
100
AcDbEntity
  8
0
100
AcDbLine
 10
0.0
 20
90.0
 30
0.0
 11
-2.499999999999993
 21
90.0
 31
0.0
  0
LINE
  5
26E7
330
26CC
100
AcDbEntity
  8
0
100
AcDbLine
 10
-17.64029874920658
 20
4.762246764522966
 30
0.0
 11
-17.29815676743866
 21
2.500000000000003
 31
0.0
  0
LINE
  5
26E8
330
26CC
100
AcDbEntity
  8
0
100
AcDbLine
 10
-18.03292736407119
 20
7.35831173453032
 30
0.0
 11
-17.6402987492072
 21
4.762246764523011
 31
0.0
  0
LINE
  5
26E9
330
26CC
100
AcDbEntity
  8
0
100
AcDbLine
 10
-53.73105264740416
 20
4.204314507205637
 30
0.0
 11
-18.36486589591246
 21
9.553093169413685
 31
0.0
  0
ARC
  5
26EA
330
26CC
100
AcDbEntity
  8
0
100
AcDbCircle
 10
-19.93502884254441
 20
19.9350288425444
 30
0.0
 40
10.5
100
AcDbArc
 50
278.6002309089423
 51
351.3997690910577
  0
ENDBLK
  5
26CE
330
26CC
100
AcDbEntity
  8
0
100
AcDbBlockEnd
  0
BLOCK
  5
26EC
330
26EB
100
AcDbEntity
  8
0
100
AcDbBlockBegin
  2
ABR90-Top
 70
     0
 10
0.0
 20
0.0
 30
0.0
  3
ABR90-Top
  1

  0
SPLINE
  5
26EE
330
26EB
100
AcDbEntity
  8
0
100
AcDbSpline
210
0.0
220
0.0
230
1.0
 70
     8
 71
     3
 72
    20
 73
    16
 74
     0
 42
0.000000001
 43
0.0000000001
 40
0.1711506944005047
 40
0.1711506944005047
 40
0.1711506944005047
 40
0.1711506944005047
 40
0.1935475736092407
 40
0.1935475736092407
 40
0.1935475736092407
 40
0.2714898027064927
 40
0.2714898027064927
 40
0.2714898027064927
 40
0.3124220589415433
 40
0.3124220589415433
 40
0.3124220589415433
 40
0.4073566040977041
 40
0.4073566040977041
 40
0.4073566040977041
 40
0.5
 40
0.5
 40
0.5
 40
0.5
 10
7.425556706041223
 20
-3.182894331796218
 30
0.0
 10
7.258705233611678
 20
-3.218359707085423
 30
0.0
 10
7.091853761182134
 20
-3.253825082374628
 30
0.0
 10
6.925002288752589
 20
-3.289290457663834
 30
0.0
 10
6.344351048545662
 20
-3.412711688811656
 30
0.0
 10
5.763699808338734
 20
-3.536132919959478
 30
0.0
 10
5.183048568131807
 20
-3.659554151107299
 30
0.0
 10
4.878112904594462
 20
-3.724370227279336
 30
0.0
 10
4.571961282466902
 20
-3.783465618554358
 30
0.0
 10
4.26480910503098
 20
-3.836798746380059
 30
0.0
 10
3.552428333955032
 20
-3.960494743073077
 30
0.0
 10
2.834663355361589
 20
-4.053178376675441
 30
0.0
 10
2.114228194901918
 20
-4.114499190190016
 30
0.0
 10
1.41118000856879
 20
-4.174340087875226
 30
0.0
 10
0.7055903098413826
 20
-4.204314507205627
 30
0.0
 10
-0.0000000000000102
 20
-4.204314507205626
 30
0.0
  0
SPLINE
  5
26EF
330
26EB
100
AcDbEntity
  8
0
100
AcDbSpline
210
0.0
220
0.0
230
1.0
 70
     8
 71
     3
 72
    20
 73
    16
 74
     0
 42
0.000000001
 43
0.0000000001
 40
0.5
 40
0.5
 40
0.5
 40
0.5
 40
0.5949348083341239
 40
0.5949348083341239
 40
0.5949348083341239
 40
0.6875784610628488
 40
0.6875784610628488
 40
0.6875784610628488
 40
0.7285101972935038
 40
0.7285101972935038
 40
0.7285101972935038
 40
0.8064536112417728
 40
0.8064536112417728
 40
0.8064536112417728
 40
0.8288493055994953
 40
0.8288493055994953
 40
0.8288493055994953
 40
0.8288493055994953
 10
-0.0000000000000102
 20
-4.204314507205626
 30
0.0
 10
-0.7230421572397133
 20
-4.204314507205621
 30
0.0
 10
-1.446083623969661
 20
-4.172838050164529
 30
0.0
 10
-2.166390407847069
 20
-4.110004156078409
 30
0.0
 10
-2.869313315836939
 20
-4.048686694491292
 30
0.0
 10
-3.569630760072096
 20
-3.957508098596685
 30
0.0
 10
-4.264820811237016
 20
-3.836796713741152
 30
0.0
 10
-4.571969061185446
 20
-3.783464117071938
 30
0.0
 10
-4.878116778504616
 20
-3.724369403854308
 30
0.0
 10
-5.183048568131743
 20
-3.659554151107279
 30
0.0
 10
-5.763708635199548
 20
-3.536131043752265
 30
0.0
 10
-6.344368702267351
 20
-3.412707936397248
 30
0.0
 10
-6.925028769335154
 20
-3.289284829042229
 30
0.0
 10
-7.091871414903851
 20
-3.253821329960217
 30
0.0
 10
-7.258714060472547
 20
-3.218357830878205
 30
0.0
 10
-7.425556706041243
 20
-3.182894331796192
 30
0.0
  0
LINE
  5
26F0
330
26EB
100
AcDbEntity
  8
0
100
AcDbLine
 10
11.26894735259585
 20
-53.73105264740414
 30
0.0
 11
0.0
 21
-53.73105264740416
 31
0.0
  0
LINE
  5
26F1
330
26EB
100
AcDbEntity
  8
0
100
AcDbLine
 10
0.0
 20
-53.73105264740416
 30
0.0
 11
-11.26894735259585
 21
-53.73105264740414
 31
0.0
  0
ARC
  5
26F2
330
26EB
100
AcDbEntity
  8
0
100
AcDbCircle
 10
-0.0000000000000003
 20
-53.73105264740416
 30
0.0
 40
11.26894735259585
100
AcDbArc
 50
180.0
 51
270.0000000000003
  0
ARC
  5
26F3
330
26EB
100
AcDbEntity
  8
0
100
AcDbCircle
 10
-0.0000000000000003
 20
-53.73105264740416
 30
0.0
 40
11.26894735259585
100
AcDbArc
 50
270.0000000000003
 51
0.0
  0
SPLINE
  5
26F4
330
26EB
100
AcDbEntity
  8
0
100
AcDbSpline
210
0.0
220
0.0
230
1.0
 70
     8
 71
     3
 72
    38
 73
    34
 74
     0
 42
0.000000001
 43
0.0000000001
 40
0.0
 40
0.0
 40
0.0
 40
0.0
 40
0.0126680776470296
 40
0.0126680776470296
 40
0.0249338271013087
 40
0.0249338271013087
 40
0.041682118613949
 40
0.041682118613949
 40
0.0667953565530541
 40
0.0667953565530541
 40
0.1002682324626771
 40
0.1002682324626771
 40
0.1058441931623832
 40
0.1058441931623832
 40
0.1114201538620893
 40
0.1114201538620893
 40
0.1114303628828567
 40
0.1114303628828567
 40
0.1114504173490019
 40
0.1114504173490019
 40
0.1114896961342578
 40
0.1114896961342578
 40
0.111566193897275
 40
0.111566193897275
 40
0.1121469216705054
 40
0.1121469216705054
 40
0.1133083807117934
 40
0.1133083807117934
 40
0.1184857669202052
 40
0.1184857669202052
 40
0.2244502708801163
 40
0.2244502708801163
 40
0.4107572360638163
 40
0.4107572360638163
 40
0.4107572360638163
 40
0.4107572360638163
 10
11.26894735259583
 20
-2.499999999999995
 30
0.0
 10
11.22672059032328
 20
-2.499990119844894
 30
0.0
 10
11.18430873414552
 20
-2.500454181472035
 30
0.0
 10
11.10253536583998
 20
-2.50227777385122
 30
0.0
 10
11.06284262291846
 20
-2.503623050392417
 30
0.0
 10
10.97212737472711
 20
-2.507734166561681
 30
0.0
 10
10.92184550589706
 20
-2.510851211190408
 30
0.0
 10
10.80205945265345
 20
-2.520052858857069
 30
0.0
 10
10.7346812373195
 20
-2.526848569676328
 30
0.0
 10
10.58003975593363
 20
-2.545592753744752
 30
0.0
 10
10.4928740188921
 20
-2.558597409136196
 30
0.0
 10
10.38764656157054
 20
-2.577172706206902
 30
0.0
 10
10.36833342586412
 20
-2.580674886874807
 30
0.0
 10
10.33634414007612
 20
-2.586644191350237
 30
0.0
 10
10.32930535524061
 20
-2.587979584699046
 30
0.0
 10
10.31153939895811
 20
-2.591438050380981
 30
0.0
 10
10.31150693053381
 20
-2.591444371009411
 30
0.0
 10
10.31141068097404
 20
-2.591463108091669
 30
0.0
 10
10.3113468992697
 20
-2.591475524829496
 30
0.0
 10
10.31115819210746
 20
-2.591512262189825
 30
0.0
 10
10.31103326447377
 20
-2.591536583898615
 30
0.0
 10
10.31066502421501
 20
-2.59160827789951
 30
0.0
 10
10.3104217033845
 20
-2.591655654288649
 30
0.0
 10
10.3083311331118
 20
-2.592062733058811
 30
0.0
 10
10.30648325352778
 20
-2.592422749748281
 30
0.0
 10
10.30093775061763
 20
-2.593503734193518
 30
0.0
 10
10.29723825036952
 20
-2.59422563873056
 30
0.0
 10
10.2770350174376
 20
-2.598171971026451
 30
0.0
 10
10.260486370205
 20
-2.601418815718357
 30
0.0
 10
9.904519191071335
 20
-2.671508051490008
 30
0.0
 10
9.557190683427599
 20
-2.742784332657173
 30
0.0
 10
8.610473409402993
 20
-2.935520921650059
 30
0.0
 10
8.010750620591636
 20
-3.058507525409158
 30
0.0
 10
7.425556706041223
 20
-3.182894331796217
 30
0.0
  0
SPLINE
  5
26F5
330
26EB
100
AcDbEntity
  8
0
100
AcDbSpline
210
0.0
220
0.0
230
1.0
 70
     8
 71
     3
 72
    42
 73
    38
 74
     0
 42
0.000000001
 43
0.0000000001
 40
0.0
 40
0.0
 40
0.0
 40
0.0
 40
0.2128198953206173
 40
0.2128198953206173
 40
0.2681260405257224
 40
0.2681260405257224
 40
0.2888712022618503
 40
0.2888712022618503
 40
0.2966495615549398
 40
0.2966495615549398
 40
0.2981078347613362
 40
0.2981078347613362
 40
0.2987707292124952
 40
0.2987707292124952
 40
0.2991021760991599
 40
0.2991021760991599
 40
0.2991993791958381
 40
0.2991993791958381
 40
0.2992491440680236
 40
0.2992491440680236
 40
0.2992744576329886
 40
0.2992744576329886
 40
0.2992872903719599
 40
0.2992872903719599
 40
0.2992976480834777
 40
0.2992976480834777
 40
0.3120282513345607
 40
0.3120282513345607
 40
0.3502367076901044
 40
0.3502367076901044
 40
0.3783327225320634
 40
0.3783327225320634
 40
0.39409248821654
 40
0.39409248821654
 40
0.4023352211479102
 40
0.4023352211479102
 40
0.410698523610881
 40
0.410698523610881
 40
0.410698523610881
 40
0.410698523610881
 10
-7.425556706041243
 20
-3.182894331796191
 30
0.0
 10
-8.09402826594284
 20
-3.040806315449309
 30
0.0
 10
-8.781987019891875
 20
-2.900364109357704
 30
0.0
 10
-9.651950455648119
 20
-2.723625325599079
 30
0.0
 10
-9.831763445728183
 20
-2.687112846267928
 30
0.0
 10
-10.07796784548615
 20
-2.637637370058893
 30
0.0
 10
-10.14503396613827
 20
-2.624221277918084
 30
0.0
 10
-10.23661745488885
 20
-2.606111432321224
 30
0.0
 10
-10.2615312181186
 20
-2.601207453622409
 30
0.0
 10
-10.29099383511327
 20
-2.595445112758922
 30
0.0
 10
-10.29564187609389
 20
-2.594537149963696
 30
0.0
 10
-10.30239720887079
 20
-2.593219253377195
 30
0.0
 10
-10.30450755929075
 20
-2.592807788851237
 30
0.0
 10
-10.30767185452963
 20
-2.592191207041781
 30
0.0
 10
-10.30872641514733
 20
-2.591985782153229
 30
0.0
 10
-10.31008997652246
 20
-2.591720246937669
 30
0.0
 10
-10.31039916756081
 20
-2.591660041600325
 30
0.0
 10
-10.31086662733774
 20
-2.591569026627829
 30
0.0
 10
-10.31102490934006
 20
-2.591538210369686
 30
0.0
 10
-10.31126369646813
 20
-2.591491722567918
 30
0.0
 10
-10.31134420509396
 20
-2.591476049276776
 30
0.0
 10
-10.31146552581121
 20
-2.591452431313995
 30
0.0
 10
-10.31150633881138
 20
-2.59144448618866
 30
0.0
 10
-10.31158009271289
 20
-2.591430128583875
 30
0.0
 10
-10.31161303372386
 20
-2.591423716049691
 30
0.0
 10
-10.35213332842688
 20
-2.583535820765073
 30
0.0
 10
-10.38124821118374
 20
-2.578230396358321
 30
0.0
 10
-10.51815150483763
 20
-2.554416713194537
 30
0.0
 10
-10.61674394051742
 20
-2.540311681301372
 30
0.0
 10
-10.79364821593044
 20
-2.520785152875166
 30
0.0
 10
-10.871558698347
 20
-2.513960940079491
 30
0.0
 10
-11.00343715535587
 20
-2.506127100447701
 30
0.0
 10
-11.05325068221991
 20
-2.503887592848598
 30
0.0
 10
-11.13102024074475
 20
-2.501587422198626
 30
0.0
 10
-11.15816502314039
 20
-2.500991689923088
 30
0.0
 10
-11.21314080156169
 20
-2.500195792769451
 30
0.0
 10
-11.24106971144299
 20
-2.499996218656556
 30
0.0
 10
-11.26894735259586
 20
-2.500000000000001
 30
0.0
  0
SPLINE
  5
26F6
330
26EB
100
AcDbEntity
  8
0
100
AcDbSpline
210
0.0
220
0.0
230
1.0
 70
     8
 71
     3
 72
    30
 73
    26
 74
     0
 42
0.000000001
 43
0.0000000001
 40
0.0
 40
0.0
 40
0.0
 40
0.0
 40
0.0772198789131763
 40
0.0772198789131763
 40
0.3413574378397853
 40
0.3413574378397853
 40
0.4291176553416481
 40
0.4291176553416481
 40
0.8250395160435694
 40
0.8250395160435694
 40
1.225724256109048
 40
1.225724256109048
 40
1.600057365534388
 40
1.600057365534388
 40
1.946712612649513
 40
1.946712612649513
 40
2.273835962097312
 40
2.273835962097312
 40
2.624093200455911
 40
2.624093200455911
 40
2.997608296597078
 40
2.997608296597078
 40
3.397066325875524
 40
3.397066325875524
 40
3.483991427924771
 40
3.483991427924771
 40
3.483991427924771
 40
3.483991427924771
 10
-11.26894735259586
 20
0.0000000000000079
 30
0.0
 10
-11.24993396378143
 20
0.0021223383748101
 30
0.0
 10
-11.21791532156459
 20
0.0039046722154375
 30
0.0
 10
-11.01996216809019
 20
0.0102205538336724
 30
0.0
 10
-10.83023674280776
 20
0.0085990527993562
 30
0.0
 10
-10.44943054818816
 20
0.0080326663564078
 30
0.0
 10
-10.34406155695443
 20
0.00784830079089
 30
0.0
 10
-9.710668393697986
 20
0.0066242089437499
 30
0.0
 10
-8.986617748562773
 20
0.00488201448176
 30
0.0
 10
-7.221783407749272
 20
0.0021038166245479
 30
0.0
 10
-6.149263673033167
 20
0.0010713583392816
 30
0.0
 10
-3.875013108276496
 20
0.0001065375690037
 30
0.0
 10
-2.655877720508774
 20
0.0000221684302178
 30
0.0
 10
-0.2766679932751666
 20
-0.0000107283930109
 30
0.0
 10
0.9124834068628873
 20
-0.0000228159775268
 30
0.0
 10
3.112236839737248
 20
0.0000614875487481
 30
0.0
 10
4.156156906542993
 20
0.000197785908569
 30
0.0
 10
6.128812193567733
 20
0.0010970860678098
 30
0.0
 10
7.067010314685036
 20
0.0019624585099911
 30
0.0
 10
8.723134540856241
 20
0.0043858267443271
 30
0.0
 10
9.444305352701848
 20
0.0060070251030737
 30
0.0
 10
10.56785224143538
 20
0.0083472737004805
 30
0.0
 10
10.91645490676985
 20
0.0124072109004784
 30
0.0
 10
11.20804841268546
 20
0.0044139264471382
 30
0.0
 10
11.24581500500505
 20
0.002461474771295
 30
0.0
 10
11.26894735259583
 20
0.0000000000000205
 30
0.0
  0
SPLINE
  5
26F7
330
26EB
100
AcDbEntity
  8
0
100
AcDbSpline
210
0.0
220
0.0
230
1.0
 70
     8
 71
     3
 72
    12
 73
     8
 74
     0
 42
0.000000001
 43
0.0000000001
 40
0.0
 40
0.0
 40
0.0
 40
0.0
 40
0.2383297850252353
 40
0.2383297850252353
 40
0.3947543338849353
 40
0.3947543338849353
 40
0.5503337433002429
 40
0.5503337433002429
 40
0.5503337433002429
 40
0.5503337433002429
 10
11.58689241820464
 20
-2.499999999999997
 30
0.0
 10
10.79245980145386
 20
-2.499999999999997
 30
0.0
 10
10.00491063563677
 20
-2.652652953933725
 30
0.0
 10
8.785267129918461
 20
-3.141914915637809
 30
0.0
 10
8.328566704225792
 20
-3.395453784110797
 30
0.0
 10
7.492761533562152
 20
-4.007908727976305
 30
0.0
 10
7.116396366227898
 20
-4.363943140379388
 30
0.0
 10
6.789567423897993
 20
-4.762246764522961
 30
0.0
  0
SPLINE
  5
26F8
330
26EB
100
AcDbEntity
  8
0
100
AcDbSpline
210
0.0
220
0.0
230
1.0
 70
     8
 71
     3
 72
    12
 73
     8
 74
     0
 42
0.000000001
 43
0.0000000001
 40
0.0
 40
0.0
 40
0.0
 40
0.0
 40
0.2420318189909772
 40
0.2420318189909772
 40
0.3958209345276102
 40
0.3958209345276102
 40
0.550491411758263
 40
0.550491411758263
 40
0.550491411758263
 40
0.550491411758263
 10
-6.789567423897999
 20
-4.762246764522963
 30
0.0
 10
-7.297869111000744
 20
-4.142783865405071
 30
0.0
 10
-7.9243248910237
 20
-3.62758965855645
 30
0.0
 10
-9.082797661154843
 20
-3.003162175793285
 30
0.0
 10
-9.561747084055555
 20
-2.816680239350585
 30
0.0
 10
-10.5577326429712
 20
-2.564293823953196
 30
0.0
 10
-11.0713805260315
 20
-2.500000000000002
 30
0.0
 10
-11.58689241820465
 20
-2.500000000000002
 30
0.0
  0
LINE
  5
26F9
330
26EB
100
AcDbEntity
  8
0
100
AcDbLine
 10
-6.789567423897889
 20
-4.762246764523008
 30
0.0
 11
-4.659360423669006
 21
-7.358311734530328
 31
0.0
  0
LINE
  5
26FA
330
26EB
100
AcDbEntity
  8
0
100
AcDbLine
 10
4.659360423668989
 20
-7.35831173453033
 30
0.0
 11
6.789567423897882
 21
-4.762246764523004
 31
0.0
  0
LINE
  5
26FB
330
26EB
100
AcDbEntity
  8
0
100
AcDbLine
 10
27.49999999999999
 20
-2.499999999999993
 30
0.0
 11
32.49999999999999
 21
-2.499999999999992
 31
0.0
  0
LINE
  5
26FC
330
26EB
100
AcDbEntity
  8
0
100
AcDbLine
 10
-32.50000000000002
 20
-2.500000000000007
 30
0.0
 11
-27.50000000000002
 21
-2.500000000000006
 31
0.0
  0
LINE
  5
26FD
330
26EB
100
AcDbEntity
  8
0
100
AcDbLine
 10
-27.5
 20
-90.0
 30
0.0
 11
-32.5
 21
-85.00000000000001
 31
0.0
  0
LINE
  5
26FE
330
26EB
100
AcDbEntity
  8
0
100
AcDbLine
 10
32.50000000000001
 20
-85.00000000000001
 30
0.0
 11
27.5
 21
-90.0
 31
0.0
  0
LINE
  5
26FF
330
26EB
100
AcDbEntity
  8
0
100
AcDbLine
 10
-27.50000000000002
 20
0.0
 30
0.0
 11
-32.50000000000002
 21
0.0
 31
0.0
  0
LINE
  5
2700
330
26EB
100
AcDbEntity
  8
0
100
AcDbLine
 10
32.49999999999999
 20
0.0
 30
0.0
 11
27.49999999999999
 21
0.0
 31
0.0
  0
LINE
  5
2701
330
26EB
100
AcDbEntity
  8
0
100
AcDbLine
 10
27.49999999999999
 20
0.0
 30
0.0
 11
27.49999999999999
 21
-2.499999999999993
 31
0.0
  0
LINE
  5
2702
330
26EB
100
AcDbEntity
  8
0
100
AcDbLine
 10
-27.50000000000002
 20
-2.500000000000006
 30
0.0
 11
-27.50000000000002
 21
0.0
 31
0.0
  0
LINE
  5
2703
330
26EB
100
AcDbEntity
  8
0
100
AcDbLine
 10
-27.50000000000002
 20
-2.500000000000006
 30
0.0
 11
27.49999999999999
 21
-2.499999999999993
 31
0.0
  0
LINE
  5
2704
330
26EB
100
AcDbEntity
  8
0
100
AcDbLine
 10
-27.5
 20
-90.0
 30
0.0
 11
27.5
 21
-90.0
 31
0.0
  0
LINE
  5
2705
330
26EB
100
AcDbEntity
  8
0
100
AcDbLine
 10
27.49999999999999
 20
0.0
 30
0.0
 11
-27.50000000000002
 21
0.0
 31
0.0
  0
SPLINE
  5
2706
330
26EB
100
AcDbEntity
  8
0
100
AcDbSpline
210
0.0
220
0.0
230
1.0
 70
     8
 71
     3
 72
    12
 73
     8
 74
     0
 42
0.000000001
 43
0.0000000001
 40
0.0
 40
0.0
 40
0.0
 40
0.0
 40
0.2420318189908998
 40
0.2420318189908998
 40
0.3958209345304661
 40
0.3958209345304661
 40
0.5504914117582526
 40
0.5504914117582526
 40
0.5504914117582526
 40
0.5504914117582526
 10
6.78956742389798
 20
-17.64029874920658
 30
0.0
 10
7.297869111000563
 20
-17.54661124028422
 30
0.0
 10
7.924324891023283
 20
-17.46869331829123
 30
0.0
 10
9.082797661162695
 20
-17.37425496621801
 30
0.0
 10
9.561747084073052
 20
-17.3460514561939
 30
0.0
 10
10.55773264299013
 20
-17.30788055915117
 30
0.0
 10
11.071380526041
 20
-17.29815676743866
 30
0.0
 10
11.58689241820463
 20
-17.29815676743866
 30
0.0
  0
LINE
  5
2707
330
26EB
100
AcDbEntity
  8
0
100
AcDbLine
 10
4.65936042366899
 20
-18.03292736407119
 30
0.0
 11
6.789567423897869
 21
-17.6402987492072
 31
0.0
  0
LINE
  5
2708
330
26EB
100
AcDbEntity
  8
0
100
AcDbLine
 10
-6.789567423897872
 20
-17.6402987492072
 30
0.0
 11
-4.659360423669002
 21
-18.03292736407119
 31
0.0
  0
SPLINE
  5
2709
330
26EB
100
AcDbEntity
  8
0
100
AcDbSpline
210
0.0
220
0.0
230
1.0
 70
     8
 71
     3
 72
    12
 73
     8
 74
     0
 42
0.000000001
 43
0.0000000001
 40
0.0
 40
0.0
 40
0.0
 40
0.0
 40
0.2383297850332514
 40
0.2383297850332514
 40
0.3947543338883195
 40
0.3947543338883195
 40
0.5503337433003166
 40
0.5503337433003166
 40
0.5503337433003166
 40
0.5503337433003166
 10
-11.58689241820463
 20
-17.29815676743867
 30
0.0
 10
-10.79245980142713
 20
-17.29815676743867
 30
0.0
 10
-10.00491063558402
 20
-17.32124398654123
 30
0.0
 10
-8.785267129861942
 20
-17.39523991829055
 30
0.0
 10
-8.328566704185353
 20
-17.43358511110731
 30
0.0
 10
-7.492761533546206
 20
-17.52621273755374
 30
0.0
 10
-7.116396366220957
 20
-17.58005934763287
 30
0.0
 10
-6.789567423897983
 20
-17.64029874920659
 30
0.0
  0
CIRCLE
  5
270A
330
26EB
100
AcDbEntity
  8
0
100
AcDbCircle
 10
-20.32614859872603
 20
-15.0
 30
0.0
 40
2.5
  0
CIRCLE
  5
270B
330
26EB
100
AcDbEntity
  8
0
100
AcDbCircle
 10
-15.86961144904451
 20
-32.50000000000001
 30
0.0
 40
2.5
  0
CIRCLE
  5
270C
330
26EB
100
AcDbEntity
  8
0
100
AcDbCircle
 10
-21.41307429936301
 20
-50.0
 30
0.0
 40
2.5
  0
CIRCLE
  5
270D
330
26EB
100
AcDbEntity
  8
0
100
AcDbCircle
 10
-19.90683493994539
 20
-82.0
 30
0.0
 40
2.5
  0
CIRCLE
  5
270E
330
26EB
100
AcDbEntity
  8
0
100
AcDbCircle
 10
-11.9565371496815
 20
-67.5
 30
0.0
 40
2.5
  0
CIRCLE
  5
270F
330
26EB
100
AcDbEntity
  8
0
100
AcDbCircle
 10
0.000000000000005
 20
-77.5
 30
0.0
 40
5.5
  0
CIRCLE
  5
2710
330
26EB
100
AcDbEntity
  8
0
100
AcDbCircle
 10
11.95653714968151
 20
-67.5
 30
0.0
 40
2.5
  0
CIRCLE
  5
2711
330
26EB
100
AcDbEntity
  8
0
100
AcDbCircle
 10
19.90683493994541
 20
-82.0
 30
0.0
 40
2.5
  0
CIRCLE
  5
2712
330
26EB
100
AcDbEntity
  8
0
100
AcDbCircle
 10
21.41307429936301
 20
-50.0
 30
0.0
 40
2.5
  0
CIRCLE
  5
2713
330
26EB
100
AcDbEntity
  8
0
100
AcDbCircle
 10
20.32614859872601
 20
-15.0
 30
0.0
 40
2.5
  0
CIRCLE
  5
2714
330
26EB
100
AcDbEntity
  8
0
100
AcDbCircle
 10
15.8696114490445
 20
-32.5
 30
0.0
 40
2.5
  0
LINE
  5
2715
330
26EB
100
AcDbEntity
  8
0
100
AcDbLine
 10
-30.06218092858132
 20
-6.500000001000093
 30
0.0
 11
-32.5
 21
-85.00000000000001
 31
0.0
  0
LINE
  5
2716
330
26EB
100
AcDbEntity
  8
0
100
AcDbLine
 10
32.50000000000001
 20
-85.00000000000001
 30
0.0
 11
30.06218092858127
 21
-6.500000001000456
 31
0.0
  0
SPLINE
  5
2717
330
26EB
100
AcDbEntity
  8
0
100
AcDbSpline
210
0.0
220
0.0
230
1.0
 70
     8
 71
     3
 72
     8
 73
     4
 74
     0
 42
0.000000001
 43
0.0000000001
 40
-1.0
 40
-1.0
 40
-1.0
 40
-1.0
 40
0.0
 40
0.0
 40
0.0
 40
0.0
 10
-30.06218092857981
 20
-2.500000000000006
 30
0.0
 10
-29.9792796827634
 20
-2.499999999857869
 30
0.0
 10
-29.97927968276502
 20
-4.406277796889557
 30
0.0
 10
-30.06218092858132
 20
-6.500000000784384
 30
0.0
  0
SPLINE
  5
2718
330
26EB
100
AcDbEntity
  8
0
100
AcDbSpline
210
0.0
220
0.0
230
1.0
 70
     8
 71
     3
 72
     8
 73
     4
 74
     0
 42
0.000000001
 43
0.0000000001
 40
-1.0
 40
-1.0
 40
-1.0
 40
-1.0
 40
0.0
 40
0.0
 40
0.0
 40
0.0
 10
30.06218092858134
 20
-6.500000000784838
 30
0.0
 10
29.97927968276361
 20
-4.406277796890002
 30
0.0
 10
29.97927968276345
 20
-2.49999999985794
 30
0.0
 10
30.06218092857983
 20
-2.499999999999993
 30
0.0
  0
LINE
  5
2719
330
26EB
100
AcDbEntity
  8
0
100
AcDbLine
 10
32.49999999999999
 20
-2.499999999999992
 30
0.0
 11
32.49999999999999
 21
0.0
 31
0.0
  0
LINE
  5
271A
330
26EB
100
AcDbEntity
  8
0
100
AcDbLine
 10
-32.50000000000002
 20
0.0
 30
0.0
 11
-32.50000000000002
 21
-2.500000000000007
 31
0.0
  0
ENDBLK
  5
26ED
330
26EB
100
AcDbEntity
  8
0
100
AcDbBlockEnd
  0
BLOCK
  5
271C
330
271B
100
AcDbEntity
  8
0
100
AcDbBlockBegin
  2
ABR90-Bottom
 70
     0
 10
0.0
 20
0.0
 30
0.0
  3
ABR90-Bottom
  1

  0
SPLINE
  5
271E
330
271B
100
AcDbEntity
  8
0
100
AcDbSpline
210
0.0
220
0.0
230
1.0
 70
     8
 71
     3
 72
    11
 73
     7
 74
     0
 42
0.000000001
 43
0.0000000001
 40
0.0
 40
0.0
 40
0.0
 40
0.0
 40
0.0779144739515538
 40
0.0779144739515538
 40
0.0779144739515538
 40
0.0979137919021373
 40
0.0979137919021373
 40
0.0979137919021373
 40
0.0979137919021373
 10
-11.26894735259586
 20
-0.0000000000000108
 30
0.0
 10
-10.67553540691778
 20
-0.0000000000000128
 30
0.0
 10
-10.08214245155667
 20
0.0623681127852543
 30
0.0
 10
-9.501697980644882
 20
0.1857453937626395
 30
0.0
 10
-9.352707774619219
 20
0.217414239677963
 30
0.0
 10
-9.203717568593557
 20
0.2490830855932863
 30
0.0
 10
-9.054727362567895
 20
0.2807519315086095
 30
0.0
  0
SPLINE
  5
271F
330
271B
100
AcDbEntity
  8
0
100
AcDbSpline
210
0.0
220
0.0
230
1.0
 70
     8
 71
     3
 72
    11
 73
     7
 74
     0
 42
0.000000001
 43
0.0000000001
 40
0.3229036450762654
 40
0.3229036450762654
 40
0.3229036450762654
 40
0.3229036450762654
 40
0.390698560826772
 40
0.390698560826772
 40
0.390698560826772
 40
0.5
 40
0.5
 40
0.5
 40
0.5
 10
-4.024487102379374
 20
1.340296701161094
 30
0.0
 10
-3.51652711146276
 20
1.432940915315056
 30
0.0
 10
-3.005368495227127
 20
1.508048068817204
 30
0.0
 10
-2.492226544597065
 20
1.565421549049064
 30
0.0
 10
-1.664920350863738
 20
1.657921169268331
 30
0.0
 10
-0.8324611891720492
 20
1.704313331279927
 30
0.0
 10
-0.0000000000000096
 20
1.704314507205602
 30
0.0
  0
SPLINE
  5
2720
330
271B
100
AcDbEntity
  8
0
100
AcDbSpline
210
0.0
220
0.0
230
1.0
 70
     8
 71
     3
 72
    14
 73
    10
 74
     0
 42
0.000000001
 43
0.0000000001
 40
0.5
 40
0.5
 40
0.5
 40
0.5
 40
0.5013356372641081
 40
0.5013356372641081
 40
0.5013356372641081
 40
0.609302599732791
 40
0.609302599732791
 40
0.609302599732791
 40
0.6777254601947794
 40
0.6777254601947794
 40
0.6777254601947794
 40
0.6777254601947794
 10
-0.0000000000000096
 20
1.704314507205602
 30
0.0
 10
0.0101724762083017
 20
1.70431449988984
 30
0.0
 10
0.0203449517764007
 20
1.704307586775697
 30
0.0
 10
0.0305174182485461
 20
1.704293745922285
 30
0.0
 10
0.8528142613555198
 20
1.703174913031763
 30
0.0
 10
1.675047509964544
 20
1.656789848007595
 30
0.0
 10
2.492252897535998
 20
1.565418602558501
 30
0.0
 10
3.010147713913793
 20
1.507513092996583
 30
0.0
 10
3.526022263509178
 20
1.43154387816765
 30
0.0
 10
4.038627172165814
 20
1.337713085513285
 30
0.0
  0
SPLINE
  5
2721
330
271B
100
AcDbEntity
  8
0
100
AcDbSpline
210
0.0
220
0.0
230
1.0
 70
     8
 71
     3
 72
    11
 73
     7
 74
     0
 42
0.000000001
 43
0.0000000001
 40
0.9017424750409887
 40
0.9017424750409887
 40
0.9017424750409887
 40
0.9017424750409887
 40
0.9220855260484292
 40
0.9220855260484292
 40
0.9220855260484292
 40
1.0
 40
1.0
 40
1.0
 40
1.0
 10
9.047045171741958
 20
0.282384831576607
 30
0.0
 10
9.198596108042798
 20
0.2501716856386247
 30
0.0
 10
9.350147044343637
 20
0.2179585397006423
 30
0.0
 10
9.501697980644477
 20
0.1857453937626599
 30
0.0
 10
10.08214245155639
 20
0.0623681127852291
 30
0.0
 10
10.67553540691763
 20
-0.0000000000000482
 30
0.0
 10
11.26894735259583
 20
-0.0000000000000291
 30
0.0
  0
LINE
  5
2722
330
271B
100
AcDbEntity
  8
0
100
AcDbLine
 10
-11.26894735259585
 20
53.73105264740416
 30
0.0
 11
0.0
 21
53.73105264740416
 31
0.0
  0
LINE
  5
2723
330
271B
100
AcDbEntity
  8
0
100
AcDbLine
 10
0.0
 20
53.73105264740416
 30
0.0
 11
11.26894735259585
 21
53.73105264740416
 31
0.0
  0
ARC
  5
2724
330
271B
100
AcDbEntity
  8
0
100
AcDbCircle
 10
-0.0000000000000003
 20
53.73105264740416
 30
0.0
 40
11.26894735259585
100
AcDbArc
 50
0.0
 51
89.9999999999995
  0
ARC
  5
2725
330
271B
100
AcDbEntity
  8
0
100
AcDbCircle
 10
-0.0000000000000003
 20
53.73105264740416
 30
0.0
 40
11.26894735259585
100
AcDbArc
 50
89.99999999999948
 51
180.0
  0
SPLINE
  5
2726
330
271B
100
AcDbEntity
  8
0
100
AcDbSpline
210
0.0
220
0.0
230
1.0
 70
     8
 71
     3
 72
    28
 73
    24
 74
     0
 42
0.000000001
 43
0.0000000001
 40
0.0
 40
0.0
 40
0.0
 40
0.0
 40
0.0549173456873352
 40
0.0549173456873352
 40
0.4547848511718125
 40
0.4547848511718125
 40
0.8307196313609999
 40
0.8307196313609999
 40
1.182945562764135
 40
1.182945562764135
 40
1.510658895191031
 40
1.510658895191031
 40
1.854978965837222
 40
1.854978965837222
 40
2.226618230196139
 40
2.226618230196139
 40
2.625500812344315
 40
2.625500812344315
 40
3.054619066172413
 40
3.054619066172413
 40
3.266691201191968
 40
3.266691201191968
 40
3.483534230621823
 40
3.483534230621823
 40
3.483534230621823
 40
3.483534230621823
 10
11.26894735259583
 20
-0.0000000000000205
 30
0.0
 10
11.25816965161715
 20
-0.0013399677926425
 30
0.0
 10
11.23849482887755
 20
-0.0026537441079936
 30
0.0
 10
11.00303104762058
 20
-0.0132399167845711
 30
0.0
 10
10.67221286591586
 20
-0.0085232704221909
 30
0.0
 10
9.604979179415291
 20
-0.0063725312335242
 30
0.0
 10
8.905039376435308
 20
-0.0047376848526373
 30
0.0
 10
7.282364521058971
 20
-0.0022148851777425
 30
0.0
 10
6.35767887147017
 20
-0.0012682963673018
 30
0.0
 10
4.405283454870827
 20
-0.0002625366357652
 30
0.0
 10
3.36981957532755
 20
-0.0000893600062465
 30
0.0
 10
1.188109314143237
 20
0.0000272463431027
 30
0.0
 10
0.0091211085950879
 20
0.0000061437424488
 30
0.0
 10
-2.362169731140729
 20
-0.000011011127747
 30
0.0
 10
-3.583645776955345
 20
-0.0000597804604463
 30
0.0
 10
-5.878887166034139
 20
-0.0008924836605453
 30
0.0
 10
-6.97105634738624
 20
-0.0018163799475208
 30
0.0
 10
-8.862335222451219
 20
-0.0045957062898932
 30
0.0
 10
-9.667196928869314
 20
-0.0065401962502652
 30
0.0
 10
-10.50685096391243
 20
-0.0081629066272296
 30
0.0
 10
-10.72046805584066
 20
-0.0086648815553432
 30
0.0
 10
-11.05628064017586
 20
-0.0083695722765981
 30
0.0
 10
-11.18421834837492
 20
-0.0055197585775794
 30
0.0
 10
-11.26894735259586
 20
-0.0000000000000079
 30
0.0
  0
SPLINE
  5
2727
330
271B
100
AcDbEntity
  8
0
100
AcDbSpline
210
0.0
220
0.0
230
1.0
 70
     8
 71
     3
 72
    15
 73
    11
 74
     0
 42
0.000000001
 43
0.0000000001
 40
-0.0001808681850897
 40
-0.0001808681850897
 40
-0.0001808681850897
 40
-0.0001808681850897
 40
0.0965064780919412
 40
0.0965064780919412
 40
0.0965064780919412
 40
0.3423621020636001
 40
0.3423621020636001
 40
0.5606401130724488
 40
0.5606401130724488
 40
0.7743314432968614
 40
0.7743314432968614
 40
0.7743314432968614
 40
0.7743314432968614
 10
-4.848167247369261
 20
3.204849583074197
 30
0.0
 10
-5.05046100696332
 20
2.958315916216105
 30
0.0
 10
-5.266372653540846
 20
2.72301532540558
 30
0.0
 10
-5.494886047371902
 20
2.499999999997352
 30
0.0
 10
-6.075947635981886
 20
1.932918845175049
 30
0.0
 10
-6.735746118371714
 20
1.447958545696617
 30
0.0
 10
-8.094212615559911
 20
0.7156285591385585
 30
0.0
 10
-8.774055307331618
 20
0.4510360321510826
 30
0.0
 10
-10.1689321429149
 20
0.0973531192103317
 30
0.0
 10
-10.87806344942208
 20
0.0059253159040628
 30
0.0
 10
-11.59019167708793
 20
0.0002786687436093
 30
0.0
  0
LINE
  5
2728
330
271B
100
AcDbEntity
  8
0
100
AcDbLine
 10
-11.26894735259586
 20
0.0
 30
0.0
 11
-11.59019167708792
 21
0.000278668743608
 31
0.0
  0
LINE
  5
2729
330
271B
100
AcDbEntity
  8
0
100
AcDbLine
 10
11.59019167728894
 20
0.0002786687420086
 30
0.0
 11
11.26894735259583
 21
0.0
 31
0.0
  0
SPLINE
  5
272A
330
271B
100
AcDbEntity
  8
0
100
AcDbSpline
210
0.0
220
0.0
230
1.0
 70
     8
 71
     3
 72
    13
 73
     9
 74
     0
 42
0.000000001
 43
0.0000000001
 40
0.0
 40
0.0
 40
0.0
 40
0.0
 40
0.0965064780915581
 40
0.0965064780915581
 40
0.0965064780915581
 40
0.4411186801965249
 40
0.4411186801965249
 40
0.7775827673852476
 40
0.7775827673852476
 40
0.7775827673852476
 40
0.7775827673852476
 10
4.848167247369238
 20
3.204849583074195
 30
0.0
 10
5.050844754131737
 20
2.957848246838803
 30
0.0
 10
5.266800122121119
 20
2.722598141787177
 30
0.0
 10
5.494886047369163
 20
2.499999999999998
 30
0.0
 10
6.309351506302471
 20
1.705130708914932
 30
0.0
 10
7.274026754456707
 20
1.075953113207196
 30
0.0
 10
9.367248065255669
 20
0.2289705774147184
 30
0.0
 10
10.47329087387645
 20
0.0091348613363766
 30
0.0
 10
11.59019167724398
 20
0.0002786687423666
 30
0.0
  0
LINE
  5
272B
330
271B
100
AcDbEntity
  8
0
100
AcDbLine
 10
4.848167247368305
 20
3.2048495830745
 30
0.0
 11
2.717960247140236
 21
5.800914553081565
 31
0.0
  0
ELLIPSE
  5
272C
330
271B
100
AcDbEntity
  8
0
100
AcDbEllipse
 10
-0.0000000000000114
 20
3.620558499053294
 30
0.0
 11
-3.5
 21
-0.0000000000003425
 31
0.0
210
0.0
220
0.0
230
1.0
 40
0.988755778393401
 41
3.823201517216395
 42
5.601576443552782
  0
LINE
  5
272D
330
271B
100
AcDbEntity
  8
0
100
AcDbLine
 10
-2.717960247140258
 20
5.800914553081567
 30
0.0
 11
-4.848167247368329
 21
3.204849583074502
 31
0.0
  0
LINE
  5
272E
330
271B
100
AcDbEntity
  8
0
100
AcDbLine
 10
-11.59019167708792
 20
0.0002786687427086
 30
0.0
 11
-11.59019204477542
 21
0.0
 31
0.0
  0
LINE
  5
272F
330
271B
100
AcDbEntity
  8
0
100
AcDbLine
 10
-11.26894735259586
 20
0.0
 30
0.0
 11
-11.59019204477542
 21
0.0
 31
0.0
  0
LINE
  5
2730
330
271B
100
AcDbEntity
  8
0
100
AcDbLine
 10
11.5901920447754
 20
0.0
 30
0.0
 11
11.59019167724395
 21
0.0002786687402288
 31
0.0
  0
LINE
  5
2731
330
271B
100
AcDbEntity
  8
0
100
AcDbLine
 10
11.5901920447754
 20
0.0
 30
0.0
 11
11.26894735259583
 21
0.0
 31
0.0
  0
SPLINE
  5
2732
330
271B
100
AcDbEntity
  8
0
100
AcDbSpline
210
0.0
220
0.0
230
1.0
 70
     8
 71
     3
 72
    18
 73
    14
 74
     0
 42
0.000000001
 43
0.0000000001
 40
0.0
 40
0.0
 40
0.0
 40
0.0
 40
0.2567159514819497
 40
0.2567159514819497
 40
0.3847696085182194
 40
0.3847696085182194
 40
0.4488914965016445
 40
0.4488914965016445
 40
0.4828606985865818
 40
0.4828606985865818
 40
0.501362724859365
 40
0.501362724859365
 40
0.5207406746075179
 40
0.5207406746075179
 40
0.5207406746075179
 40
0.5207406746075179
 10
-4.024487717089654
 20
1.340300406619073
 30
0.0
 10
-4.8653433444553
 20
1.186935257802537
 30
0.0
 10
-5.698942212624599
 20
0.9940197440607059
 30
0.0
 10
-6.95034391127711
 20
0.7279969846927782
 30
0.0
 10
-7.366098795740945
 20
0.6396160668054841
 30
0.0
 10
-7.991177518781849
 20
0.50675906602236
 30
0.0
 10
-8.201148280156921
 20
0.4621353325996422
 30
0.0
 10
-8.520174958851043
 20
0.3943432809605691
 30
0.0
 10
-8.631444615162234
 20
0.3707005181947631
 30
0.0
 10
-8.793943296279222
 20
0.3361720325694777
 30
0.0
 10
-8.849788550599253
 20
0.3243055947196245
 30
0.0
 10
-8.95680697499225
 20
0.3015638148190456
 30
0.0
 10
-9.008156614981402
 20
0.2906508494900021
 30
0.0
 10
-9.054727362567899
 20
0.2807519315086143
 30
0.0
  0
SPLINE
  5
2733
330
271B
100
AcDbEntity
  8
0
100
AcDbSpline
210
0.0
220
0.0
230
1.0
 70
     8
 71
     3
 72
    18
 73
    14
 74
     0
 42
0.000000001
 43
0.0000000001
 40
0.0
 40
0.0
 40
0.0
 40
0.0
 40
0.0307913565207699
 40
0.0307913565207699
 40
0.0592839949611572
 40
0.0592839949611572
 40
0.0964841945699114
 40
0.0964841945699114
 40
0.1759404744529978
 40
0.1759404744529978
 40
0.4140988276791444
 40
0.4140988276791444
 40
0.5183057958197507
 40
0.5183057958197507
 40
0.5183057958197507
 40
0.5183057958197507
 10
9.047045171741958
 20
0.282384831576607
 30
0.0
 10
8.972714342754503
 20
0.2981843370122645
 30
0.0
 10
8.885328669899109
 20
0.3167541977428374
 30
0.0
 10
8.706311472263607
 20
0.3547935188239815
 30
0.0
 10
8.614429607750315
 20
0.3743166278734761
 30
0.0
 10
8.40227244437044
 20
0.4193978340163707
 30
0.0
 10
8.280253728010825
 20
0.4453269579029862
 30
0.0
 10
7.899934000145725
 20
0.5261514423598836
 30
0.0
 10
7.6414840452793
 20
0.5810848684231607
 30
0.0
 10
6.609351357247458
 20
0.8004787235466025
 30
0.0
 10
5.834295058173778
 20
0.9652502240176817
 30
0.0
 10
4.718988023489938
 20
1.202334184564306
 30
0.0
 10
4.379909059824851
 20
1.275243775714129
 30
0.0
 10
4.038627771440319
 20
1.337716695048433
 30
0.0
  0
LINE
  5
2734
330
271B
100
AcDbEntity
  8
0
100
AcDbLine
 10
11.5901920447754
 20
0.0
 30
0.0
 11
11.66047912047398
 21
0.0
 31
0.0
  0
LINE
  5
2735
330
271B
100
AcDbEntity
  8
0
100
AcDbLine
 10
-11.660479120474
 20
0.0
 30
0.0
 11
-11.59019204477542
 21
0.0
 31
0.0
  0
SPLINE
  5
2736
330
271B
100
AcDbEntity
  8
0
100
AcDbSpline
210
0.0
220
0.0
230
1.0
 70
     8
 71
     3
 72
     8
 73
     4
 74
     0
 42
0.000000001
 43
0.0000000001
 40
0.0
 40
0.0
 40
0.0
 40
0.0
 40
0.0070299617764864
 40
0.0070299617764864
 40
0.0070299617764864
 40
0.0070299617764864
 10
11.66047912047795
 20
-0.0000000000000026
 30
0.0
 10
11.63704591455633
 20
-0.0000000000000026
 30
0.0
 10
11.6136165787268
 20
0.0000929266983046
 30
0.0
 10
11.59019167751357
 20
0.0002786687402288
 30
0.0
  0
LINE
  5
2737
330
271B
100
AcDbEntity
  8
0
100
AcDbLine
 10
11.58689241817329
 20
17.29815676761058
 30
0.0
 11
11.59019167697436
 21
16.92009915516823
 31
0.0
  0
LINE
  5
2738
330
271B
100
AcDbEntity
  8
0
100
AcDbLine
 10
-11.59019167697431
 20
16.92009915517429
 30
0.0
 11
-11.58689241817329
 21
17.29815676761064
 31
0.0
  0
LINE
  5
2739
330
271B
100
AcDbEntity
  8
0
100
AcDbLine
 10
-16.37975215216208
 20
0.0
 30
0.0
 11
-11.660479120474
 21
0.0
 31
0.0
  0
SPLINE
  5
273A
330
271B
100
AcDbEntity
  8
0
100
AcDbSpline
210
0.0
220
0.0
230
1.0
 70
     8
 71
     3
 72
     8
 73
     4
 74
     0
 42
0.000000001
 43
0.0000000001
 40
0.7743314433082233
 40
0.7743314433082233
 40
0.7743314433082233
 40
0.7743314433082233
 40
0.7813610109479038
 40
0.7813610109479038
 40
0.7813610109479038
 40
0.7813610109479038
 10
-11.59019167720152
 20
0.0002786687427086
 30
0.0
 10
-11.61361777286599
 20
0.0000929172288498
 30
0.0
 10
-11.63704711167587
 20
0.0000000000000026
 30
0.0
 10
-11.66047912047798
 20
0.0000000000000026
 30
0.0
  0
LINE
  5
273B
330
271B
100
AcDbEntity
  8
0
100
AcDbLine
 10
11.66047912047398
 20
0.0
 30
0.0
 11
16.37975215216206
 21
0.0
 31
0.0
  0
LINE
  5
273C
330
271B
100
AcDbEntity
  8
0
100
AcDbLine
 10
30.06218092857982
 20
2.499999999999993
 30
0.0
 11
32.49999999999999
 21
2.499999999999992
 31
0.0
  0
LINE
  5
273D
330
271B
100
AcDbEntity
  8
0
100
AcDbLine
 10
-32.50000000000002
 20
2.500000000000007
 30
0.0
 11
-30.06218092857982
 21
2.500000000000006
 31
0.0
  0
LINE
  5
273E
330
271B
100
AcDbEntity
  8
0
100
AcDbLine
 10
-30.06218092857982
 20
0.0
 30
0.0
 11
-32.50000000000002
 21
0.0
 31
0.0
  0
LINE
  5
273F
330
271B
100
AcDbEntity
  8
0
100
AcDbLine
 10
32.49999999999999
 20
0.0
 30
0.0
 11
30.06218092857982
 21
0.0
 31
0.0
  0
SPLINE
  5
2740
330
271B
100
AcDbEntity
  8
0
100
AcDbSpline
210
0.0
220
0.0
230
1.0
 70
     8
 71
     3
 72
     8
 73
     4
 74
     0
 42
0.000000001
 43
0.0000000001
 40
0.0
 40
0.0
 40
0.0
 40
0.0
 40
1.0
 40
1.0
 40
1.0
 40
1.0
 10
-30.06218092858132
 20
6.50000000127462
 30
0.0
 10
-29.97927968276502
 20
3.097701419945526
 30
0.0
 10
-29.9792796827634
 20
-0.0000000002309661
 30
0.0
 10
-30.06218092857981
 20
0.0000000000000067
 30
0.0
  0
LINE
  5
2741
330
271B
100
AcDbEntity
  8
0
100
AcDbLine
 10
30.06218092858127
 20
6.500000001000455
 30
0.0
 11
32.50000000000001
 21
85.00000000000001
 31
0.0
  0
LINE
  5
2742
330
271B
100
AcDbEntity
  8
0
100
AcDbLine
 10
-32.5
 20
85.0
 30
0.0
 11
-30.06218092858132
 21
6.500000001000092
 31
0.0
  0
SPLINE
  5
2743
330
271B
100
AcDbEntity
  8
0
100
AcDbSpline
210
0.0
220
0.0
230
1.0
 70
     8
 71
     3
 72
     8
 73
     4
 74
     0
 42
0.000000001
 43
0.0000000001
 40
0.0
 40
0.0
 40
0.0
 40
0.0
 40
1.0
 40
1.0
 40
1.0
 40
1.0
 10
30.06218092857983
 20
-0.0000000000000067
 30
0.0
 10
29.97927968276345
 20
-0.0000000002308419
 30
0.0
 10
29.97927968276361
 20
3.097701419946257
 30
0.0
 10
30.06218092858134
 20
6.500000001275367
 30
0.0
  0
SPLINE
  5
2744
330
271B
100
AcDbEntity
  8
0
100
AcDbSpline
210
0.0
220
0.0
230
1.0
 70
     8
 71
     3
 72
     8
 73
     4
 74
     0
 42
0.000000001
 43
0.0000000001
 40
-1.0
 40
-1.0
 40
-1.0
 40
-1.0
 40
-0.6487837449197304
 40
-0.6487837449197304
 40
-0.6487837449197304
 40
-0.6487837449197304
 10
-30.06218092857981
 20
2.500000000000006
 30
0.0
 10
-30.03306466348269
 20
2.499999999950085
 30
0.0
 10
-30.01417450397509
 20
2.735144814004406
 30
0.0
 10
-30.0055104500569
 20
3.130968514307382
 30
0.0
  0
SPLINE
  5
2745
330
271B
100
AcDbEntity
  8
0
100
AcDbSpline
210
0.0
220
0.0
230
1.0
 70
     8
 71
     3
 72
     8
 73
     4
 74
     0
 42
0.000000001
 43
0.0000000001
 40
-0.351216255080552
 40
-0.351216255080552
 40
-0.351216255080552
 40
-0.351216255080552
 40
0.0
 40
0.0
 40
0.0
 40
0.0
 10
30.00551045005656
 20
3.130968514308491
 30
0.0
 10
30.01417450397492
 20
2.735144814004866
 30
0.0
 10
30.03306466348269
 20
2.499999999950102
 30
0.0
 10
30.06218092857983
 20
2.499999999999993
 30
0.0
  0
LINE
  5
2746
330
271B
100
AcDbEntity
  8
0
100
AcDbLine
 10
32.49999999999999
 20
2.499999999999992
 30
0.0
 11
32.49999999999999
 21
0.0
 31
0.0
  0
LINE
  5
2747
330
271B
100
AcDbEntity
  8
0
100
AcDbLine
 10
-32.50000000000002
 20
0.0
 30
0.0
 11
-32.50000000000002
 21
2.500000000000007
 31
0.0
  0
SPLINE
  5
2748
330
271B
100
AcDbEntity
  8
0
100
AcDbSpline
210
0.0
220
0.0
230
1.0
 70
     8
 71
     3
 72
    12
 73
     8
 74
     0
 42
0.000000001
 43
0.0000000001
 40
0.0
 40
0.0
 40
0.0
 40
0.0
 40
0.3422787050785358
 40
0.3422787050785358
 40
0.5606496175828493
 40
0.5606496175828493
 40
0.7743310113868361
 40
0.7743310113868361
 40
0.7743310113868361
 40
0.7743310113868361
 10
-4.848167247369245
 20
17.40475815018046
 30
0.0
 10
-5.567001836871087
 20
17.27226631762028
 30
0.0
 10
-6.452852585171882
 20
17.16212909718985
 30
0.0
 10
-8.093726086325041
 20
17.0283166034556
 30
0.0
 10
-8.773849352985298
 20
16.98827828601155
 30
0.0
 10
-10.16899803864288
 20
16.93477939881282
 30
0.0
 10
-10.87809659381585
 20
16.92095311379915
 30
0.0
 10
-11.59019167708791
 20
16.9200991551764
 30
0.0
  0
LINE
  5
2749
330
271B
100
AcDbEntity
  8
0
100
AcDbLine
 10
-4.848167247368313
 20
17.40475815018612
 30
0.0
 11
-2.717960247140256
 21
17.79738676504506
 31
0.0
  0
ELLIPSE
  5
274A
330
271B
100
AcDbEntity
  8
0
100
AcDbEllipse
 10
-0.0000000000000083
 20
17.4676299264085
 30
0.0
 11
3.5
 21
-0.0000000000000546
 31
0.0
210
0.0
220
0.0
230
1.0
 40
0.1495393282506608
 41
0.6816088636321922
 42
2.459983789968578
  0
LINE
  5
274B
330
271B
100
AcDbEntity
  8
0
100
AcDbLine
 10
2.717960247140239
 20
17.79738676504506
 30
0.0
 11
4.848167247368295
 21
17.40475815018613
 31
0.0
  0
SPLINE
  5
274C
330
271B
100
AcDbEntity
  8
0
100
AcDbSpline
210
0.0
220
0.0
230
1.0
 70
     8
 71
     3
 72
    12
 73
     8
 74
     0
 42
0.000000001
 43
0.0000000001
 40
0.0070300508817168
 40
0.0070300508817168
 40
0.0070300508817168
 40
0.0070300508817168
 40
0.3391043219297351
 40
0.3391043219297351
 40
0.5609500886101634
 40
0.5609500886101634
 40
0.781229059973255
 40
0.781229059973255
 40
0.781229059973255
 40
0.781229059973255
 10
11.59019167728894
 20
16.92009915517616
 30
0.0
 10
10.48369774228627
 20
16.92142608476227
 30
0.0
 10
9.387757498725477
 20
16.95406604711419
 30
0.0
 10
7.67612648167074
 20
17.05776752205333
 30
0.0
 10
7.028315477637791
 20
17.11208272423895
 30
0.0
 10
5.843766775039647
 20
17.24327215056983
 30
0.0
 10
5.310861723279939
 20
17.31947672393277
 30
0.0
 10
4.848167247369229
 20
17.40475815018045
 30
0.0
  0
LINE
  5
274D
330
271B
100
AcDbEntity
  8
0
100
AcDbLine
 10
11.26894735259585
 20
53.73105264740416
 30
0.0
 11
11.58689241817329
 21
17.2981567676106
 31
0.0
  0
LINE
  5
274E
330
271B
100
AcDbEntity
  8
0
100
AcDbLine
 10
-11.58689241817329
 20
17.29815676761059
 30
0.0
 11
-11.26894735259585
 21
53.73105264740416
 31
0.0
  0
LINE
  5
274F
330
271B
100
AcDbEntity
  8
0
100
AcDbLine
 10
-30.06218092857982
 20
0.0
 30
0.0
 11
-16.37975215216208
 21
0.0
 31
0.0
  0
LINE
  5
2750
330
271B
100
AcDbEntity
  8
0
100
AcDbLine
 10
16.37975215216202
 20
0.0
 30
0.0
 11
30.06218092857982
 21
0.0
 31
0.0
  0
LINE
  5
2751
330
271B
100
AcDbEntity
  8
0
100
AcDbLine
 10
27.5
 20
90.0
 30
0.0
 11
32.50000000000001
 21
85.00000000000001
 31
0.0
  0
LINE
  5
2752
330
271B
100
AcDbEntity
  8
0
100
AcDbLine
 10
-32.5
 20
85.0
 30
0.0
 11
-27.5
 21
90.0
 31
0.0
  0
LINE
  5
2753
330
271B
100
AcDbEntity
  8
0
100
AcDbLine
 10
-27.5
 20
90.0
 30
0.0
 11
27.5
 21
90.0
 31
0.0
  0
CIRCLE
  5
2754
330
271B
100
AcDbEntity
  8
0
100
AcDbCircle
 10
15.8696114490445
 20
32.5
 30
0.0
 40
2.5
  0
CIRCLE
  5
2755
330
271B
100
AcDbEntity
  8
0
100
AcDbCircle
 10
20.32614859872601
 20
15.0
 30
0.0
 40
2.5
  0
CIRCLE
  5
2756
330
271B
100
AcDbEntity
  8
0
100
AcDbCircle
 10
-20.32614859872603
 20
15.0
 30
0.0
 40
2.5
  0
CIRCLE
  5
2757
330
271B
100
AcDbEntity
  8
0
100
AcDbCircle
 10
-15.86961144904451
 20
32.50000000000001
 30
0.0
 40
2.5
  0
CIRCLE
  5
2758
330
271B
100
AcDbEntity
  8
0
100
AcDbCircle
 10
21.41307429936301
 20
50.0
 30
0.0
 40
2.5
  0
CIRCLE
  5
2759
330
271B
100
AcDbEntity
  8
0
100
AcDbCircle
 10
19.90683493994541
 20
82.0
 30
0.0
 40
2.5
  0
CIRCLE
  5
275A
330
271B
100
AcDbEntity
  8
0
100
AcDbCircle
 10
11.95653714968151
 20
67.5
 30
0.0
 40
2.5
  0
CIRCLE
  5
275B
330
271B
100
AcDbEntity
  8
0
100
AcDbCircle
 10
0.000000000000005
 20
77.5
 30
0.0
 40
5.5
  0
CIRCLE
  5
275C
330
271B
100
AcDbEntity
  8
0
100
AcDbCircle
 10
-11.9565371496815
 20
67.5
 30
0.0
 40
2.5
  0
CIRCLE
  5
275D
330
271B
100
AcDbEntity
  8
0
100
AcDbCircle
 10
-19.90683493994539
 20
82.0
 30
0.0
 40
2.5
  0
CIRCLE
  5
275E
330
271B
100
AcDbEntity
  8
0
100
AcDbCircle
 10
-21.41307429936301
 20
50.0
 30
0.0
 40
2.5
  0
ENDBLK
  5
271D
330
271B
100
AcDbEntity
  8
0
100
AcDbBlockEnd
  0
BLOCK
  5
2760
330
275F
100
AcDbEntity
  8
0
100
AcDbBlockBegin
  2
ABR90-ISO
 70
     0
 10
0.0
 20
0.0
 30
0.0
  3
ABR90-ISO
  1

  0
SPLINE
  5
2762
330
275F
100
AcDbEntity
  8
0
100
AcDbSpline
210
0.0
220
0.0
230
1.0
 70
     8
 71
     3
 72
    23
 73
    19
 74
     0
 42
0.000000001
 43
0.0000000001
 40
0.0
 40
0.0
 40
0.0
 40
0.0
 40
0.0549984522010962
 40
0.0549984522010962
 40
0.0549984522010962
 40
0.1935475736092407
 40
0.1935475736092407
 40
0.1935475736092407
 40
0.2714898027064927
 40
0.2714898027064927
 40
0.2714898027064927
 40
0.3124220589415433
 40
0.3124220589415433
 40
0.3124220589415433
 40
0.4073566040977041
 40
0.4073566040977041
 40
0.4073566040977041
 40
0.5
 40
0.5
 40
0.5
 40
0.5
 10
37.9828482944781
 20
19.90057163652814
 30
0.0
 10
37.68665609860087
 20
20.07157828054973
 30
0.0
 10
37.35934332345421
 20
20.22460650467356
 30
0.0
 10
37.00804181744897
 20
20.35632196273321
 30
0.0
 10
36.12306209423024
 20
20.6881324093856
 30
0.0
 10
35.2380823710115
 20
21.019942856038
 30
0.0
 10
34.35310264779277
 20
21.35175330269039
 30
0.0
 10
33.85524822885106
 20
21.53841667223755
 30
0.0
 10
33.35739380990934
 20
21.72508004178471
 30
0.0
 10
32.85953939096763
 20
21.91174341133187
 30
0.0
 10
32.5980854284636
 20
22.00977182238064
 30
0.0
 10
32.3398167884785
 20
22.11063210627464
 30
0.0
 10
32.08491518460991
 20
22.21425329936518
 30
0.0
 10
31.49371963252794
 20
22.45458285212911
 30
0.0
 10
30.92064592304105
 20
22.70977124262257
 30
0.0
 10
30.36786097261077
 20
22.97885354798311
 30
0.0
 10
29.82841692800822
 20
23.24144182398752
 30
0.0
 10
29.30829455213203
 20
23.51726060681261
 30
0.0
 10
28.80936685930367
 20
23.80531664457323
 30
0.0
  0
ELLIPSE
  5
2763
330
275F
100
AcDbEntity
  8
0
100
AcDbEllipse
 10
30.01449920462338
 20
24.50110012855269
 30
0.0
 11
5.634473676297346
 21
-9.759194681257746
 31
0.0
210
0.0
220
0.0
230
1.0
 40
0.5773502691896259
 41
0.785398163397689
 42
2.35619449019258
  0
ELLIPSE
  5
2764
330
275F
100
AcDbEntity
  8
0
100
AcDbEllipse
 10
30.01449920462338
 20
24.50110012855269
 30
0.0
 11
-5.634473676297927
 21
9.759194681257408
 31
0.0
210
0.0
220
0.0
230
1.0
 40
0.5773502691896259
 41
5.497787143782132
 42
7.068583470577034
  0
SPLINE
  5
2765
330
275F
100
AcDbEntity
  8
0
100
AcDbSpline
210
0.0
220
0.0
230
1.0
 70
     8
 71
     3
 72
    23
 73
    19
 74
     0
 42
0.000000001
 43
0.0000000001
 40
0.5
 40
0.5
 40
0.5
 40
0.5
 40
0.5949348083341239
 40
0.5949348083341239
 40
0.5949348083341239
 40
0.6875784610628488
 40
0.6875784610628488
 40
0.6875784610628488
 40
0.7285101972935038
 40
0.7285101972935038
 40
0.7285101972935038
 40
0.8064536112417728
 40
0.8064536112417728
 40
0.8064536112417728
 40
0.9450015477989028
 40
0.9450015477989028
 40
0.9450015477989028
 40
1.0
 40
1.0
 40
1.0
 40
1.0
 10
28.80936685930367
 20
23.80531664457323
 30
0.0
 10
28.29809884683573
 20
24.10049736919964
 30
0.0
 10
27.80908853885339
 20
24.40852802170351
 30
0.0
 10
27.34418500003567
 20
24.72824386467483
 30
0.0
 10
26.89050143803805
 20
25.04024368905812
 30
0.0
 10
26.45977522769229
 20
25.36337059435
 30
0.0
 10
26.05355746709792
 20
25.69646096079236
 30
0.0
 10
25.87408269749289
 20
25.84362665016899
 30
0.0
 10
25.69938984298018
 20
25.9927362480405
 30
0.0
 10
25.52960181147723
 20
26.14368484599382
 30
0.0
 10
25.2062864566552
 20
26.43112559829631
 30
0.0
 10
24.88297110183317
 20
26.71856635059879
 30
0.0
 10
24.55965574701114
 20
27.00600710290129
 30
0.0
 10
23.9849481097814
 20
27.51694601481974
 30
0.0
 10
23.41024047255167
 20
28.02788492673819
 30
0.0
 10
22.83553283532194
 20
28.53882383865665
 30
0.0
 10
22.6073949698204
 20
28.7416478577155
 30
0.0
 10
22.34234231064589
 20
28.93062197655562
 30
0.0
 10
22.04615011476866
 20
29.10162862057721
 30
0.0
  0
SPLINE
  5
2766
330
275F
100
AcDbEntity
  8
0
100
AcDbSpline
210
0.0
220
0.0
230
1.0
 70
     8
 71
     3
 72
    23
 73
    19
 74
     0
 42
0.000000001
 43
0.0000000001
 40
0.0
 40
0.0
 40
0.0
 40
0.0
 40
0.0549984522010962
 40
0.0549984522010962
 40
0.0549984522010962
 40
0.1935475736092407
 40
0.1935475736092407
 40
0.1935475736092407
 40
0.2714898027064927
 40
0.2714898027064927
 40
0.2714898027064927
 40
0.3124220589415433
 40
0.3124220589415433
 40
0.3124220589415433
 40
0.4073566040977041
 40
0.4073566040977041
 40
0.4073566040977041
 40
0.5
 40
0.5
 40
0.5
 40
0.5
 10
1.757023560173607
 20
-42.84439734937257
 30
0.0
 10
1.460831364296382
 20
-42.673390705351
 30
0.0
 10
1.164648647135799
 20
-42.46644363915272
 30
0.0
 10
0.8749289613824151
 20
-42.22806533959428
 30
0.0
 10
0.1450828237310153
 20
-41.62755564077892
 30
0.0
 10
-0.5847633139203845
 20
-41.02704594196358
 30
0.0
 10
-1.314609451571784
 20
-40.42653624314823
 30
0.0
 10
-1.725191881026479
 20
-40.08871335373194
 30
0.0
 10
-2.135774310481188
 20
-39.75089046431566
 30
0.0
 10
-2.546356739935884
 20
-39.41306757489938
 30
0.0
 10
-2.76197881544876
 20
-39.23565600697517
 30
0.0
 10
-2.978460703526422
 20
-39.06241894569422
 30
0.0
 10
-3.195650091047572
 20
-38.89347827782388
 30
0.0
 10
-3.699379365062278
 20
-38.5016526874985
 30
0.0
 10
-4.206915848723919
 20
-38.13295049208861
 30
0.0
 10
-4.716340436090171
 20
-37.78876583486653
 30
0.0
 10
-5.213470576147227
 20
-37.4528877263227
 30
0.0
 10
-5.712397836852751
 20
-37.14035792714975
 30
0.0
 10
-6.211325529681119
 20
-36.85230188938913
 30
0.0
  0
SPLINE
  5
2767
330
275F
100
AcDbEntity
  8
0
100
AcDbSpline
210
0.0
220
0.0
230
1.0
 70
     8
 71
     3
 72
    23
 73
    19
 74
     0
 42
0.000000001
 43
0.0000000001
 40
0.5
 40
0.5
 40
0.5
 40
0.5
 40
0.5949348083341239
 40
0.5949348083341239
 40
0.5949348083341239
 40
0.6875784610628488
 40
0.6875784610628488
 40
0.6875784610628488
 40
0.7285101972935038
 40
0.7285101972935038
 40
0.7285101972935038
 40
0.8064536112417728
 40
0.8064536112417728
 40
0.8064536112417728
 40
0.9450015477989028
 40
0.9450015477989028
 40
0.9450015477989028
 40
1.0
 40
1.0
 40
1.0
 40
1.0
 10
-6.211325529681119
 20
-36.85230188938913
 30
0.0
 10
-6.722593542149062
 20
-36.55712116476273
 30
0.0
 10
-7.233861066352877
 20
-36.28764114158951
 30
0.0
 10
-7.743194877767263
 20
-36.04488078814974
 30
0.0
 10
-8.240236432658271
 20
-35.80797921037202
 30
0.0
 10
-8.735435646460182
 20
-35.59652282278273
 30
0.0
 10
-9.227009245852318
 20
-35.41127310586077
 30
0.0
 10
-9.444195856220435
 20
-35.32942624073277
 30
0.0
 10
-9.660674983181603
 20
-35.2526925898009
 30
0.0
 10
-9.876294319426296
 20
-35.18112614023745
 30
0.0
 10
-10.28688299041418
 20
-35.04484720567923
 30
0.0
 10
-10.69747166140205
 20
-34.90856827112102
 30
0.0
 10
-11.10806033238993
 20
-34.77228933656281
 30
0.0
 10
-11.83790022850817
 20
-34.53004737893216
 30
0.0
 10
-12.56774012462639
 20
-34.2878054213015
 30
0.0
 10
-13.29758002074462
 20
-34.04556346367085
 30
0.0
 10
-13.58729970649801
 20
-33.94940228611079
 30
0.0
 10
-13.8834824236586
 20
-33.8143470093451
 30
0.0
 10
-14.17967461953582
 20
-33.64334036532352
 30
0.0
  0
ELLIPSE
  5
2768
330
275F
100
AcDbEntity
  8
0
100
AcDbEllipse
 10
-6.211325529681119
 20
-38.24386885734806
 30
0.0
 11
-11.26894735259585
 21
0.0
 31
0.0
210
0.0
220
0.0
230
1.0
 40
0.577350269189626
 41
5.497787143782137
 42
7.068583470577039
  0
ELLIPSE
  5
2769
330
275F
100
AcDbEntity
  8
0
100
AcDbEllipse
 10
-6.211325529681119
 20
-38.24386885734806
 30
0.0
 11
-11.26894735259585
 21
0.0000000000006745
 31
0.0
210
0.0
220
0.0
230
1.0
 40
0.577350269189626
 41
0.785398163397697
 42
2.356194490192587
  0
SPLINE
  5
276A
330
275F
100
AcDbEntity
  8
0
100
AcDbSpline
210
0.0
220
0.0
230
1.0
 70
     8
 71
     3
 72
    12
 73
     8
 74
     0
 42
0.000000001
 43
0.0000000001
 40
0.0
 40
0.0
 40
0.0
 40
0.0
 40
0.2383297850252353
 40
0.2383297850252353
 40
0.3947543338849353
 40
0.3947543338849353
 40
0.5503337433002429
 40
0.5503337433002429
 40
0.5503337433002429
 40
0.5503337433002429
 10
38.20766940641489
 20
-9.976563812255749
 30
0.0
 10
37.64592071591463
 20
-9.652238054578509
 30
0.0
 10
36.98109742135287
 20
-9.374192125996277
 30
0.0
 10
35.77271877693172
 20
-9.015597683992636
 30
0.0
 10
35.27050375576204
 20
-8.901348606739162
 30
0.0
 10
34.24642920785647
 20
-8.734536118179766
 30
0.0
 10
33.72854449848603
 20
-8.682270549210318
 30
0.0
 10
33.21579834347343
 20
-8.662264700449082
 30
0.0
  0
LINE
  5
276B
330
275F
100
AcDbEntity
  8
0
100
AcDbLine
 10
37.9828482944781
 20
19.90057163652816
 30
0.0
 11
38.20766940639285
 21
-9.976563812103487
 31
0.0
  0
LINE
  5
276C
330
275F
100
AcDbEntity
  8
0
100
AcDbLine
 10
21.82132900285391
 20
-0.5159057690874392
 30
0.0
 11
22.04615011476866
 21
29.10162862057723
 31
0.0
  0
SPLINE
  5
276D
330
275F
100
AcDbEntity
  8
0
100
AcDbSpline
210
0.0
220
0.0
230
1.0
 70
     8
 71
     3
 72
    12
 73
     8
 74
     0
 42
0.000000001
 43
0.0000000001
 40
0.1887030953854696
 40
0.1887030953854696
 40
0.1887030953854696
 40
0.1887030953854696
 40
0.2420318189909772
 40
0.2420318189909772
 40
0.3958209345276102
 40
0.3958209345276102
 40
0.550491411758263
 40
0.550491411758263
 40
0.550491411758263
 40
0.550491411758263
 10
23.51332852932742
 20
-2.197762186390785
 30
0.0
 10
23.47728643584777
 20
-2.109892168881988
 30
0.0
 10
23.43379967728406
 20
-2.021995611676288
 30
0.0
 10
23.23620199973547
 20
-1.681479351914425
 30
0.0
 10
23.02939625678443
 20
-1.432846206545981
 30
0.0
 10
22.50359225991815
 20
-0.9543668890965628
 30
0.0
 10
22.18585095756982
 20
-0.726362617907741
 30
0.0
 10
21.82132900283188
 20
-0.5159057692142599
 30
0.0
  0
ELLIPSE
  5
276E
330
275F
100
AcDbEntity
  8
0
100
AcDbEllipse
 10
29.22214469122657
 20
-5.565326627480375
 30
0.0
 11
-5.9560052961928
 21
0.7252592031290302
 31
0.0
210
0.0
220
0.0
230
1.0
 40
0.4845218433982714
 41
0.012928491233335
 42
0.84998361910304
  0
ELLIPSE
  5
276F
330
275F
100
AcDbEntity
  8
0
100
AcDbEllipse
 10
29.22214469122657
 20
-5.565326627480375
 30
0.0
 11
5.956005296192837
 21
-0.7252592031287297
 31
0.0
210
0.0
220
0.0
230
1.0
 40
0.4845218433982714
 41
3.991576272692523
 42
4.880763735860886
  0
LINE
  5
2770
330
275F
100
AcDbEntity
  8
0
100
AcDbLine
 10
29.87381938358737
 20
-8.531870498598701
 30
0.0
 11
33.21579834347331
 21
-8.66226470044854
 31
0.0
  0
SPLINE
  5
2771
330
275F
100
AcDbEntity
  8
0
100
AcDbSpline
210
0.0
220
0.0
230
1.0
 70
     8
 71
     3
 72
    98
 73
    94
 74
     0
 42
0.000000001
 43
0.0000000001
 40
0.0
 40
0.0
 40
0.0
 40
0.0
 40
0.4065768385575152
 40
0.4065768385575152
 40
0.4256349225537128
 40
0.4256349225537128
 40
0.4307170780487043
 40
0.4307170780487043
 40
0.4308495055732588
 40
0.4308495055732588
 40
0.4309722527797942
 40
0.4309722527797942
 40
0.431086021816715
 40
0.431086021816715
 40
0.431191464666626
 40
0.431191464666626
 40
0.4312891866243839
 40
0.4312891866243839
 40
0.4313797495487474
 40
0.4313797495487474
 40
0.4314636749002563
 40
0.4314636749002563
 40
0.431541446577668
 40
0.431541446577668
 40
0.4316135135647424
 40
0.4316135135647424
 40
0.4316802923987323
 40
0.4316802923987323
 40
0.4317421694714549
 40
0.4317421694714549
 40
0.4317995031732751
 40
0.4317995031732751
 40
0.4318526258899027
 40
0.4318526258899027
 40
0.4319018458613276
 40
0.4319018458613276
 40
0.4319474489118031
 40
0.4319474489118031
 40
0.4319897000592616
 40
0.4319897000592616
 40
0.432028845012072
 40
0.432028845012072
 40
0.4320651115606485
 40
0.4320651115606485
 40
0.432098710870905
 40
0.432098710870905
 40
0.4321298386862187
 40
0.4321298386862187
 40
0.4321586764440625
 40
0.4321586764440625
 40
0.4321853923131859
 40
0.4321853923131859
 40
0.4322101421567697
 40
0.4322101421567697
 40
0.4322330704266861
 40
0.4322330704266861
 40
0.4322543109936461
 40
0.4322543109936461
 40
0.4322739879177062
 40
0.4322739879177062
 40
0.4322922161633155
 40
0.4322922161633155
 40
0.4323091022627946
 40
0.4323091022627946
 40
0.4323247449319063
 40
0.4323247449319063
 40
0.4323392356408855
 40
0.4323392356408855
 40
0.4323526591441132
 40
0.4323526591441132
 40
0.4323650939713629
 40
0.4323650939713629
 40
0.4323766128833798
 40
0.4323766128833798
 40
0.4323872832943473
 40
0.4323872832943473
 40
0.6287031685514063
 40
0.6287031685514063
 40
0.7101117348947886
 40
0.7101117348947886
 40
0.7915048215472904
 40
0.7915048215472904
 40
0.7965869933061184
 40
0.7965869933061184
 40
0.79785753242641
 40
0.79785753242641
 40
0.7984928018922167
 40
0.7984928018922167
 40
0.7988104366133767
 40
0.7988104366133767
 40
0.7990010174445726
 40
0.7990010174445726
 40
0.8185091861571123
 40
0.8185091861571123
 40
0.8185091861571123
 40
0.8185091861571123
 10
23.26209415297292
 20
-4.877436225816951
 30
0.0
 10
23.37546213753878
 20
-3.681280723875843
 30
0.0
 10
23.48788240093516
 20
-2.482720831007629
 30
0.0
 10
23.60279205618982
 20
-1.223623000426503
 30
0.0
 10
23.60793124559957
 20
-1.167236750922011
 30
0.0
 10
23.6144330511615
 20
-1.095802091151751
 30
0.0
 10
23.6158014124612
 20
-1.080762537619939
 30
0.0
 10
23.61720497403758
 20
-1.065330392761876
 30
0.0
 10
23.61724061804062
 20
-1.064938483542816
 30
0.0
 10
23.61730929992507
 20
-1.064183312378654
 30
0.0
 10
23.61734233784895
 20
-1.063820050498873
 30
0.0
 10
23.6174059966855
 20
-1.06312009624464
 30
0.0
 10
23.61743661763469
 20
-1.062783403926332
 30
0.0
 10
23.61749561810984
 20
-1.062134659457698
 30
0.0
 10
23.61752399766722
 20
-1.06182260735564
 30
0.0
 10
23.61757867836346
 20
-1.061221352125101
 30
0.0
 10
23.61760497952934
 20
-1.060932149038098
 30
0.0
 10
23.6176556547418
 20
-1.060374929167038
 30
0.0
 10
23.6176800288116
 20
-1.060106912418639
 30
0.0
 10
23.61772699024545
 20
-1.059590522090956
 30
0.0
 10
23.61774957762943
 20
-1.05934214854231
 30
0.0
 10
23.61779309598484
 20
-1.058863612625742
 30
0.0
 10
23.6178140269734
 20
-1.058633450284138
 30
0.0
 10
23.61785435342477
 20
-1.058190008108201
 30
0.0
 10
23.6178737489023
 20
-1.057976728296479
 30
0.0
 10
23.61791111647787
 20
-1.057565818518539
 30
0.0
 10
23.61792908858854
 20
-1.057368188571743
 30
0.0
 10
23.61796371345657
 20
-1.056987435065577
 30
0.0
 10
23.61798036622478
 20
-1.056804311522876
 30
0.0
 10
23.61801244889203
 20
-1.056451510227032
 30
0.0
 10
23.6180278788004
 20
-1.056281832488203
 30
0.0
 10
23.61805760522843
 20
-1.055954939154346
 30
0.0
 10
23.61807190175611
 20
-1.055797723571623
 30
0.0
 10
23.61809944440057
 20
-1.055494842356108
 30
0.0
 10
23.61811269052423
 20
-1.055349176733884
 30
0.0
 10
23.61813820930207
 20
-1.055068549578559
 30
0.0
 10
23.61815048196215
 20
-1.054933588054531
 30
0.0
 10
23.61817412515158
 20
-1.05467358480566
 30
0.0
 10
23.61818549568597
 20
-1.054548543088615
 30
0.0
 10
23.61820740076336
 20
-1.054307652305832
 30
0.0
 10
23.61821793531069
 20
-1.054191803246786
 30
0.0
 10
23.6182382297288
 20
-1.053968623656345
 30
0.0
 10
23.61824798960332
 20
-1.053861293130697
 30
0.0
 10
23.61826679151469
 20
-1.053654525680238
 30
0.0
 10
23.61827583355474
 20
-1.053555088760353
 30
0.0
 10
23.61829325248383
 20
-1.053363529234734
 30
0.0
 10
23.61830162937561
 20
-1.053271406633229
 30
0.0
 10
23.61831776684336
 20
-1.053093938793525
 30
0.0
 10
23.61832552742169
 20
-1.053008593558963
 30
0.0
 10
23.61834047752564
 20
-1.052844182769008
 30
0.0
 10
23.61834766705328
 20
-1.052765117216736
 30
0.0
 10
23.61836151700626
 20
-1.052612804523782
 30
0.0
 10
23.61836817743333
 20
-1.052539557385783
 30
0.0
 10
23.61838100806369
 20
-1.052398454024026
 30
0.0
 10
23.61838717826847
 20
-1.052330597802573
 30
0.0
 10
23.61839906448445
 20
-1.052199880090238
 30
0.0
 10
23.61840478049693
 20
-1.052137018601326
 30
0.0
 10
23.61841579171766
 20
-1.052015923203941
 30
0.0
 10
23.618421086927
 20
-1.051957689297153
 30
0.0
 10
23.61843128748249
 20
-1.051845508831388
 30
0.0
 10
23.61843619282957
 20
-1.051791562273864
 30
0.0
 10
23.6184456423319
 20
-1.051687641228098
 30
0.0
 10
23.61845018648795
 20
-1.051637666741103
 30
0.0
 10
23.6184589401756
 20
-1.051541397690305
 30
0.0
 10
23.61846314970791
 20
-1.051495103127573
 30
0.0
 10
23.61847125876529
 20
-1.051405923221788
 30
0.0
 10
23.61847515829096
 20
-1.05136303787966
 30
0.0
 10
23.61848267014468
 20
-1.051280425586644
 30
0.0
 10
23.61848628247324
 20
-1.051240698636561
 30
0.0
 10
23.61849324106696
 20
-1.051164170720544
 30
0.0
 10
23.61849658733256
 20
-1.051127369755291
 30
0.0
 10
23.6185030333819
 20
-1.051056478474963
 30
0.0
 10
23.61850613316601
 20
-1.05102238816046
 30
0.0
 10
23.61851210439489
 20
-1.050956718670492
 30
0.0
 10
23.61851497583997
 20
-1.050925139495533
 30
0.0
 10
23.67134710575173
 20
-0.4698949184025514
 30
0.0
 10
23.70685853518474
 20
0.0101577494950567
 30
0.0
 10
23.75521893715623
 20
0.8232883776084243
 30
0.0
 10
23.76824384135752
 20
1.068441344810766
 30
0.0
 10
23.79154131324945
 20
1.567954622038634
 30
0.0
 10
23.80184093887363
 20
1.822841979354232
 30
0.0
 10
23.81120312416716
 20
2.097050859183946
 30
0.0
 10
23.81174760463743
 20
2.113179757184324
 30
0.0
 10
23.81242100170896
 20
2.133357295137363
 30
0.0
 10
23.81255532079109
 20
2.137393618598695
 30
0.0
 10
23.81275625881775
 20
2.143449331759996
 30
0.0
 10
23.812823148066
 20
2.145468107636827
 30
0.0
 10
23.81292334673486
 20
2.148496577689917
 30
0.0
 10
23.81295672375791
 20
2.149506118767434
 30
0.0
 10
23.81301009093327
 20
2.151121466054544
 30
0.0
 10
23.81303009551037
 20
2.151727239644434
 30
0.0
 10
23.81509696288427
 20
2.214342894011513
 30
0.0
 10
23.81640149932612
 20
2.253797581413605
 30
0.0
 10
23.81707485817962
 20
2.274075556337118
 30
0.0
  0
ELLIPSE
  5
2772
330
275F
100
AcDbEntity
  8
0
100
AcDbEllipse
 10
44.38725671418798
 20
-15.4207873509289
 30
0.0
 11
-1.25
 21
2.165063509461097
 31
0.0
210
0.0
220
0.0
230
1.0
 40
0.5773502691896259
 41
0.0
 42
6.283185307179586
  0
ELLIPSE
  5
2773
330
275F
100
AcDbEntity
  8
0
100
AcDbEllipse
 10
41.23600907503842
 20
0.6872764880524729
 30
0.0
 11
-1.25
 21
2.165063509461097
 31
0.0
210
0.0
220
0.0
230
1.0
 40
0.5773502691896259
 41
0.0
 42
6.283185307179586
  0
ELLIPSE
  5
2774
330
275F
100
AcDbEntity
  8
0
100
AcDbEllipse
 10
45.15582924775434
 20
12.71285742239522
 30
0.0
 11
-1.25
 21
2.165063509461097
 31
0.0
210
0.0
220
0.0
230
1.0
 40
0.5773502691896259
 41
0.0
 42
6.283185307179586
  0
ELLIPSE
  5
2775
330
275F
100
AcDbEntity
  8
0
100
AcDbEllipse
 10
44.09075718262006
 20
39.45566765559408
 30
0.0
 11
-1.25
 21
2.165063509461097
 31
0.0
210
0.0
220
0.0
230
1.0
 40
0.5773502691896259
 41
0.0
 42
6.283185307179586
  0
ELLIPSE
  5
2776
330
275F
100
AcDbEntity
  8
0
100
AcDbEllipse
 10
38.46904770267205
 20
30.86216271369592
 30
0.0
 11
-1.25
 21
2.165063509461097
 31
0.0
210
0.0
220
0.0
230
1.0
 40
0.5773502691896259
 41
0.0
 42
6.283185307179586
  0
ELLIPSE
  5
2777
330
275F
100
AcDbEntity
  8
0
100
AcDbEllipse
 10
46.15502366715436
 20
-14.40016662476925
 30
0.0
 11
1.250000000000128
 21
-2.165063509461022
 31
0.0
210
0.0
220
0.0
230
0.9999999999999998
 40
0.577350269189626
 41
3.926990816987
 42
5.497787143781896
  0
ELLIPSE
  5
2778
330
275F
100
AcDbEntity
  8
0
100
AcDbEllipse
 10
43.00377602800479
 20
1.70789721421213
 30
0.0
 11
1.250000000000128
 21
-2.165063509461022
 31
0.0
210
0.0
220
0.0
230
0.9999999999999998
 40
0.577350269189626
 41
3.926990816987
 42
5.497787143781896
  0
ELLIPSE
  5
2779
330
275F
100
AcDbEntity
  8
0
100
AcDbEllipse
 10
46.9235962007207
 20
13.73347814855488
 30
0.0
 11
1.250000000000128
 21
-2.165063509461022
 31
0.0
210
0.0
220
0.0
230
0.9999999999999998
 40
0.577350269189626
 41
3.926990816987
 42
5.497787143781896
  0
ELLIPSE
  5
277A
330
275F
100
AcDbEntity
  8
0
100
AcDbEllipse
 10
45.85852413558644
 20
40.47628838175373
 30
0.0
 11
1.250000000000128
 21
-2.165063509461022
 31
0.0
210
0.0
220
0.0
230
0.9999999999999998
 40
0.577350269189626
 41
3.926990816987
 42
5.497787143781896
  0
ELLIPSE
  5
277B
330
275F
100
AcDbEntity
  8
0
100
AcDbEllipse
 10
40.23681465563841
 20
31.88278343985557
 30
0.0
 11
1.250000000000128
 21
-2.165063509461022
 31
0.0
210
0.0
220
0.0
230
0.9999999999999998
 40
0.577350269189626
 41
3.926990816987002
 42
5.497787143781896
  0
SPLINE
  5
277C
330
275F
100
AcDbEntity
  8
0
100
AcDbSpline
210
0.0
220
0.0
230
1.0
 70
     8
 71
     3
 72
    15
 73
    11
 74
     0
 42
0.000000001
 43
0.0000000001
 40
-6.634611338404019
 40
-6.634611338404019
 40
-6.634611338404019
 40
-6.634611338404019
 40
-6.576526768933005
 40
-6.576526768933005
 40
-5.814027612911004
 40
-5.814027612911004
 40
-5.814027612911004
 40
-5.554442692526659
 40
-5.554442692526659
 40
-5.446572251530706
 40
-5.446572251530706
 40
-5.446572251530706
 40
-5.446572251530706
 10
41.59673302557204
 20
-20.74989868601198
 30
0.0
 10
41.52477172341686
 20
-20.57385992723342
 30
0.0
 10
41.45320680587512
 20
-20.39775235322008
 30
0.0
 10
40.44839061933976
 20
-17.90914822777173
 30
0.0
 10
39.5729789257675
 20
-15.57999122393409
 30
0.0
 10
38.92741813495122
 20
-13.2705167464943
 30
0.0
 10
38.70764366679106
 20
-12.48428014069458
 30
0.0
 10
38.51675380757823
 20
-11.70126615374868
 30
0.0
 10
38.30730604808549
 20
-10.60991498244247
 30
0.0
 10
38.25328280314696
 20
-10.29181024847824
 30
0.0
 10
38.20766940639285
 20
-9.976563812103483
 30
0.0
  0
SPLINE
  5
277D
330
275F
100
AcDbEntity
  8
0
100
AcDbSpline
210
0.0
220
0.0
230
1.0
 70
     8
 71
     3
 72
    15
 73
    11
 74
     0
 42
0.000000001
 43
0.0000000001
 40
-2.400407440016794
 40
-2.400407440016794
 40
-2.400407440016794
 40
-2.400407440016794
 40
-2.292552278416564
 40
-2.292552278416564
 40
-2.032959610151138
 40
-2.032959610151138
 40
-2.032959610151138
 40
-1.270468927334517
 40
-1.270468927334517
 40
-1.212368358507952
 40
-1.212368358507952
 40
-1.212368358507952
 40
-1.212368358507952
 10
21.82132900285391
 20
-0.5159057690874392
 30
0.0
 10
21.77572206594904
 20
-0.7784452051111713
 30
0.0
 10
21.72170767115161
 20
-1.034133996734118
 30
0.0
 10
21.51227137461424
 20
-1.883624532173691
 30
0.0
 10
21.32137872375612
 20
-2.446237625289708
 30
0.0
 10
21.10159938653476
 20
-2.978718154308017
 30
0.0
 10
20.45605073515468
 20
-4.542750932547323
 30
0.0
 10
19.58065302267959
 20
-5.861060180760642
 30
0.0
 10
18.57583102609613
 20
-7.189419037618456
 30
0.0
 10
18.50424650676823
 20
-7.282916452225527
 30
0.0
 10
18.43226538367471
 20
-7.375887057328189
 30
0.0
  0
SPLINE
  5
277E
330
275F
100
AcDbEntity
  8
0
100
AcDbSpline
210
0.0
220
0.0
230
1.0
 70
     8
 71
     3
 72
    15
 73
    11
 74
     0
 42
0.000000001
 43
0.0000000001
 40
-6.634612082183295
 40
-6.634612082183295
 40
-6.634612082183295
 40
-6.634612082183295
 40
-6.577644077589914
 40
-6.577644077589914
 40
-5.814553454432789
 40
-5.814553454432789
 40
-5.814553454432789
 40
-5.555506887070507
 40
-5.555506887070507
 40
-5.446572624941719
 40
-5.446572624941719
 40
-5.446572624941719
 40
-5.446572624941719
 10
15.60383825892839
 20
-12.27486654289476
 30
0.0
 10
15.56018180259242
 20
-12.38156810546584
 30
0.0
 10
15.51589602880264
 20
-12.48819278583954
 30
0.0
 10
14.86872116085768
 20
-14.02163275786725
 30
0.0
 10
14.16464912253605
 20
-15.44009414010299
 30
0.0
 10
13.13260645232295
 20
-16.78235206719571
 30
0.0
 10
12.78225866534056
 20
-17.23800870610134
 30
0.0
 10
12.39157373279071
 20
-17.68376745195577
 30
0.0
 10
11.76033029991889
 20
-18.29098817885363
 30
0.0
 10
11.56406065560296
 20
-18.46739766313045
 30
0.0
 10
11.357452003415
 20
-18.63987237626647
 30
0.0
  0
SPLINE
  5
277F
330
275F
100
AcDbEntity
  8
0
100
AcDbSpline
210
0.0
220
0.0
230
1.0
 70
     8
 71
     3
 72
    15
 73
    11
 74
     0
 42
0.000000001
 43
0.0000000001
 40
-2.400408511066887
 40
-2.400408511066887
 40
-2.400408511066887
 40
-2.400408511066887
 40
-2.291457154184706
 40
-2.291457154184706
 40
-2.032419220163394
 40
-2.032419220163394
 40
-2.032419220163394
 40
-1.26931906803047
 40
-1.26931906803047
 40
-1.21236904792381
 40
-1.21236904792381
 40
-1.21236904792381
 40
-1.21236904792381
 10
27.74379240695366
 20
-28.10053041928236
 30
0.0
 10
28.04257424408654
 20
-27.98122614264214
 30
0.0
 10
28.34817348487972
 20
-27.86789295564763
 30
0.0
 10
29.39994082423249
 20
-27.50344180607428
 30
0.0
 10
30.1719939162685
 20
-27.27788985028603
 30
0.0
 10
30.9611892273815
 20
-27.07562471676273
 30
0.0
 10
33.28608061538716
 20
-26.4797716238713
 30
0.0
 10
35.74296053712352
 20
-26.07327469423794
 30
0.0
 10
38.3989306070571
 20
-25.69963549934226
 30
0.0
 10
38.58355171529397
 20
-25.67407528159647
 30
0.0
 10
38.76830590082573
 20
-25.64887817157857
 30
0.0
  0
ELLIPSE
  5
2780
330
275F
100
AcDbEntity
  8
0
100
AcDbEllipse
 10
15.60383825892872
 20
-9.008880219183906
 30
0.0
 11
-2.000000000000203
 21
-3.464101615137636
 31
0.0
210
0.0
220
0.0
230
1.0
 40
0.5773502691897921
 41
0.7853981633977778
 42
2.356194490192496
  0
SPLINE
  5
2781
330
275F
100
AcDbEntity
  8
0
100
AcDbSpline
210
0.0
220
0.0
230
1.0
 70
     8
 71
     3
 72
    14
 73
    10
 74
     0
 42
0.000000001
 43
0.0000000001
 40
0.0000000000000402
 40
0.0000000000000402
 40
0.0000000000000402
 40
0.0000000000000402
 40
0.0586214040506345
 40
0.0586214040506345
 40
0.1369775881467739
 40
0.1369775881467739
 40
0.2191308478492089
 40
0.2191308478492089
 40
0.3247733881110441
 40
0.3247733881110441
 40
0.3247733881110441
 40
0.3247733881110441
 10
15.60383825892939
 20
-12.2748665428949
 30
0.0
 10
16.06557717783631
 20
-12.39876881469946
 30
0.0
 10
16.49387648407516
 20
-12.47905605864959
 30
0.0
 10
17.40652280204179
 20
-12.58853827112722
 30
0.0
 10
17.85944323670431
 20
-12.59249173157538
 30
0.0
 10
18.67877461840059
 20
-12.51610846967253
 30
0.0
 10
19.03519921041167
 20
-12.43121819513702
 30
0.0
 10
19.72138517774227
 20
-12.15530634701837
 30
0.0
 10
20.01655597557824
 20
-11.93929918133606
 30
0.0
 10
20.21831552042615
 20
-11.67304990827885
 30
0.0
  0
SPLINE
  5
2782
330
275F
100
AcDbEntity
  8
0
100
AcDbSpline
210
0.0
220
0.0
230
1.0
 70
     8
 71
     3
 72
    14
 73
    10
 74
     0
 42
0.000000001
 43
0.0000000001
 40
-0.3247733881110441
 40
-0.3247733881110441
 40
-0.3247733881110441
 40
-0.3247733881110441
 40
-0.2191308478492089
 40
-0.2191308478492089
 40
-0.1369775881467739
 40
-0.1369775881467739
 40
-0.0586214040506345
 40
-0.0586214040506345
 40
-0.0000000000000402
 40
-0.0000000000000402
 40
-0.0000000000000402
 40
-0.0000000000000402
 10
20.21831552042615
 20
-11.67304990827885
 30
0.0
 10
20.3480143821989
 20
-11.36519638047221
 30
0.0
 10
20.38749667617125
 20
-11.00156738823353
 30
0.0
 10
20.28335036218182
 20
-10.26935698474551
 30
0.0
 10
20.17865520045825
 20
-9.918239096262675
 30
0.0
 10
19.83513935484191
 20
-9.17048567464446
 30
0.0
 10
19.60525534032967
 20
-8.780221802557701
 30
0.0
 10
19.05411780407821
 20
-8.044588012767089
 30
0.0
 10
18.77043735809814
 20
-7.713813555116058
 30
0.0
 10
18.43226538367532
 20
-7.375887057328984
 30
0.0
  0
SPLINE
  5
2783
330
275F
100
AcDbEntity
  8
0
100
AcDbSpline
210
0.0
220
0.0
230
1.0
 70
     8
 71
     3
 72
    11
 73
     7
 74
     0
 42
0.000000001
 43
0.0000000001
 40
5.581733253987907
 40
5.581733253987907
 40
5.581733253987907
 40
5.581733253987907
 40
5.814553454432789
 40
5.814553454432789
 40
5.814553454432789
 40
6.401710489208515
 40
6.401710489208515
 40
6.401710489208515
 40
6.401710489208515
 10
16.2489748762069
 20
-17.39657144026168
 30
0.0
 10
16.78663498028625
 20
-16.86465665447712
 30
0.0
 10
17.26581170146536
 20
-16.31769722629605
 30
0.0
 10
17.69611952045228
 20
-15.76964495734863
 30
0.0
 10
18.78132717234153
 20
-14.38749364692804
 30
0.0
 10
19.5659461342675
 20
-13.0073847651614
 30
0.0
 10
20.21831552042615
 20
-11.67304990827885
 30
0.0
  0
SPLINE
  5
2784
330
275F
100
AcDbEntity
  8
0
100
AcDbSpline
210
0.0
220
0.0
230
1.0
 70
     8
 71
     3
 72
    11
 73
     7
 74
     0
 42
0.000000001
 43
0.0000000001
 40
1.445269981539101
 40
1.445269981539101
 40
1.445269981539101
 40
1.445269981539101
 40
2.032959610151138
 40
2.032959610151138
 40
2.032959610151138
 40
2.265247005649526
 40
2.265247005649526
 40
2.265247005649526
 40
2.265247005649526
 10
20.21831552042615
 20
-11.67304990827885
 30
0.0
 10
21.04845229490072
 20
-10.43979449004324
 30
0.0
 10
21.85208425799371
 20
-9.06887153823731
 30
0.0
 10
22.50675297208297
 20
-7.436028463749188
 30
0.0
 10
22.76551420098066
 20
-6.790638709422229
 30
0.0
 10
22.99897956460688
 20
-6.103642879030308
 30
0.0
 10
23.19036106413103
 20
-5.373736545330407
 30
0.0
  0
ELLIPSE
  5
2785
330
275F
100
AcDbEntity
  8
0
100
AcDbEllipse
 10
38.76830590082565
 20
-22.38289184786747
 30
0.0
 11
1.999999999999793
 21
3.464101615137871
 31
0.0
210
0.0
220
0.0
230
1.0
 40
0.5773502691894468
 41
3.926990816987096
 42
5.497787143781801
  0
SPLINE
  5
2786
330
275F
100
AcDbEntity
  8
0
100
AcDbSpline
210
0.0
220
0.0
230
1.0
 70
     8
 71
     3
 72
    14
 73
    10
 74
     0
 42
0.000000001
 43
0.0000000001
 40
-0.3237658766650275
 40
-0.3237658766650275
 40
-0.3237658766650275
 40
-0.3237658766650275
 40
-0.2651444726144321
 40
-0.2651444726144321
 40
-0.1867882885182914
 40
-0.1867882885182914
 40
-0.104635028815933
 40
-0.104635028815933
 40
0.0010075114459736
 40
0.0010075114459736
 40
0.0010075114459736
 40
0.0010075114459736
 10
41.59673302557139
 20
-20.74989868601207
 30
0.0
 10
41.25856105114845
 20
-20.69733782286827
 30
0.0
 10
40.88743172256332
 20
-20.6500576809061
 30
0.0
 10
39.99258039249906
 20
-20.55084940948415
 30
0.0
 10
39.46341587186101
 20
-20.50287640547388
 30
0.0
 10
38.36348548828419
 20
-20.41725575810642
 30
0.0
 10
37.79681715402398
 20
-20.38076175145869
 30
0.0
 10
36.51409263376149
 20
-20.31226190546007
 30
0.0
 10
35.79633879958733
 20
-20.2842906409576
 30
0.0
 10
35.10566082345849
 20
-20.26826272650348
 30
0.0
  0
SPLINE
  5
2787
330
275F
100
AcDbEntity
  8
0
100
AcDbSpline
210
0.0
220
0.0
230
1.0
 70
     8
 71
     3
 72
    14
 73
    10
 74
     0
 42
0.000000001
 43
0.0000000001
 40
-0.0010075114459736
 40
-0.0010075114459736
 40
-0.0010075114459736
 40
-0.0010075114459736
 40
0.104635028815933
 40
0.104635028815933
 40
0.1867882885182914
 40
0.1867882885182914
 40
0.2651444726144321
 40
0.2651444726144321
 40
0.3237658766650275
 40
0.3237658766650275
 40
0.3237658766650275
 40
0.3237658766650275
 10
35.10566082345849
 20
-20.26826272650348
 30
0.0
 10
35.46488039321624
 20
-20.85839344196076
 30
0.0
 10
35.84798113533205
 20
-21.46600086424569
 30
0.0
 10
36.54866600225342
 20
-22.5426229618509
 30
0.0
 10
36.86360490622635
 20
-23.01512513151658
 30
0.0
 10
37.48771975372344
 20
-23.92488246240474
 30
0.0
 10
37.79384785421121
 20
-24.35916587805359
 30
0.0
 10
38.3271904025603
 20
-25.08452572678856
 30
0.0
 10
38.55370087088664
 20
-25.38229308245165
 30
0.0
 10
38.76830590082548
 20
-25.64887817157796
 30
0.0
  0
SPLINE
  5
2788
330
275F
100
AcDbEntity
  8
0
100
AcDbSpline
210
0.0
220
0.0
230
1.0
 70
     8
 71
     3
 72
    13
 73
     9
 74
     0
 42
0.000000001
 43
0.0000000001
 40
5.354766078303471
 40
5.354766078303471
 40
5.354766078303471
 40
5.354766078303471
 40
5.554442692526659
 40
5.554442692526659
 40
5.814027612911004
 40
5.814027612911004
 40
5.814027612911004
 40
6.401709715806402
 40
6.401709715806402
 40
6.401709715806402
 40
6.401709715806402
 10
33.21579834347339
 20
-8.662264700448535
 30
0.0
 10
33.24990009482239
 20
-9.419864242817819
 30
0.0
 10
33.30348297726864
 20
-10.18951588263971
 30
0.0
 10
33.46865977778491
 20
-11.95487715473298
 30
0.0
 10
33.59285777169799
 20
-12.94848737219419
 30
0.0
 10
33.74323498235558
 20
-13.92349161660897
 30
0.0
 10
34.08367846904174
 20
-16.13083302858787
 30
0.0
 10
34.55653277746016
 20
-18.23871035974138
 30
0.0
 10
35.10566082345849
 20
-20.26826272650347
 30
0.0
  0
SPLINE
  5
2789
330
275F
100
AcDbEntity
  8
0
100
AcDbSpline
210
0.0
220
0.0
230
1.0
 70
     8
 71
     3
 72
    13
 73
     9
 74
     0
 42
0.000000001
 43
0.0000000001
 40
1.445270640431615
 40
1.445270640431615
 40
1.445270640431615
 40
1.445270640431615
 40
2.032419220163394
 40
2.032419220163394
 40
2.032419220163394
 40
2.291457154184706
 40
2.291457154184706
 40
2.492214639335294
 40
2.492214639335294
 40
2.492214639335294
 40
2.492214639335294
 10
35.10566082345849
 20
-20.26826272650348
 30
0.0
 10
33.07530094047442
 20
-20.80698971899632
 30
0.0
 10
31.01531392577597
 20
-21.45073607884321
 30
0.0
 10
28.93538416656796
 20
-22.25855066136745
 30
0.0
 10
28.01776173447282
 20
-22.61494191862804
 30
0.0
 10
27.09712136458072
 20
-23.00316455142962
 30
0.0
 10
25.48362352488815
 20
-23.74324431091487
 30
0.0
 10
24.78642295214416
 20
-24.08344198932465
 30
0.0
 10
24.10964045663027
 20
-24.43459282220482
 30
0.0
  0
LINE
  5
278A
330
275F
100
AcDbEntity
  8
0
100
AcDbLine
 10
51.27167119647908
 20
-26.3357268431567
 30
0.0
 11
41.59673302557139
 21
-20.74989868601207
 31
0.0
  0
LINE
  5
278B
330
275F
100
AcDbEntity
  8
0
100
AcDbLine
 10
18.43226538367532
 20
-7.37588705732898
 30
0.0
 11
8.757327212767687
 21
-1.790058899740596
 31
0.0
  0
LINE
  5
278C
330
275F
100
AcDbEntity
  8
0
100
AcDbLine
 10
15.60383825892938
 20
-12.2748665428949
 30
0.0
 11
5.928900087313269
 21
-6.689038385936212
 31
0.0
  0
LINE
  5
278D
330
275F
100
AcDbEntity
  8
0
100
AcDbLine
 10
48.44324407102648
 20
-31.23470632935369
 30
0.0
 11
38.76830590082548
 21
-25.64887817157796
 31
0.0
  0
LINE
  5
278E
330
275F
100
AcDbEntity
  8
0
100
AcDbLine
 10
51.27167119647908
 20
-26.3357268431567
 30
0.0
 11
52.99546959318617
 21
36.76401929108072
 31
0.0
  0
LINE
  5
278F
330
275F
100
AcDbEntity
  8
0
100
AcDbLine
 10
7.033528816060572
 20
63.30015817123182
 30
0.0
 11
8.757327212767687
 21
-1.790058899740589
 31
0.0
  0
LINE
  5
2790
330
275F
100
AcDbEntity
  8
0
100
AcDbLine
 10
5.928900087313269
 20
-6.689038385936212
 30
0.0
 11
-51.30278063182958
 21
-37.74129371857433
 31
0.0
  0
LINE
  5
2791
330
275F
100
AcDbEntity
  8
0
100
AcDbLine
 10
-5.340839854703993
 20
-64.27743259872541
 30
0.0
 11
48.44324407102648
 21
-31.23470632935369
 31
0.0
  0
LINE
  5
2792
330
275F
100
AcDbEntity
  8
0
100
AcDbLine
 10
54.76323654615253
 20
37.78464001724039
 30
0.0
 11
53.03943814944545
 21
-25.31510611685855
 31
0.0
  0
LINE
  5
2793
330
275F
100
AcDbEntity
  8
0
100
AcDbLine
 10
48.44324407102648
 20
-33.275947781673
 30
0.0
 11
-5.340839854703993
 21
-66.31867405104472
 31
0.0
  0
SPLINE
  5
2794
330
275F
100
AcDbEntity
  8
0
100
AcDbSpline
210
0.0
220
0.0
230
1.0
 70
     8
 71
     3
 72
     8
 73
     4
 74
     0
 42
0.000000001
 43
0.0000000001
 40
0.0
 40
0.0
 40
0.0
 40
0.0
 40
1.0
 40
1.0
 40
1.0
 40
1.0
 10
53.03943814944545
 20
-25.31510611685857
 30
0.0
 10
52.9808181165231
 20
-28.05922698383881
 30
0.0
 10
50.79041243622478
 20
-31.85312091097268
 30
0.0
 10
48.44324407083213
 20
-33.27594778178526
 30
0.0
  0
SPLINE
  5
2795
330
275F
100
AcDbEntity
  8
0
100
AcDbSpline
210
0.0
220
0.0
230
1.0
 70
     8
 71
     3
 72
     8
 73
     4
 74
     0
 42
0.000000001
 43
0.0000000001
 40
-1.0
 40
-1.0
 40
-1.0
 40
-1.0
 40
0.0
 40
0.0
 40
0.0
 40
0.0
 10
8.757327212767695
 20
-1.790058899740469
 30
0.0
 10
8.815947245953799
 20
-3.533420212456868
 30
0.0
 10
7.468005288846195
 20
-5.86812416761891
 30
0.0
 10
5.9289000874658
 20
-6.689038385848149
 30
0.0
  0
SPLINE
  5
2796
330
275F
100
AcDbEntity
  8
0
100
AcDbSpline
210
0.0
220
0.0
230
1.0
 70
     8
 71
     3
 72
     8
 73
     4
 74
     0
 42
0.000000001
 43
0.0000000001
 40
-1.0
 40
-1.0
 40
-1.0
 40
-1.0
 40
0.0
 40
0.0
 40
0.0
 40
0.0
 10
48.44324407117898
 20
-31.23470632926569
 30
0.0
 10
49.86510920638735
 20
-30.3461035272724
 30
0.0
 10
51.21305116349396
 20
-28.01139957211307
 30
0.0
 10
51.27167119647909
 20
-26.33572684315672
 30
0.0
  0
LINE
  5
2797
330
275F
100
AcDbEntity
  8
0
100
AcDbLine
 10
52.99546959318617
 20
36.76401929108072
 30
0.0
 11
54.76323654615253
 21
37.78464001724039
 31
0.0
  0
LINE
  5
2798
330
275F
100
AcDbEntity
  8
0
100
AcDbLine
 10
51.27167119647908
 20
-26.3357268431567
 30
0.0
 11
52.04948865576277
 21
-25.88665372359796
 31
0.0
  0
LINE
  5
2799
330
275F
100
AcDbEntity
  8
0
100
AcDbLine
 10
52.04948865576277
 20
-25.88665372359796
 30
0.0
 11
53.03943814944545
 21
-25.31510611685855
 31
0.0
  0
LINE
  5
279A
330
275F
100
AcDbEntity
  8
0
100
AcDbLine
 10
48.44324407102648
 20
-31.23470632935369
 30
0.0
 11
48.44324407102648
 21
-32.13285256837531
 31
0.0
  0
LINE
  5
279B
330
275F
100
AcDbEntity
  8
0
100
AcDbLine
 10
48.44324407102648
 20
-32.13285256837531
 30
0.0
 11
48.44324407102648
 21
-33.275947781673
 31
0.0
  0
LINE
  5
279C
330
275F
100
AcDbEntity
  8
0
100
AcDbLine
 10
-5.340839854703993
 20
-66.31867405104472
 30
0.0
 11
-5.340839854703993
 21
-64.27743259872541
 31
0.0
  0
LINE
  5
279D
330
275F
100
AcDbEntity
  8
0
100
AcDbLine
 10
49.45993568725343
 20
42.88774364803867
 30
0.0
 11
52.99546959318617
 21
36.76401929108072
 31
0.0
  0
LINE
  5
279E
330
275F
100
AcDbEntity
  8
0
100
AcDbLine
 10
7.033528816060572
 20
63.30015817123182
 30
0.0
 11
10.56906272199331
 21
65.34139962355114
 31
0.0
  0
LINE
  5
279F
330
275F
100
AcDbEntity
  8
0
100
AcDbLine
 10
-51.30278063182956
 20
-41.82377662321293
 30
0.0
 11
-51.30278063182958
 21
-37.74129371857432
 31
0.0
  0
LINE
  5
27A0
330
275F
100
AcDbEntity
  8
0
100
AcDbLine
 10
-5.340839854703993
 20
-64.27743259872541
 30
0.0
 11
-12.41190766656945
 21
-64.27743259872541
 31
0.0
  0
LINE
  5
27A1
330
275F
100
AcDbEntity
  8
0
100
AcDbLine
 10
54.76323654615253
 20
37.78464001724039
 30
0.0
 11
51.2277026402198
 21
43.90836437419832
 31
0.0
  0
LINE
  5
27A2
330
275F
100
AcDbEntity
  8
0
100
AcDbLine
 10
-12.41190766656945
 20
-66.31867405104472
 30
0.0
 11
-5.340839854703993
 21
-66.31867405104472
 31
0.0
  0
LINE
  5
27A3
330
275F
100
AcDbEntity
  8
0
100
AcDbLine
 10
-51.30278063182956
 20
-43.86501807553225
 30
0.0
 11
-51.30278063182956
 21
-41.82377662321293
 31
0.0
  0
LINE
  5
27A4
330
275F
100
AcDbEntity
  8
0
100
AcDbLine
 10
-12.41190766656945
 20
-64.27743259872541
 30
0.0
 11
-12.41190766656945
 21
-66.31867405104472
 31
0.0
  0
LINE
  5
27A5
330
275F
100
AcDbEntity
  8
0
100
AcDbLine
 10
51.2277026402198
 20
43.90836437419832
 30
0.0
 11
49.45993568725343
 21
42.88774364803867
 31
0.0
  0
LINE
  5
27A6
330
275F
100
AcDbEntity
  8
0
100
AcDbLine
 10
10.56906272199331
 20
65.34139962355114
 30
0.0
 11
12.33682967495968
 21
66.36202034971079
 31
0.0
  0
LINE
  5
27A7
330
275F
100
AcDbEntity
  8
0
100
AcDbLine
 10
10.56906272199331
 20
65.34139962355114
 30
0.0
 11
49.45993568725343
 21
42.88774364803867
 31
0.0
  0
LINE
  5
27A8
330
275F
100
AcDbEntity
  8
0
100
AcDbLine
 10
-51.30278063182956
 20
-41.82377662321293
 30
0.0
 11
-12.41190766656945
 21
-64.27743259872541
 31
0.0
  0
LINE
  5
27A9
330
275F
100
AcDbEntity
  8
0
100
AcDbLine
 10
51.2277026402198
 20
43.90836437419832
 30
0.0
 11
12.33682967495968
 21
66.36202034971079
 31
0.0
  0
LINE
  5
27AA
330
275F
100
AcDbEntity
  8
0
100
AcDbLine
 10
-51.30278063182956
 20
-43.86501807553225
 30
0.0
 11
-12.41190766656945
 21
-66.31867405104472
 31
0.0
  0
ELLIPSE
  5
27AB
330
275F
100
AcDbEntity
  8
0
100
AcDbEllipse
 10
18.79298933420833
 20
13.64475997684881
 30
0.0
 11
1.25
 21
-2.165063509461097
 31
0.0
210
0.0
220
0.0
230
1.0
 40
0.5773502691896259
 41
0.0
 42
6.283185307179586
  0
ELLIPSE
  5
27AC
330
275F
100
AcDbEntity
  8
0
100
AcDbEllipse
 10
21.55995070657471
 20
40.62463441614621
 30
0.0
 11
1.25
 21
-2.165063509461097
 31
0.0
210
0.0
220
0.0
230
1.0
 40
0.5773502691896259
 41
0.0
 42
6.283185307179586
  0
ELLIPSE
  5
27AD
330
275F
100
AcDbEntity
  8
0
100
AcDbEllipse
 10
15.93824122662668
 20
55.70953032115209
 30
0.0
 11
1.25
 21
-2.165063509461097
 31
0.0
210
0.0
220
0.0
230
1.0
 40
0.5773502691896259
 41
0.0
 42
6.283185307179586
  0
ELLIPSE
  5
27AE
330
275F
100
AcDbEntity
  8
0
100
AcDbEllipse
 10
14.8731691614924
 20
30.19655937497648
 30
0.0
 11
1.25
 21
-2.165063509461097
 31
0.0
210
0.0
220
0.0
230
1.0
 40
0.5773502691896259
 41
0.0
 42
6.283185307179586
  0
ELLIPSE
  5
27AF
330
275F
100
AcDbEntity
  8
0
100
AcDbEllipse
 10
15.64174169505876
 20
1.175443483359774
 30
0.0
 11
1.25
 21
-2.165063509461097
 31
0.0
210
0.0
220
0.0
230
1.0
 40
0.5773502691896259
 41
0.0
 42
6.283185307179586
  0
ELLIPSE
  5
27B0
330
275F
100
AcDbEntity
  8
0
100
AcDbEllipse
 10
17.40950864802513
 20
2.196064209519432
 30
0.0
 11
1.250000000000128
 21
-2.165063509461022
 31
0.0
210
0.0
220
0.0
230
0.9999999999999998
 40
0.577350269189626
 41
3.926990816987
 42
5.497787143781899
  0
ELLIPSE
  5
27B1
330
275F
100
AcDbEntity
  8
0
100
AcDbEllipse
 10
20.56075628717469
 20
14.66538070300847
 30
0.0
 11
1.250000000000128
 21
-2.165063509461022
 31
0.0
210
0.0
220
0.0
230
0.9999999999999998
 40
0.577350269189626
 41
3.926990816986998
 42
5.497787143781899
  0
ELLIPSE
  5
27B2
330
275F
100
AcDbEntity
  8
0
100
AcDbEllipse
 10
23.32771765954107
 20
41.64525514230586
 30
0.0
 11
1.250000000000128
 21
-2.165063509461022
 31
0.0
210
0.0
220
0.0
230
0.9999999999999998
 40
0.577350269189626
 41
3.926990816987
 42
5.497787143781899
  0
ELLIPSE
  5
27B3
330
275F
100
AcDbEntity
  8
0
100
AcDbEllipse
 10
17.70600817959305
 20
56.73015104731176
 30
0.0
 11
1.250000000000128
 21
-2.165063509461022
 31
0.0
210
0.0
220
0.0
230
0.9999999999999998
 40
0.577350269189626
 41
3.926990816986998
 42
5.497787143781899
  0
ELLIPSE
  5
27B4
330
275F
100
AcDbEntity
  8
0
100
AcDbEllipse
 10
16.64093611445877
 20
31.21718010113614
 30
0.0
 11
1.250000000000128
 21
-2.165063509461022
 31
0.0
210
0.0
220
0.0
230
0.9999999999999998
 40
0.577350269189626
 41
3.926990816987
 42
5.497787143781897
  0
ELLIPSE
  5
27B5
330
275F
100
AcDbEntity
  8
0
100
AcDbEllipse
 10
30.01449920462338
 20
43.90836437419832
 30
0.0
 11
2.75
 21
-4.763139720814414
 31
0.0
210
0.0
220
0.0
230
1.0
 40
0.5773502691896259
 41
0.0
 42
6.283185307179586
  0
ELLIPSE
  5
27B6
330
275F
100
AcDbEntity
  8
0
100
AcDbEllipse
 10
31.78226615758975
 20
44.92898510035799
 30
0.0
 11
-2.75
 21
4.763139720814415
 31
0.0
210
0.0
220
0.0
230
1.0
 40
0.5773502691896259
 41
0.3272204132950663
 42
2.814372240294728
  0
SPLINE
  5
27B7
330
275F
100
AcDbEntity
  8
0
100
AcDbSpline
210
0.0
220
0.0
230
1.0
 70
     8
 71
     3
 72
    12
 73
     8
 74
     0
 42
0.000000001
 43
0.0000000001
 40
0.0
 40
0.0
 40
0.0
 40
0.0
 40
0.2420318189908998
 40
0.2420318189908998
 40
0.3958209345304661
 40
0.3958209345304661
 40
0.5504914117582526
 40
0.5504914117582526
 40
0.5504914117582526
 40
0.5504914117582526
 10
24.10964045663075
 20
-24.43459282220457
 30
0.0
 10
24.53531109934103
 20
-25.1096476907899
 30
0.0
 10
25.0333785205258
 20
-25.75424164199082
 30
0.0
 10
25.9193204712664
 20
-26.69847477887827
 30
0.0
 10
26.27793174924301
 20
-27.03475289075997
 30
0.0
 10
27.00919079206004
 20
-27.63185173429232
 30
0.0
 10
27.37927045236619
 20
-27.89007357053538
 30
0.0
 10
27.7437924070974
 20
-28.10053041922497
 30
0.0
  0
LINE
  5
27B8
330
275F
100
AcDbEntity
  8
0
100
AcDbLine
 10
22.32572628537913
 20
-21.60555124495536
 30
0.0
 11
24.10964045663023
 21
-24.43459282220474
 31
0.0
  0
ELLIPSE
  5
27B9
330
275F
100
AcDbEntity
  8
0
100
AcDbEllipse
 10
19.43078658536923
 20
-22.52445634192667
 30
0.0
 11
3.606095542334347
 21
-4.795422290013299
 31
0.0
210
0.0
220
0.0
230
0.9999999999999998
 40
0.4845218433982735
 41
1.402421571318699
 42
2.291609034487063
  0
ELLIPSE
  5
27BA
330
275F
100
AcDbEntity
  8
0
100
AcDbEllipse
 10
19.43078658536923
 20
-22.52445634192667
 30
0.0
 11
-3.606095542334587
 21
4.79542229001312
 31
0.0
210
0.0
220
0.0
230
1.0
 40
0.4845218433982737
 41
5.433201688076548
 42
6.270256815946251
  0
SPLINE
  5
27BB
330
275F
100
AcDbEntity
  8
0
100
AcDbSpline
210
0.0
220
0.0
230
1.0
 70
     8
 71
     3
 72
    10
 73
     6
 74
     0
 42
0.000000001
 43
0.0000000001
 40
0.0
 40
0.0
 40
0.0
 40
0.0
 40
0.2383297850332514
 40
0.2383297850332514
 40
0.3620750828028323
 40
0.3620750828028323
 40
0.3620750828028323
 40
0.3620750828028323
 10
11.3574520035144
 20
-18.63987237618349
 30
0.0
 10
11.91920069403355
 20
-18.96419813387164
 30
0.0
 10
12.45975692053286
 20
-19.17049843724971
 30
0.0
 10
13.20278935868154
 20
-19.28849405872799
 30
0.0
 10
13.44097218127456
 20
-19.29384485526901
 30
0.0
 10
13.65984305957458
 20
-19.26427829646208
 30
0.0
  0
LINE
  5
27BC
330
275F
100
AcDbEntity
  8
0
100
AcDbLine
 10
-14.17967461953584
 20
-33.64334036532353
 30
0.0
 11
11.357452003415
 21
-18.63987237626647
 31
0.0
  0
LINE
  5
27BD
330
275F
100
AcDbEntity
  8
0
100
AcDbLine
 10
27.74379240695366
 20
-28.10053041928236
 30
0.0
 11
1.757023560173598
 21
-42.84439734937258
 31
0.0
  0
SPLINE
  5
27BE
330
275F
100
AcDbEntity
  8
0
100
AcDbSpline
210
0.0
220
0.0
230
1.0
 70
     8
 71
     3
 72
    28
 73
    24
 74
     0
 42
0.000000001
 43
0.0000000001
 40
0.6369364107467566
 40
0.6369364107467566
 40
0.6369364107467566
 40
0.6369364107467566
 40
0.7965767765272358
 40
0.7965767765272358
 40
0.9397232259046042
 40
0.9397232259046042
 40
0.9883612603617494
 40
0.9883612603617494
 40
0.996645656561485
 40
0.996645656561485
 40
1.000787804604194
 40
1.000787804604194
 40
1.002579573976551
 40
1.002579573976551
 40
1.003079478947079
 40
1.003079478947079
 40
1.003192529073416
 40
1.003192529073416
 40
1.003216314775413
 40
1.003216314775413
 40
1.268314766939341
 40
1.268314766939341
 40
1.435741274655769
 40
1.435741274655769
 40
1.435741274655769
 40
1.435741274655769
 10
10.04559712803145
 20
-21.69697691868901
 30
0.0
 10
9.694524551699824
 20
-21.91540414077094
 30
0.0
 10
10.89475748513632
 20
-21.16123169844554
 30
0.0
 10
11.64186793326974
 20
-20.67026997799917
 30
0.0
 10
11.9790018711237
 20
-20.44290661286598
 30
0.0
 10
12.41254522140913
 20
-20.14366154597711
 30
0.0
 10
12.51975982402268
 20
-20.06902952745255
 30
0.0
 10
12.64157147606725
 20
-19.98354818381163
 30
0.0
 10
12.65921091628821
 20
-19.97115217931735
 30
0.0
 10
12.68553369189969
 20
-19.95262807712872
 30
0.0
 10
12.69428527825687
 20
-19.94646498631052
 30
0.0
 10
12.70678979425372
 20
-19.93765280455472
 30
0.0
 10
12.71056131425783
 20
-19.93499412964277
 30
0.0
 10
12.71537960687728
 20
-19.93159651620736
 30
0.0
 10
12.71643033392421
 20
-19.93085553435448
 30
0.0
 10
12.71771826633057
 20
-19.92994719616242
 30
0.0
 10
12.71795578855164
 20
-19.92977967600032
 30
0.0
 10
12.71824326468232
 20
-19.92957692035118
 30
0.0
 10
12.71829323491462
 20
-19.92954167642407
 30
0.0
 10
13.27526730991857
 20
-19.53670714163496
 30
0.0
 10
14.00373344331456
 20
-19.02125022742168
 30
0.0
 10
15.0481138335824
 20
-18.28033828644848
 30
0.0
 10
15.45179358642435
 20
-17.99356198584187
 30
0.0
 10
15.8550307533824
 20
-17.70684636879156
 30
0.0
  0
ELLIPSE
  5
27BF
330
275F
100
AcDbEntity
  8
0
100
AcDbEllipse
 10
6.802906930226924
 20
-14.13386740903509
 30
0.0
 11
-2.5
 21
0.0000000000001495
 31
0.0
210
0.0
220
0.0
230
1.0
 40
0.577350269189626
 41
0.0
 42
6.283185307179586
  0
ELLIPSE
  5
27C0
330
275F
100
AcDbEntity
  8
0
100
AcDbEllipse
 10
-2.420214101388094
 20
-23.09758616489887
 30
0.0
 11
-2.5
 21
0.0000000000001495
 31
0.0
210
0.0
220
0.0
230
1.0
 40
0.577350269189626
 41
0.0
 42
6.283185307179586
  0
ELLIPSE
  5
27C1
330
275F
100
AcDbEntity
  8
0
100
AcDbEllipse
 10
-18.71440294486859
 20
-27.978822016124
 30
0.0
 11
-2.5
 21
0.0000000000001495
 31
0.0
210
0.0
220
0.0
230
1.0
 40
0.577350269189626
 41
0.0
 42
6.283185307179586
  0
ELLIPSE
  5
27C2
330
275F
100
AcDbEntity
  8
0
100
AcDbEllipse
 10
-40.27674787770383
 20
-41.65768695447924
 30
0.0
 11
-2.5
 21
0.0000000000001495
 31
0.0
210
0.0
220
0.0
230
1.0
 40
0.577350269189626
 41
0.0
 42
6.283185307179586
  0
ELLIPSE
  5
27C3
330
275F
100
AcDbEntity
  8
0
100
AcDbEllipse
 10
-24.40199007055087
 20
-38.98378222430709
 30
0.0
 11
-2.5
 21
0.0000000000001495
 31
0.0
210
0.0
220
0.0
230
1.0
 40
0.577350269189626
 41
0.0
 42
6.283185307179586
  0
ELLIPSE
  5
27C4
330
275F
100
AcDbEntity
  8
0
100
AcDbEllipse
 10
-23.01850938436768
 20
-47.94750098017086
 30
0.0
 11
-5.5
 21
0.0000000000003292
 31
0.0
210
0.0
220
0.0
230
1.0
 40
0.577350269189626
 41
0.0
 42
6.283185307179586
  0
ELLIPSE
  5
27C5
330
275F
100
AcDbEntity
  8
0
100
AcDbEllipse
 10
-7.492893074453532
 20
-48.74625392675739
 30
0.0
 11
2.5
 21
-0.0000000000001495
 31
0.0
210
0.0
220
0.0
230
1.0
 40
0.577350269189626
 41
0.0
 42
6.283185307179586
  0
ELLIPSE
  5
27C6
330
275F
100
AcDbEntity
  8
0
100
AcDbEllipse
 10
-12.12423192171044
 20
-57.91154962003727
 30
0.0
 11
2.5
 21
-0.0000000000001495
 31
0.0
210
0.0
220
0.0
230
1.0
 40
0.577350269189626
 41
0.0
 42
6.283185307179586
  0
ELLIPSE
  5
27C7
330
275F
100
AcDbEntity
  8
0
100
AcDbEllipse
 10
11.56825714139334
 20
-45.46252396870527
 30
0.0
 11
2.5
 21
-0.0000000000001495
 31
0.0
210
0.0
220
0.0
230
1.0
 40
0.577350269189626
 41
0.0
 42
6.283185307179586
  0
ELLIPSE
  5
27C8
330
275F
100
AcDbEntity
  8
0
100
AcDbEllipse
 10
35.54842194935615
 20
-30.73009824332377
 30
0.0
 11
2.5
 21
-0.0000000000001495
 31
0.0
210
0.0
220
0.0
230
1.0
 40
0.577350269189626
 41
0.0
 42
6.283185307179586
  0
ELLIPSE
  5
27C9
330
275F
100
AcDbEntity
  8
0
100
AcDbEllipse
 10
20.022805639442
 20
-36.05506965369521
 30
0.0
 11
2.5
 21
-0.0000000000001495
 31
0.0
210
0.0
220
0.0
230
1.0
 40
0.577350269189626
 41
0.0
 42
6.283185307179586
  0
ELLIPSE
  5
27CA
330
275F
100
AcDbEntity
  8
0
100
AcDbEllipse
 10
20.022805639442
 20
-38.09631110601453
 30
0.0
 11
-2.5
 21
-0.0000000000001489
 31
0.0
210
0.0
220
0.0
230
1.0
 40
0.577350269189626
 41
3.926990816987
 42
5.497787143781896
  0
ELLIPSE
  5
27CB
330
275F
100
AcDbEntity
  8
0
100
AcDbEllipse
 10
35.54842194935615
 20
-32.77133969564309
 30
0.0
 11
-2.5
 21
-0.0000000000001489
 31
0.0
210
0.0
220
0.0
230
1.0
 40
0.577350269189626
 41
3.926990816987
 42
5.497787143781896
  0
ELLIPSE
  5
27CC
330
275F
100
AcDbEntity
  8
0
100
AcDbEllipse
 10
6.802906930226924
 20
-16.17510886135441
 30
0.0
 11
-2.5
 21
-0.0000000000001489
 31
0.0
210
0.0
220
0.0
230
1.0
 40
0.577350269189626
 41
3.926990816987
 42
5.497787143781897
  0
ELLIPSE
  5
27CD
330
275F
100
AcDbEntity
  8
0
100
AcDbEllipse
 10
-2.420214101388094
 20
-25.13882761721819
 30
0.0
 11
-2.5
 21
-0.0000000000001489
 31
0.0
210
0.0
220
0.0
230
1.0
 40
0.577350269189626
 41
3.926990816987
 42
5.497787143781899
  0
ELLIPSE
  5
27CE
330
275F
100
AcDbEntity
  8
0
100
AcDbEllipse
 10
11.56825714139334
 20
-47.50376542102458
 30
0.0
 11
-2.5
 21
-0.0000000000001489
 31
0.0
210
0.0
220
0.0
230
1.0
 40
0.577350269189626
 41
3.926990816987
 42
5.497787143781897
  0
ELLIPSE
  5
27CF
330
275F
100
AcDbEntity
  8
0
100
AcDbEllipse
 10
-12.12423192171044
 20
-59.95279107235656
 30
0.0
 11
-2.5
 21
-0.0000000000001489
 31
0.0
210
0.0
220
0.0
230
1.0
 40
0.577350269189626
 41
3.926990816987
 42
5.497787143781897
  0
ELLIPSE
  5
27D0
330
275F
100
AcDbEntity
  8
0
100
AcDbEllipse
 10
-7.492893074453532
 20
-50.78749537907669
 30
0.0
 11
-2.5
 21
-0.0000000000001489
 31
0.0
210
0.0
220
0.0
230
1.0
 40
0.577350269189626
 41
3.926990816987
 42
5.497787143781897
  0
ELLIPSE
  5
27D1
330
275F
100
AcDbEntity
  8
0
100
AcDbEllipse
 10
-23.01850938436768
 20
-49.98874243249018
 30
0.0
 11
5.5
 21
-0.0000000000000007
 31
0.0
210
0.0
220
0.0
230
1.0
 40
0.5773502691896259
 41
0.3272204132950658
 42
2.814372240294728
  0
ELLIPSE
  5
27D2
330
275F
100
AcDbEntity
  8
0
100
AcDbEllipse
 10
-24.40199007055087
 20
-41.02502367662641
 30
0.0
 11
-2.5
 21
-0.0000000000001489
 31
0.0
210
0.0
220
0.0
230
1.0
 40
0.577350269189626
 41
3.926990816987
 42
5.497787143781896
  0
ELLIPSE
  5
27D3
330
275F
100
AcDbEntity
  8
0
100
AcDbEllipse
 10
-40.27674787770383
 20
-43.69892840679856
 30
0.0
 11
-2.5
 21
-0.0000000000001489
 31
0.0
210
0.0
220
0.0
230
1.0
 40
0.577350269189626
 41
3.926990816987
 42
5.497787143781897
  0
ELLIPSE
  5
27D4
330
275F
100
AcDbEntity
  8
0
100
AcDbEllipse
 10
-18.71440294486859
 20
-30.02006346844332
 30
0.0
 11
-2.5
 21
-0.0000000000001489
 31
0.0
210
0.0
220
0.0
230
1.0
 40
0.577350269189626
 41
3.926990816987002
 42
5.497787143781899
  0
ELLIPSE
  5
27D5
330
275F
100
AcDbEntity
  8
0
100
AcDbEllipse
 10
20.98073743144576
 20
-12.1132344038421
 30
0.0
 11
6.359870345561116
 21
11.01561856806401
 31
0.0
210
0.0
220
0.0
230
1.0
 40
0.5773502691896255
 41
4.077093162779908
 42
5.347684797989149
  0
ELLIPSE
  5
27D6
330
275F
100
AcDbEntity
  8
0
100
AcDbEllipse
 10
14.3914067283086
 20
-8.308882548606405
 30
0.0
 11
6.359870345561112
 21
11.01561856806401
 31
0.0
210
0.0
220
0.0
230
0.9999999999999998
 40
0.5773502691896259
 41
4.199936832626796
 42
5.224841128142384
  0
SPLINE
  5
27D7
330
275F
100
AcDbEntity
  8
0
100
AcDbSpline
210
0.0
220
0.0
230
1.0
 70
     8
 71
     3
 72
    16
 73
    12
 74
     0
 42
0.000000001
 43
0.0000000001
 40
4.864338666341063
 40
4.864338666341063
 40
4.864338666341063
 40
4.864338666341063
 40
4.887060060146882
 40
4.887060060146882
 40
4.911628794116248
 40
4.911628794116248
 40
4.936197528085614
 40
4.936197528085614
 40
4.960766262054979
 40
4.960766262054979
 40
4.985334996024343
 40
4.985334996024343
 40
4.985334996024343
 40
4.985334996024343
 10
15.83932404484432
 20
-17.71801425477637
 30
0.0
 10
15.89934003532491
 20
-17.67275201948971
 30
0.0
 10
15.95963811641556
 20
-17.6264710863125
 30
0.0
 10
16.08563755512282
 20
-17.52805045265551
 30
0.0
 10
16.15137961451707
 20
-17.47574032756018
 30
0.0
 10
16.2833238713171
 20
-17.36879872367782
 30
0.0
 10
16.34952606861123
 20
-17.31416725450243
 30
0.0
 10
16.48229056021546
 20
-17.20262047531254
 30
0.0
 10
16.54885285485675
 20
-17.14570517405391
 30
0.0
 10
16.68223996044106
 20
-17.02963189798451
 30
0.0
 10
16.74906477204778
 20
-16.97047393113933
 30
0.0
 10
16.81597327392005
 20
-16.91021691309621
 30
0.0
  0
SPLINE
  5
27D8
330
275F
100
AcDbEntity
  8
0
100
AcDbSpline
210
0.0
220
0.0
230
1.0
 70
     8
 71
     3
 72
    16
 73
    12
 74
     0
 42
0.000000001
 43
0.0000000001
 40
6.010239291539931
 40
6.010239291539931
 40
6.010239291539931
 40
6.010239291539931
 40
6.034808025509296
 40
6.034808025509296
 40
6.059376759478662
 40
6.059376759478662
 40
6.083945493448028
 40
6.083945493448028
 40
6.108514227417393
 40
6.108514227417393
 40
6.13123563662478
 40
6.13123563662478
 40
6.13123563662478
 40
6.13123563662478
 10
23.05266406720657
 20
-6.1079515880269
 30
0.0
 10
23.07139392465209
 20
-6.019878616654792
 30
0.0
 10
23.08921382097289
 20
-5.932427648777672
 30
0.0
 10
23.12304267395731
 20
-5.75887438876967
 30
0.0
 10
23.13905162339069
 20
-5.672772100046814
 30
0.0
 10
23.16927172207736
 20
-5.502021288002085
 30
0.0
 10
23.18348286358224
 20
-5.417372768771315
 30
0.0
 10
23.21012488086581
 20
-5.249634888557852
 30
0.0
 10
23.22255574837638
 20
-5.166545532477662
 30
0.0
 10
23.24479080526783
 20
-5.00821644930111
 30
0.0
 10
23.25472223478695
 20
-4.932856262088671
 30
0.0
 10
23.26391249036195
 20
-4.858249722505987
 30
0.0
  0
ENDBLK
  5
2761
330
275F
100
AcDbEntity
  8
0
100
AcDbBlockEnd
  0
ENDSEC
  0
SECTION
  2
ENTITIES
  0
INSERT
  5
27D9
330
1F
100
AcDbEntity
  8
0
100
AcDbBlockReference
  2
ABR90-Front
 10
0.0
 20
0.0
 30
0.0
  0
INSERT
  5
27DA
330
1F
100
AcDbEntity
  8
0
100
AcDbBlockReference
  2
ABR90-Left
 10
59.51347518094447
 20
0.0
 30
0.0
  0
INSERT
  5
27DB
330
1F
100
AcDbEntity
  8
0
100
AcDbBlockReference
  2
ABR90-Right
 10
-59.51755183197847
 20
0.0
 30
0.0
  0
INSERT
  5
27DC
330
1F
100
AcDbEntity
  8
0
100
AcDbBlockReference
  2
ABR90-Top
 10
0.0
 20
-27.02374707624986
 30
0.0
  0
INSERT
  5
27DD
330
1F
100
AcDbEntity
  8
0
100
AcDbBlockReference
  2
ABR90-Bottom
 10
0.0
 20
117.0138604566576
 30
0.0
  0
INSERT
  5
27DE
330
1F
100
AcDbEntity
  8
0
100
AcDbBlockReference
  2
ABR90-ISO
 10
110.8063493629631
 20
-93.37588080636834
 30
0.0
  0
MTEXT
  5
27DF
330
1F
100
AcDbEntity
  8
0
100
AcDbMText
 10
0.0
 20
-144.0273158073833
 30
0.0
 40
9.001189577044499
 41
0.0
 71
     5
 72
     5
  1
ABR9020
 73
     1
 44
1.0
1001
ACAD
1000
MTEXTBEGIN
1070
    73
1070
     1
1070
    44
1040
1.0
1070
    74
1070
     0
1000
MTEXTEND
  0
ENDSEC
  0
SECTION
  2
OBJECTS
  0
DICTIONARY
  5
C
330
0
100
AcDbDictionary
281
     1
  3
ACAD_CIP_PREVIOUS_PRODUCT_INFO
350
216
  3
ACAD_COLOR
350
6B
  3
ACAD_DETAILVIEWSTYLE
350
21B
  3
ACAD_GROUP
350
D
  3
ACAD_LAYOUT
350
1A
  3
ACAD_MATERIAL
350
6A
  3
ACAD_MLEADERSTYLE
350
12D
  3
ACAD_MLINESTYLE
350
17
  3
ACAD_PLOTSETTINGS
350
19
  3
ACAD_PLOTSTYLENAME
350
E
  3
ACAD_SCALELIST
350
10C
  3
ACAD_SECTIONVIEWSTYLE
350
219
  3
ACAD_TABLESTYLE
350
7E
  3
ACAD_VISUALSTYLE
350
EF
  3
ACDB_RECOMPOSE_DATA
350
28E0
  3
AcDbVariableDictionary
350
5E
  3
DWGPROPS
350
28E1
  0
DICTIONARY
  5
2830
330
8
100
AcDbDictionary
280
     1
281
     1
  0
DICTIONARY
  5
1FF
330
2
100
AcDbDictionary
280
     1
281
     1
  3
ACAD_LAYERSTATES
360
200
  0
DICTIONARY
  5
13C
330
10
100
AcDbDictionary
280
     1
281
     1
  0
DICTIONARY
  5
1CE
330
1F
100
AcDbDictionary
280
     1
281
     1
  3
ACAD_LAYOUTSELFREF
360
2838
  0
DICTIONARY
  5
27E3
330
D2
100
AcDbDictionary
280
     1
281
     1
  3
ACAD_LAYOUTSELFREF
360
2841
  0
DICTIONARY
  5
27E5
330
D6
100
AcDbDictionary
280
     1
281
     1
  3
ACAD_LAYOUTSELFREF
360
2844
  0
XRECORD
  5
216
102
{ACAD_REACTORS
330
C
102
}
330
C
100
AcDbXrecord
280
     1
300
ACD
300
2021
300

  0
DICTIONARY
  5
6B
102
{ACAD_REACTORS
330
C
102
}
330
C
100
AcDbDictionary
281
     1
  0
DICTIONARY
  5
21B
102
{ACAD_REACTORS
330
C
102
}
330
C
100
AcDbDictionary
281
     1
  3
Metric50
350
21C
  0
DICTIONARY
  5
D
102
{ACAD_REACTORS
330
C
102
}
330
C
100
AcDbDictionary
281
     1
  0
DICTIONARY
  5
1A
102
{ACAD_REACTORS
330
C
102
}
330
C
100
AcDbDictionary
281
     1
  3
Layout1
350
D3
  3
Layout2
350
D7
  3
Model
350
22
  0
DICTIONARY
  5
6A
102
{ACAD_REACTORS
330
C
102
}
330
C
100
AcDbDictionary
281
     1
  3
ByBlock
350
ED
  3
ByLayer
350
EC
  3
Global
350
EE
  0
DICTIONARY
  5
12D
102
{ACAD_REACTORS
330
C
102
}
330
C
100
AcDbDictionary
281
     1
  3
Standard
350
12E
  0
DICTIONARY
  5
17
102
{ACAD_REACTORS
330
C
102
}
330
C
100
AcDbDictionary
281
     1
  3
Standard
350
18
  0
DICTIONARY
  5
19
102
{ACAD_REACTORS
330
C
102
}
330
C
100
AcDbDictionary
281
     1
  0
ACDBDICTIONARYWDFLT
  5
E
102
{ACAD_REACTORS
330
C
102
}
330
C
100
AcDbDictionary
281
     1
  3
Normal
350
F
100
AcDbDictionaryWithDefault
340
F
  0
DICTIONARY
  5
10C
102
{ACAD_REACTORS
330
C
102
}
330
C
100
AcDbDictionary
281
     1
  3
A0
350
10D
  3
A1
350
1BE
  3
A2
350
1BF
  3
A3
350
1C0
  3
A4
350
1C1
  3
A5
350
1C2
  3
A6
350
1C3
  3
A7
350
1C4
  3
A8
350
1C5
  3
A9
350
1C6
  3
B0
350
1C7
  3
B1
350
1C8
  3
B2
350
1C9
  3
B3
350
1CA
  3
B4
350
1CB
  3
B5
350
1CC
  3
B6
350
1CD
  0
DICTIONARY
  5
219
102
{ACAD_REACTORS
330
C
102
}
330
C
100
AcDbDictionary
281
     1
  3
Metric50
350
21A
  0
DICTIONARY
  5
7E
102
{ACAD_REACTORS
330
C
102
}
330
C
100
AcDbDictionary
281
     1
  3
Standard
350
7F
  0
DICTIONARY
  5
EF
102
{ACAD_REACTORS
330
C
102
}
330
C
100
AcDbDictionary
281
     1
  3
2dWireframe
350
F5
  3
Basic
350
F4
  3
Brighten
350
FB
  3
ColorChange
350
FF
  3
Conceptual
350
F8
  3
Dim
350
FA
  3
EdgeColorOff
350
1E6
  3
Facepattern
350
FE
  3
Flat
350
F0
  3
FlatWithEdges
350
F1
  3
Gouraud
350
F2
  3
GouraudWithEdges
350
F3
  3
Hidden
350
F7
  3
JitterOff
350
1E4
  3
Linepattern
350
FD
  3
OverhangOff
350
1E5
  3
Realistic
350
F9
  3
Shaded
350
1F3
  3
Shaded with edges
350
1F2
  3
Shades of Gray
350
1EF
  3
Sketchy
350
1F0
  3
Thicken
350
FC
  3
Wireframe
350
F6
  3
X-Ray
350
1F1
  0
XRECORD
  5
28E0
102
{ACAD_REACTORS
330
C
102
}
330
C
100
AcDbXrecord
280
     1
 90
        1
330
7F
  0
DICTIONARY
  5
5E
102
{ACAD_REACTORS
330
C
102
}
330
C
100
AcDbDictionary
281
     1
  3
CANNOSCALE
350
146
  3
CENTEREXE
350
259
  3
CENTERLTYPEFILE
350
25A
  3
CMLEADERSTYLE
350
145
  3
CTABLESTYLE
350
84
  3
CVIEWDETAILSTYLE
350
227
  3
CVIEWSECTIONSTYLE
350
228
  3
DIMASSOC
350
5F
  3
HIDETEXT
350
63
  3
INDEXCTL
350
288D
  3
LAYEREVAL
350
1AE
  3
LAYERNOTIFY
350
1AF
  3
LIGHTINGUNITS
350
288B
  3
MSLTSCALE
350
288A
  3
PSOLHEIGHT
350
28DD
  3
PSOLWIDTH
350
28DC
  3
SORTENTS
350
288C
  3
XCLIPFRAME
350
28DE
  0
XRECORD
  5
28E1
102
{ACAD_REACTORS
330
C
102
}
330
C
100
AcDbXrecord
280
     1
  1
DWGPROPS COOKIE
  2

  3

  4

  6

  7

  8
tronnguyen
  9

300
=
301
=
302
=
303
=
304
=
305
=
306
=
307
=
308
=
309
=
 40
0.0035185185185185
 41
2460367.705740741
 42
2460367.711377315
  1

 90
        0
  0
DICTIONARY
  5
200
102
{ACAD_REACTORS
330
1FF
102
}
330
1FF
100
AcDbDictionary
281
     1
  0
XRECORD
  5
2838
102
{ACAD_REACTORS
330
1CE
102
}
330
1CE
100
AcDbXrecord
280
     1
340
1F
  0
XRECORD
  5
2841
102
{ACAD_REACTORS
330
27E3
102
}
330
27E3
100
AcDbXrecord
280
     1
340
D2
  0
XRECORD
  5
2844
102
{ACAD_REACTORS
330
27E5
102
}
330
27E5
100
AcDbXrecord
280
     1
340
D6
  0
ACDBDETAILVIEWSTYLE
  5
21C
102
{ACAD_XDICTIONARY
360
2920
102
}
102
{ACAD_REACTORS
330
21B
102
}
330
21B
100
AcDbModelDocViewStyle
 70
     0
  3
Metric50
290
     0
100
AcDbDetailViewStyle
 70
     0
 71
     0
 90
        3
 71
     1
340
11
 40
5.0
340
0
 40
5.0
300

 40
0.0
280
     1
 71
     2
340
16
 90
       25
 71
     3
340
11
 40
5.0
 90
        0
 40
15.0
 90
        1
300
%<\AcVar ViewDetailId>% (%<\AcVar ViewScale \f "%sn">%)
 71
     4
340
16
 90
       25
340
16
 90
       25
280
     0
  0
LAYOUT
  5
D3
102
{ACAD_XDICTIONARY
360
28E5
102
}
102
{ACAD_REACTORS
330
1A
102
}
330
1A
100
AcDbPlotSettings
  1

  2
C:\Documents and Settings\basas\Application Data\Autodesk\AutoCAD 2005\R16.1\enu\plotters\Default Windows System Printer.pc3
  4

  6

 40
0.0
 41
0.0
 42
0.0
 43
0.0
 44
0.0
 45
0.0
 46
0.0
 47
0.0
 48
0.0
 49
0.0
140
0.0
141
0.0
142
1.0
143
1.0
 70
   688
 72
     0
 73
     0
 74
     5
  7

 75
    16
147
1.0
148
0.0
149
0.0
100
AcDbLayout
  1
Layout1
 70
     1
 71
     1
 10
0.0
 20
0.0
 11
12.0
 21
9.0
 12
0.0
 22
0.0
 32
0.0
 14
0.0
 24
0.0
 34
0.0
 15
0.0
 25
0.0
 35
0.0
146
0.0
 13
0.0
 23
0.0
 33
0.0
 16
1.0
 26
0.0
 36
0.0
 17
0.0
 27
1.0
 37
0.0
 76
     0
330
D2
  0
LAYOUT
  5
D7
102
{ACAD_XDICTIONARY
360
28E7
102
}
102
{ACAD_REACTORS
330
1A
102
}
330
1A
100
AcDbPlotSettings
  1

  2
C:\Documents and Settings\basas\Application Data\Autodesk\AutoCAD 2005\R16.1\enu\plotters\Default Windows System Printer.pc3
  4

  6

 40
0.0
 41
0.0
 42
0.0
 43
0.0
 44
0.0
 45
0.0
 46
0.0
 47
0.0
 48
0.0
 49
0.0
140
0.0
141
0.0
142
1.0
143
1.0
 70
   688
 72
     0
 73
     0
 74
     5
  7

 75
    16
147
1.0
148
0.0
149
0.0
100
AcDbLayout
  1
Layout2
 70
     1
 71
     2
 10
0.0
 20
0.0
 11
12.0
 21
9.0
 12
0.0
 22
0.0
 32
0.0
 14
0.0
 24
0.0
 34
0.0
 15
0.0
 25
0.0
 35
0.0
146
0.0
 13
0.0
 23
0.0
 33
0.0
 16
1.0
 26
0.0
 36
0.0
 17
0.0
 27
1.0
 37
0.0
 76
     0
330
D6
  0
LAYOUT
  5
22
102
{ACAD_XDICTIONARY
360
28E2
102
}
102
{ACAD_REACTORS
330
1A
102
}
330
1A
100
AcDbPlotSettings
  1

  2
none_device
  4
ISO_A4_(210.00_x_297.00_MM)
  6

 40
7.5
 41
20.0
 42
7.5
 43
20.0
 44
210.0
 45
297.0
 46
11.54999923706054
 47
-13.65000009536743
 48
0.0
 49
0.0
140
0.0
141
0.0
142
1.0
143
8.704084754739808
 70
 11952
 72
     1
 73
     0
 74
     0
  7

 75
     0
147
0.1148885871608098
148
0.0
149
0.0
100
AcDbLayout
  1
Model
 70
     1
 71
     0
 10
0.0
 20
0.0
 11
12.0
 21
9.0
 12
0.0
 22
0.0
 32
0.0
 14
0.0
 24
0.0
 34
0.0
 15
0.0
 25
0.0
 35
0.0
146
0.0
 13
0.0
 23
0.0
 33
0.0
 16
1.0
 26
0.0
 36
0.0
 17
0.0
 27
1.0
 37
0.0
 76
     0
330
1F
331
EA
1001
ACAD_PSEXT
1000
None
1000
None
1000
Not applicable
1000
The layout will not be plotted unless a new plotter configuration name is selected.
1070
     0
  0
MATERIAL
  5
ED
102
{ACAD_XDICTIONARY
360
1F9
102
}
102
{ACAD_REACTORS
330
6A
102
}
330
6A
100
AcDbMaterial
  1
ByBlock
  0
MATERIAL
  5
EC
102
{ACAD_XDICTIONARY
360
1F7
102
}
102
{ACAD_REACTORS
330
6A
102
}
330
6A
100
AcDbMaterial
  1
ByLayer
  0
MATERIAL
  5
EE
102
{ACAD_XDICTIONARY
360
173
102
}
102
{ACAD_REACTORS
330
6A
102
}
330
6A
100
AcDbMaterial
  1
Global
 43
0.0007999999797903
 43
0.0
 43
0.0
 43
0.0
 43
0.0
 43
0.0007999999797903
 43
0.0
 43
0.0
 43
0.0
 43
0.0
 43
1.0
 43
0.0
 43
0.0
 43
0.0
 43
0.0
 43
1.0
 49
0.0007999999797903
 49
0.0
 49
0.0
 49
0.0
 49
0.0
 49
0.0007999999797903
 49
0.0
 49
0.0
 49
0.0
 49
0.0
 49
1.0
 49
0.0
 49
0.0
 49
0.0
 49
0.0
 49
1.0
142
0.0007999999797903
142
0.0
142
0.0
142
0.0
142
0.0
142
0.0007999999797903
142
0.0
142
0.0
142
0.0
142
0.0
142
1.0
142
0.0
142
0.0
142
0.0
142
0.0
142
1.0
144
0.0007999999797903
144
0.0
144
0.0
144
0.0
144
0.0
144
0.0007999999797903
144
0.0
144
0.0
144
0.0
144
0.0
144
1.0
144
0.0
144
0.0
144
0.0
144
0.0
144
1.0
1001
ACAD
1070
    -1
1070
     3
1070
     0
1000

1071
        0
1070
     0
  0
MLEADERSTYLE
  5
12E
102
{ACAD_XDICTIONARY
360
290C
102
}
102
{ACAD_REACTORS
330
12D
102
}
330
12D
100
AcDbMLeaderStyle
170
     2
171
     1
172
     0
 90
        2
 40
0.0
 41
0.0
173
     1
 91
-1056964608
340
14
 92
       -2
290
     1
 42
2.0
291
     1
 43
8.0
  3
Standard
 44
4.0
300

342
11
174
     1
178
     1
175
     1
176
     0
 93
-1056964608
 45
4.0
292
     0
297
     0
 46
4.0
 94
-1056964608
 47
1.0
 49
1.0
140
1.0
293
     1
141
0.0
294
     1
177
     0
142
1.0
295
     0
296
     0
143
3.75
1001
ACAD_MLEADERVER
1070
     2
  0
MLINESTYLE
  5
18
102
{ACAD_REACTORS
330
17
102
}
330
17
100
AcDbMlineStyle
  2
STANDARD
 70
     0
  3

 62
   256
 51
90.0
 52
90.0
 71
     2
 49
0.5
 62
   256
  6
BYLAYER
 49
-0.5
 62
   256
  6
BYLAYER
  0
ACDBPLACEHOLDER
  5
F
102
{ACAD_REACTORS
330
E
102
}
330
E
  0
SCALE
  5
10D
102
{ACAD_REACTORS
330
10C
102
}
330
10C
100
AcDbScale
 70
     0
300
1:1
140
1.0
141
1.0
290
     1
  0
SCALE
  5
1BE
102
{ACAD_REACTORS
330
10C
102
}
330
10C
100
AcDbScale
 70
     0
300
1:2
140
1.0
141
2.0
290
     0
  0
SCALE
  5
1BF
102
{ACAD_REACTORS
330
10C
102
}
330
10C
100
AcDbScale
 70
     0
300
1:4
140
1.0
141
4.0
290
     0
  0
SCALE
  5
1C0
102
{ACAD_REACTORS
330
10C
102
}
330
10C
100
AcDbScale
 70
     0
300
1:5
140
1.0
141
5.0
290
     0
  0
SCALE
  5
1C1
102
{ACAD_REACTORS
330
10C
102
}
330
10C
100
AcDbScale
 70
     0
300
1:8
140
1.0
141
8.0
290
     0
  0
SCALE
  5
1C2
102
{ACAD_REACTORS
330
10C
102
}
330
10C
100
AcDbScale
 70
     0
300
1:10
140
1.0
141
10.0
290
     0
  0
SCALE
  5
1C3
102
{ACAD_REACTORS
330
10C
102
}
330
10C
100
AcDbScale
 70
     0
300
1:16
140
1.0
141
16.0
290
     0
  0
SCALE
  5
1C4
102
{ACAD_REACTORS
330
10C
102
}
330
10C
100
AcDbScale
 70
     0
300
1:20
140
1.0
141
20.0
290
     0
  0
SCALE
  5
1C5
102
{ACAD_REACTORS
330
10C
102
}
330
10C
100
AcDbScale
 70
     0
300
1:30
140
1.0
141
30.0
290
     0
  0
SCALE
  5
1C6
102
{ACAD_REACTORS
330
10C
102
}
330
10C
100
AcDbScale
 70
     0
300
1:40
140
1.0
141
40.0
290
     0
  0
SCALE
  5
1C7
102
{ACAD_REACTORS
330
10C
102
}
330
10C
100
AcDbScale
 70
     0
300
1:50
140
1.0
141
50.0
290
     0
  0
SCALE
  5
1C8
102
{ACAD_REACTORS
330
10C
102
}
330
10C
100
AcDbScale
 70
     0
300
1:100
140
1.0
141
100.0
290
     0
  0
SCALE
  5
1C9
102
{ACAD_REACTORS
330
10C
102
}
330
10C
100
AcDbScale
 70
     0
300
2:1
140
2.0
141
1.0
290
     0
  0
SCALE
  5
1CA
102
{ACAD_REACTORS
330
10C
102
}
330
10C
100
AcDbScale
 70
     0
300
4:1
140
4.0
141
1.0
290
     0
  0
SCALE
  5
1CB
102
{ACAD_REACTORS
330
10C
102
}
330
10C
100
AcDbScale
 70
     0
300
8:1
140
8.0
141
1.0
290
     0
  0
SCALE
  5
1CC
102
{ACAD_REACTORS
330
10C
102
}
330
10C
100
AcDbScale
 70
     0
300
10:1
140
10.0
141
1.0
290
     0
  0
SCALE
  5
1CD
102
{ACAD_REACTORS
330
10C
102
}
330
10C
100
AcDbScale
 70
     0
300
100:1
140
100.0
141
1.0
290
     0
  0
ACDBSECTIONVIEWSTYLE
  5
21A
102
{ACAD_XDICTIONARY
360
291E
102
}
102
{ACAD_REACTORS
330
219
102
}
330
219
100
AcDbModelDocViewStyle
 70
     0
  3
Metric50
290
     0
100
AcDbSectionViewStyle
 70
     0
 71
     0
 90
      102
 71
     1
340
11
 40
5.0
340
0
340
0
 40
5.0
300
I, O, Q, S, X, Z
 40
10.0
 90
        0
 40
2.5
 90
        0
 71
     2
340
16
 90
       25
340
16
 90
       50
 40
5.0
 40
2.5
 40
5.0
 71
     3
340
11
 40
5.0
 90
        0
 40
15.0
 90
        1
300
%<\AcVar ViewSectionStartId>%-%<\AcVar ViewSectionEndId>% (%<\AcVar ViewScale \f "%sn">%)
 71
     4
300
ANSI31
 40
1.0
 90
        0
290
     0
290
     0
 90
        6
 40
0.0
 40
1.570796326794896
 40
0.2617993877991494
 40
1.308996938995747
 40
-0.2617993877991494
 40
1.832595714594046
  0
TABLESTYLE
  5
7F
102
{ACAD_XDICTIONARY
360
162
102
}
102
{ACAD_REACTORS
330
7E
102
}
330
7E
100
AcDbTableStyle
  3
Standard
 70
     0
 71
     0
 40
1.5
 41
1.5
280
     0
281
     0
  7
Standard
140
4.5
170
     2
 62
     0
 63
     7
283
     0
274
    -2
284
     1
 64
     0
275
    -2
285
     1
 65
     0
276
    -2
286
     1
 66
     0
277
    -2
287
     1
 67
     0
278
    -2
288
     1
 68
     0
279
    -2
289
     1
 69
     0
  7
Standard
140
6.0
170
     5
 62
     0
 63
     7
283
     0
274
    -2
284
     1
 64
     0
275
    -2
285
     1
 65
     0
276
    -2
286
     1
 66
     0
277
    -2
287
     1
 67
     0
278
    -2
288
     1
 68
     0
279
    -2
289
     1
 69
     0
  7
Standard
140
4.5
170
     5
 62
     0
 63
     7
283
     0
274
    -2
284
     1
 64
     0
275
    -2
285
     1
 65
     0
276
    -2
286
     1
 66
     0
277
    -2
287
     1
 67
     0
278
    -2
288
     1
 68
     0
279
    -2
289
     1
 69
     0
  0
VISUALSTYLE
  5
F5
102
{ACAD_XDICTIONARY
360
28F6
102
}
102
{ACAD_REACTORS
330
EF
102
}
330
EF
100
AcDbVisualStyle
  2
2dWireframe
 70
     4
 71
     0
 72
     2
 73
     1
 90
        0
 40
-0.6
 41
-30.0
 62
     5
 63
     7
 74
     1
 91
        4
 64
     7
 65
   257
 75
     1
175
     1
 42
1.0
 92
        0
 66
   257
 43
1.0
 76
     1
 77
     6
 78
     2
 67
     7
 79
     5
170
     0
171
     0
290
     0
174
     0
 93
        1
 44
0.0
173
     0
291
     0
 45
0.0
1001
ACAD
1000
AcDbSavedByObjectVersion
1070
     0
  0
VISUALSTYLE
  5
F4
102
{ACAD_XDICTIONARY
360
28F4
102
}
102
{ACAD_REACTORS
330
EF
102
}
330
EF
100
AcDbVisualStyle
  2
Basic
 70
     7
 71
     1
 72
     0
 73
     1
 90
        0
 40
-0.6
 41
-30.0
 62
     5
 63
     7
 74
     0
 91
        4
 64
     7
 65
   257
 75
     1
175
     1
 42
1.0
 92
        8
 66
     7
 43
1.0
 76
     1
 77
     6
 78
     2
 67
     7
 79
     5
170
     0
171
     0
290
     0
174
     0
 93
        1
 44
0.0
173
     0
291
     1
 45
0.0
1001
ACAD
1000
AcDbSavedByObjectVersion
1070
     0
  0
VISUALSTYLE
  5
FB
102
{ACAD_XDICTIONARY
360
2902
102
}
102
{ACAD_REACTORS
330
EF
102
}
330
EF
100
AcDbVisualStyle
  2
Brighten
 70
    12
 71
     2
 72
     2
 73
     1
 90
        0
 40
-0.6
 41
-30.0
 62
     5
 63
     7
 74
     1
 91
        4
 64
     7
 65
   257
 75
     1
175
     1
 42
1.0
 92
        8
 66
     7
 43
1.0
 76
     1
 77
     6
 78
     2
 67
     7
 79
     5
170
     0
171
     0
290
     0
174
     0
 93
        1
 44
50.0
173
     0
291
     1
 45
0.0
1001
ACAD
1000
AcDbSavedByObjectVersion
1070
     0
  0
VISUALSTYLE
  5
FF
102
{ACAD_XDICTIONARY
360
290A
102
}
102
{ACAD_REACTORS
330
EF
102
}
330
EF
100
AcDbVisualStyle
  2
ColorChange
 70
    16
 71
     2
 72
     2
 73
     3
 90
        0
 40
-0.6
 41
-30.0
 62
     5
 63
     8
 74
     1
 91
        4
 64
     7
 65
   257
 75
     1
175
     1
 42
1.0
 92
        8
 66
     8
 43
1.0
 76
     1
 77
     6
 78
     2
 67
     7
 79
     5
170
     0
171
     0
290
     0
174
     0
 93
        1
 44
0.0
173
     0
291
     1
 45
0.0
1001
ACAD
1000
AcDbSavedByObjectVersion
1070
     0
  0
VISUALSTYLE
  5
F8
102
{ACAD_XDICTIONARY
360
28FC
102
}
102
{ACAD_REACTORS
330
EF
102
}
330
EF
100
AcDbVisualStyle
  2
Conceptual
 70
     9
 71
     3
 72
     2
 73
     1
 90
        0
 40
-0.6
 41
-30.0
 62
     5
 63
     7
 74
     2
 91
        2
 64
     7
 65
   257
 75
     1
175
     1
 42
40.0
 92
        8
 66
     7
 43
1.0
 76
     1
 77
     6
 78
     2
 67
     7
 79
     3
170
     0
171
     0
290
     0
174
     0
 93
        1
 44
0.0
173
     0
291
     0
 45
0.0
1001
ACAD
1000
AcDbSavedByObjectVersion
1070
     0
  0
VISUALSTYLE
  5
FA
102
{ACAD_XDICTIONARY
360
2900
102
}
102
{ACAD_REACTORS
330
EF
102
}
330
EF
100
AcDbVisualStyle
  2
Dim
 70
    11
 71
     2
 72
     2
 73
     1
 90
        0
 40
-0.6
 41
-30.0
 62
     5
 63
     7
 74
     1
 91
        4
 64
     7
 65
   257
 75
     1
175
     1
 42
1.0
 92
        8
 66
     7
 43
1.0
 76
     1
 77
     6
 78
     2
 67
     7
 79
     5
170
     0
171
     0
290
     0
174
     0
 93
        1
 44
-50.0
173
     0
291
     1
 45
0.0
1001
ACAD
1000
AcDbSavedByObjectVersion
1070
     0
  0
VISUALSTYLE
  5
1E6
102
{ACAD_XDICTIONARY
360
2912
102
}
102
{ACAD_REACTORS
330
EF
102
}
330
EF
100
AcDbVisualStyle
  2
EdgeColorOff
 70
    22
 71
     2
 72
     2
 73
     0
 90
        0
 40
-0.6
 41
-30.0
 62
     5
 63
     7
 74
     1
 91
        4
 64
     7
 65
   257
 75
     1
175
     1
 42
1.0
 92
        8
 66
     7
 43
1.0
 76
     1
 77
     6
 78
     2
 67
     7
 79
     5
170
     0
171
     0
290
     0
174
     0
 93
        1
 44
0.0
173
     0
291
     1
 45
0.0
1001
ACAD
1000
AcDbSavedByObjectVersion
1070
     0
  0
VISUALSTYLE
  5
FE
102
{ACAD_XDICTIONARY
360
2908
102
}
102
{ACAD_REACTORS
330
EF
102
}
330
EF
100
AcDbVisualStyle
  2
Facepattern
 70
    15
 71
     2
 72
     2
 73
     1
 90
        0
 40
-0.6
 41
-30.0
 62
     5
 63
     7
 74
     1
 91
        4
 64
     7
 65
   257
 75
     1
175
     1
 42
1.0
 92
        8
 66
     7
 43
1.0
 76
     1
 77
     6
 78
     2
 67
     7
 79
     5
170
     0
171
     0
290
     0
174
     0
 93
        1
 44
0.0
173
     0
291
     1
 45
0.0
1001
ACAD
1000
AcDbSavedByObjectVersion
1070
     0
  0
VISUALSTYLE
  5
F0
102
{ACAD_XDICTIONARY
360
28EC
102
}
102
{ACAD_REACTORS
330
EF
102
}
330
EF
100
AcDbVisualStyle
  2
Flat
 70
     0
 71
     2
 72
     1
 73
     1
 90
        2
 40
-0.6
 41
30.0
 62
     5
 63
     7
 74
     0
 91
        0
 64
     7
 65
   257
 75
     1
175
     1
 42
1.0
 92
        8
 66
     7
 43
1.0
 76
     1
 77
     6
 78
     2
 67
     7
 79
     5
170
     0
171
     0
290
     0
174
     0
 93
       13
 44
0.0
173
     0
291
     1
 45
0.0
1001
ACAD
1000
AcDbSavedByObjectVersion
1070
     0
  0
VISUALSTYLE
  5
F1
102
{ACAD_XDICTIONARY
360
28EE
102
}
102
{ACAD_REACTORS
330
EF
102
}
330
EF
100
AcDbVisualStyle
  2
FlatWithEdges
 70
     1
 71
     2
 72
     1
 73
     1
 90
        2
 40
-0.6
 41
30.0
 62
     5
 63
     7
 74
     1
 91
        0
 64
     7
 65
   257
 75
     1
175
     1
 42
1.0
 92
        0
 66
   257
 43
1.0
 76
     1
 77
     6
 78
     2
 67
     7
 79
     5
170
     0
171
     0
290
     0
174
     0
 93
       13
 44
0.0
173
     0
291
     1
 45
0.0
1001
ACAD
1000
AcDbSavedByObjectVersion
1070
     0
  0
VISUALSTYLE
  5
F2
102
{ACAD_XDICTIONARY
360
28F0
102
}
102
{ACAD_REACTORS
330
EF
102
}
330
EF
100
AcDbVisualStyle
  2
Gouraud
 70
     2
 71
     2
 72
     2
 73
     1
 90
        2
 40
-0.6
 41
30.0
 62
     5
 63
     7
 74
     0
 91
        0
 64
     7
 65
   257
 75
     1
175
     1
 42
1.0
 92
        0
 66
     7
 43
1.0
 76
     1
 77
     6
 78
     2
 67
     7
 79
     5
170
     0
171
     0
290
     0
174
     0
 93
       13
 44
0.0
173
     0
291
     1
 45
0.0
1001
ACAD
1000
AcDbSavedByObjectVersion
1070
     0
  0
VISUALSTYLE
  5
F3
102
{ACAD_XDICTIONARY
360
28F2
102
}
102
{ACAD_REACTORS
330
EF
102
}
330
EF
100
AcDbVisualStyle
  2
GouraudWithEdges
 70
     3
 71
     2
 72
     2
 73
     1
 90
        2
 40
-0.6
 41
30.0
 62
     5
 63
     7
 74
     1
 91
        0
 64
     7
 65
   257
 75
     1
175
     1
 42
1.0
 92
        0
 66
   257
 43
1.0
 76
     1
 77
     6
 78
     2
 67
     7
 79
     5
170
     0
171
     0
290
     0
174
     0
 93
       13
 44
0.0
173
     0
291
     1
 45
0.0
1001
ACAD
1000
AcDbSavedByObjectVersion
1070
     0
  0
VISUALSTYLE
  5
F7
102
{ACAD_XDICTIONARY
360
28FA
102
}
102
{ACAD_REACTORS
330
EF
102
}
330
EF
100
AcDbVisualStyle
  2
Hidden
 70
     6
 71
     1
 72
     2
 73
     2
 90
        0
 40
-0.6
 41
-30.0
 62
     5
 63
     7
 74
     2
 91
        2
 64
     7
 65
   257
 75
     2
175
     1
 42
40.0
 92
        0
 66
   257
 43
1.0
 76
     1
 77
     6
 78
     2
 67
     7
 79
     3
170
     0
171
     0
290
     0
174
     0
 93
        1
 44
0.0
173
     0
291
     0
 45
0.0
1001
ACAD
1000
AcDbSavedByObjectVersion
1070
     0
  0
VISUALSTYLE
  5
1E4
102
{ACAD_XDICTIONARY
360
290E
102
}
102
{ACAD_REACTORS
330
EF
102
}
330
EF
100
AcDbVisualStyle
  2
JitterOff
 70
    20
 71
     2
 72
     2
 73
     0
 90
        0
 40
-0.6
 41
-30.0
 62
     5
 63
     7
 74
     1
 91
        4
 64
     7
 65
   257
 75
     1
175
     1
 42
1.0
 92
       10
 66
     7
 43
1.0
 76
     1
 77
     6
 78
     2
 67
     7
 79
     5
170
     0
171
     0
290
     0
174
     0
 93
        1
 44
0.0
173
     0
291
     1
 45
0.0
1001
ACAD
1000
AcDbSavedByObjectVersion
1070
     0
  0
VISUALSTYLE
  5
FD
102
{ACAD_XDICTIONARY
360
2906
102
}
102
{ACAD_REACTORS
330
EF
102
}
330
EF
100
AcDbVisualStyle
  2
Linepattern
 70
    14
 71
     2
 72
     2
 73
     1
 90
        0
 40
-0.6
 41
-30.0
 62
     5
 63
     7
 74
     1
 91
        4
 64
     7
 65
   257
 75
     7
175
     7
 42
1.0
 92
        8
 66
     7
 43
1.0
 76
     1
 77
     6
 78
     2
 67
     7
 79
     5
170
     0
171
     0
290
     0
174
     0
 93
        1
 44
0.0
173
     0
291
     1
 45
0.0
1001
ACAD
1000
AcDbSavedByObjectVersion
1070
     0
  0
VISUALSTYLE
  5
1E5
102
{ACAD_XDICTIONARY
360
2910
102
}
102
{ACAD_REACTORS
330
EF
102
}
330
EF
100
AcDbVisualStyle
  2
OverhangOff
 70
    21
 71
     2
 72
     2
 73
     0
 90
        0
 40
-0.6
 41
-30.0
 62
     5
 63
     7
 74
     1
 91
        4
 64
     7
 65
   257
 75
     1
175
     1
 42
1.0
 92
        9
 66
     7
 43
1.0
 76
     1
 77
     6
 78
     2
 67
     7
 79
     5
170
     0
171
     0
290
     0
174
     0
 93
        1
 44
0.0
173
     0
291
     1
 45
0.0
1001
ACAD
1000
AcDbSavedByObjectVersion
1070
     0
  0
VISUALSTYLE
  5
F9
102
{ACAD_XDICTIONARY
360
28FE
102
}
102
{ACAD_REACTORS
330
EF
102
}
330
EF
100
AcDbVisualStyle
  2
Realistic
 70
     8
 71
     2
 72
     2
 73
     0
 90
        2
 40
-0.6
 41
30.0
 62
     5
 63
     7
 74
     0
 91
        0
 64
     7
 65
   257
 75
     1
175
     1
 42
1.0
 92
        8
 66
   257
 43
1.0
 76
     1
 77
     6
 78
     2
 67
     7
 79
     3
170
     0
171
     0
290
     0
174
     0
 93
       13
 44
0.0
173
     0
291
     0
 45
0.0
1001
ACAD
1000
AcDbSavedByObjectVersion
1070
     0
  0
VISUALSTYLE
  5
1F3
102
{ACAD_XDICTIONARY
360
291C
102
}
102
{ACAD_REACTORS
330
EF
102
}
330
EF
100
AcDbVisualStyle
  2
Shaded
 70
    27
 71
     2
 72
     2
 73
     1
 90
        2
 40
-0.6
 41
30.0
 62
     5
 63
     7
 74
     0
 91
        4
 64
     7
 65
   257
 75
     1
175
     1
 42
1.0
 92
        8
 66
   257
 43
1.0
 76
     1
 77
     6
 78
     2
 67
     8
 79
     3
170
     0
171
     0
290
     0
174
     0
 93
        5
 44
0.0
173
     0
291
     0
 45
0.0
1001
ACAD
1000
AcDbSavedByObjectVersion
1070
     0
  0
VISUALSTYLE
  5
1F2
102
{ACAD_XDICTIONARY
360
291A
102
}
102
{ACAD_REACTORS
330
EF
102
}
330
EF
100
AcDbVisualStyle
  2
Shaded with edges
 70
    26
 71
     2
 72
     2
 73
     1
 90
        2
 40
-0.6
 41
30.0
 62
     5
 63
     7
 74
     1
 91
        2
 64
     7
 65
   257
 75
     2
175
     1
 42
1.0
 92
        8
 66
   257
 43
1.0
 76
     1
 77
     6
 78
     2
 67
     7
 79
     3
170
     0
171
     0
290
     0
174
     0
 93
        5
 44
0.0
173
     0
291
     0
 45
0.0
1001
ACAD
1000
AcDbSavedByObjectVersion
1070
     0
  0
VISUALSTYLE
  5
1EF
102
{ACAD_XDICTIONARY
360
2914
102
}
102
{ACAD_REACTORS
330
EF
102
}
330
EF
100
AcDbVisualStyle
  2
Shades of Gray
 70
    23
 71
     2
 72
     2
 73
     3
 90
        0
 40
-0.6
 41
-30.0
 62
     5
 63
     7
 74
     2
 91
        2
 64
     7
 65
     7
 75
     1
175
     1
 42
40.0
 92
        8
 66
     7
 43
1.0
 76
     1
 77
     6
 78
     2
 67
     7
 79
     3
170
     0
171
     0
290
     0
174
     0
 93
        1
 44
0.0
173
     0
291
     0
 45
0.0
1001
ACAD
1000
AcDbSavedByObjectVersion
1070
     0
  0
VISUALSTYLE
  5
1F0
102
{ACAD_XDICTIONARY
360
2916
102
}
102
{ACAD_REACTORS
330
EF
102
}
330
EF
100
AcDbVisualStyle
  2
Sketchy
 70
    24
 71
     1
 72
     2
 73
     2
 90
        0
 40
-0.6
 41
-30.0
 62
     5
 63
     7
 74
     2
 91
        2
 64
     7
 65
     7
 75
     1
175
     1
 42
40.0
 92
       11
 66
     7
 43
1.0
 76
     1
 77
     6
 78
     2
 67
     7
 79
     6
170
     0
171
     0
290
     0
174
     0
 93
        1
 44
0.0
173
     0
291
     0
 45
0.0
1001
ACAD
1000
AcDbSavedByObjectVersion
1070
     0
  0
VISUALSTYLE
  5
FC
102
{ACAD_XDICTIONARY
360
2904
102
}
102
{ACAD_REACTORS
330
EF
102
}
330
EF
100
AcDbVisualStyle
  2
Thicken
 70
    13
 71
     2
 72
     2
 73
     1
 90
        0
 40
-0.6
 41
-30.0
 62
     5
 63
     7
 74
     1
 91
        4
 64
     7
 65
   257
 75
     1
175
     1
 42
1.0
 92
       12
 66
     7
 43
1.0
 76
     1
 77
     6
 78
     2
 67
     7
 79
     5
170
     0
171
     0
290
     0
174
     0
 93
        1
 44
0.0
173
     0
291
     1
 45
0.0
1001
ACAD
1000
AcDbSavedByObjectVersion
1070
     0
  0
VISUALSTYLE
  5
F6
102
{ACAD_XDICTIONARY
360
28F8
102
}
102
{ACAD_REACTORS
330
EF
102
}
330
EF
100
AcDbVisualStyle
  2
Wireframe
 70
     5
 71
     0
 72
     2
 73
     0
 90
        0
 40
-0.6
 41
-30.0
 62
     5
 63
     7
 74
     1
 91
        4
 64
     7
 65
   257
 75
     1
175
     1
 42
1.0
 92
        0
 66
   257
 43
1.0
 76
     1
 77
     6
 78
     2
 67
     7
 79
     3
170
     0
171
     0
290
     0
174
     0
 93
        1
 44
0.0
173
     0
291
     0
 45
0.0
1001
ACAD
1000
AcDbSavedByObjectVersion
1070
     0
  0
VISUALSTYLE
  5
1F1
102
{ACAD_XDICTIONARY
360
2918
102
}
102
{ACAD_REACTORS
330
EF
102
}
330
EF
100
AcDbVisualStyle
  2
X-Ray
 70
    25
 71
     2
 72
     2
 73
     1
 90
        1
 40
0.5
 41
-30.0
 62
     5
 63
     7
 74
     1
 91
        0
 64
     7
 65
   257
 75
     1
175
     1
 42
1.0
 92
        8
 66
     7
 43
1.0
 76
     1
 77
     6
 78
     2
 67
     7
 79
     3
170
     0
171
     0
290
     0
174
     0
 93
       13
 44
0.0
173
     0
291
     0
 45
0.0
1001
ACAD
1000
AcDbSavedByObjectVersion
1070
     0
  0
DICTIONARYVAR
  5
146
102
{ACAD_REACTORS
330
5E
102
}
330
5E
100
DictionaryVariables
280
     0
  1
1:1
  0
DICTIONARYVAR
  5
259
102
{ACAD_REACTORS
330
5E
102
}
330
5E
100
DictionaryVariables
280
     0
  1
3.500000
  0
DICTIONARYVAR
  5
25A
102
{ACAD_REACTORS
330
5E
102
}
330
5E
100
DictionaryVariables
280
     0
  1
acadiso.lin
  0
DICTIONARYVAR
  5
145
102
{ACAD_REACTORS
330
5E
102
}
330
5E
100
DictionaryVariables
280
     0
  1
STANDARD
  0
DICTIONARYVAR
  5
84
102
{ACAD_REACTORS
330
5E
102
}
330
5E
100
DictionaryVariables
280
     0
  1
STANDARD
  0
DICTIONARYVAR
  5
227
102
{ACAD_REACTORS
330
5E
102
}
330
5E
100
DictionaryVariables
280
     0
  1
Metric50
  0
DICTIONARYVAR
  5
228
102
{ACAD_REACTORS
330
5E
102
}
330
5E
100
DictionaryVariables
280
     0
  1
Metric50
  0
DICTIONARYVAR
  5
5F
102
{ACAD_REACTORS
330
5E
102
}
330
5E
100
DictionaryVariables
280
     0
  1
2
  0
DICTIONARYVAR
  5
63
102
{ACAD_REACTORS
330
5E
102
}
330
5E
100
DictionaryVariables
280
     0
  1
1
  0
DICTIONARYVAR
  5
288D
102
{ACAD_REACTORS
330
5E
102
}
330
5E
100
DictionaryVariables
280
     0
  1
0
  0
DICTIONARYVAR
  5
1AE
102
{ACAD_REACTORS
330
5E
102
}
330
5E
100
DictionaryVariables
280
     0
  1
0
  0
DICTIONARYVAR
  5
1AF
102
{ACAD_REACTORS
330
5E
102
}
330
5E
100
DictionaryVariables
280
     0
  1
0
  0
DICTIONARYVAR
  5
288B
102
{ACAD_REACTORS
330
5E
102
}
330
5E
100
DictionaryVariables
280
     0
  1
2
  0
DICTIONARYVAR
  5
288A
102
{ACAD_REACTORS
330
5E
102
}
330
5E
100
DictionaryVariables
280
     0
  1
1
  0
DICTIONARYVAR
  5
28DD
102
{ACAD_REACTORS
330
5E
102
}
330
5E
100
DictionaryVariables
280
     0
  1
80.000000
  0
DICTIONARYVAR
  5
28DC
102
{ACAD_REACTORS
330
5E
102
}
330
5E
100
DictionaryVariables
280
     0
  1
5.000000
  0
DICTIONARYVAR
  5
288C
102
{ACAD_REACTORS
330
5E
102
}
330
5E
100
DictionaryVariables
280
     0
  1
127
  0
DICTIONARYVAR
  5
28DE
102
{ACAD_REACTORS
330
5E
102
}
330
5E
100
DictionaryVariables
280
     0
  1
2
  0
DICTIONARY
  5
2920
330
21C
100
AcDbDictionary
280
     1
281
     1
  3
ACAD_XREC_ROUNDTRIP
360
2921
  0
DICTIONARY
  5
28E5
330
D3
100
AcDbDictionary
280
     1
281
     1
  3
ACAD_XREC_ROUNDTRIP
360
28E6
  0
DICTIONARY
  5
28E7
330
D7
100
AcDbDictionary
280
     1
281
     1
  3
ACAD_XREC_ROUNDTRIP
360
28E8
  0
DICTIONARY
  5
28E2
330
22
100
AcDbDictionary
280
     1
281
     1
  3
ACAD_XREC_ROUNDTRIP
360
28E3
  0
DICTIONARY
  5
1F9
330
ED
100
AcDbDictionary
280
     1
281
     1
  3
ACAD_XREC_ROUNDTRIP
360
28EA
  3
FBXASSET
360
1FA
  0
DICTIONARY
  5
1F7
330
EC
100
AcDbDictionary
280
     1
281
     1
  3
ACAD_XREC_ROUNDTRIP
360
28E9
  3
FBXASSET
360
1F8
  0
DICTIONARY
  5
173
330
EE
100
AcDbDictionary
280
     1
281
     1
  3
ACAD_XREC_ROUNDTRIP
360
28EB
  3
BUMPTILE
360
175
  3
DIFFUSETILE
360
174
  3
FBXASSET
360
1FB
  3
OPACITYTILE
360
176
  3
REFLECTIONTILE
360
177
  0
DICTIONARY
  5
290C
330
12E
100
AcDbDictionary
280
     1
281
     1
  3
ACAD_XREC_ROUNDTRIP
360
290D
  0
DICTIONARY
  5
291E
330
21A
100
AcDbDictionary
280
     1
281
     1
  3
ACAD_XREC_ROUNDTRIP
360
291F
  0
DICTIONARY
  5
162
330
7F
100
AcDbDictionary
280
     1
281
     1
  3
ACAD_ROUNDTRIP_2008_TABLESTYLE_CELLSTYLEMAP
360
28DF
  3
ACAD_XREC_ROUNDTRIP
360
28E4
  0
DICTIONARY
  5
28F6
330
F5
100
AcDbDictionary
280
     1
281
     1
  3
ACAD_XREC_ROUNDTRIP
360
28F7
  0
DICTIONARY
  5
28F4
330
F4
100
AcDbDictionary
280
     1
281
     1
  3
ACAD_XREC_ROUNDTRIP
360
28F5
  0
DICTIONARY
  5
2902
330
FB
100
AcDbDictionary
280
     1
281
     1
  3
ACAD_XREC_ROUNDTRIP
360
2903
  0
DICTIONARY
  5
290A
330
FF
100
AcDbDictionary
280
     1
281
     1
  3
ACAD_XREC_ROUNDTRIP
360
290B
  0
DICTIONARY
  5
28FC
330
F8
100
AcDbDictionary
280
     1
281
     1
  3
ACAD_XREC_ROUNDTRIP
360
28FD
  0
DICTIONARY
  5
2900
330
FA
100
AcDbDictionary
280
     1
281
     1
  3
ACAD_XREC_ROUNDTRIP
360
2901
  0
DICTIONARY
  5
2912
330
1E6
100
AcDbDictionary
280
     1
281
     1
  3
ACAD_XREC_ROUNDTRIP
360
2913
  0
DICTIONARY
  5
2908
330
FE
100
AcDbDictionary
280
     1
281
     1
  3
ACAD_XREC_ROUNDTRIP
360
2909
  0
DICTIONARY
  5
28EC
330
F0
100
AcDbDictionary
280
     1
281
     1
  3
ACAD_XREC_ROUNDTRIP
360
28ED
  0
DICTIONARY
  5
28EE
330
F1
100
AcDbDictionary
280
     1
281
     1
  3
ACAD_XREC_ROUNDTRIP
360
28EF
  0
DICTIONARY
  5
28F0
330
F2
100
AcDbDictionary
280
     1
281
     1
  3
ACAD_XREC_ROUNDTRIP
360
28F1
  0
DICTIONARY
  5
28F2
330
F3
100
AcDbDictionary
280
     1
281
     1
  3
ACAD_XREC_ROUNDTRIP
360
28F3
  0
DICTIONARY
  5
28FA
330
F7
100
AcDbDictionary
280
     1
281
     1
  3
ACAD_XREC_ROUNDTRIP
360
28FB
  0
DICTIONARY
  5
290E
330
1E4
100
AcDbDictionary
280
     1
281
     1
  3
ACAD_XREC_ROUNDTRIP
360
290F
  0
DICTIONARY
  5
2906
330
FD
100
AcDbDictionary
280
     1
281
     1
  3
ACAD_XREC_ROUNDTRIP
360
2907
  0
DICTIONARY
  5
2910
330
1E5
100
AcDbDictionary
280
     1
281
     1
  3
ACAD_XREC_ROUNDTRIP
360
2911
  0
DICTIONARY
  5
28FE
330
F9
100
AcDbDictionary
280
     1
281
     1
  3
ACAD_XREC_ROUNDTRIP
360
28FF
  0
DICTIONARY
  5
291C
330
1F3
100
AcDbDictionary
280
     1
281
     1
  3
ACAD_XREC_ROUNDTRIP
360
291D
  0
DICTIONARY
  5
291A
330
1F2
100
AcDbDictionary
280
     1
281
     1
  3
ACAD_XREC_ROUNDTRIP
360
291B
  0
DICTIONARY
  5
2914
330
1EF
100
AcDbDictionary
280
     1
281
     1
  3
ACAD_XREC_ROUNDTRIP
360
2915
  0
DICTIONARY
  5
2916
330
1F0
100
AcDbDictionary
280
     1
281
     1
  3
ACAD_XREC_ROUNDTRIP
360
2917
  0
DICTIONARY
  5
2904
330
FC
100
AcDbDictionary
280
     1
281
     1
  3
ACAD_XREC_ROUNDTRIP
360
2905
  0
DICTIONARY
  5
28F8
330
F6
100
AcDbDictionary
280
     1
281
     1
  3
ACAD_XREC_ROUNDTRIP
360
28F9
  0
DICTIONARY
  5
2918
330
1F1
100
AcDbDictionary
280
     1
281
     1
  3
ACAD_XREC_ROUNDTRIP
360
2919
  0
XRECORD
  5
2921
102
{ACAD_REACTORS
330
2920
102
}
330
2920
100
AcDbXrecord
280
     1
102
DISPLAYNAME
  1
Metric50
102
FLAGS
 90
        0
  0
XRECORD
  5
28E6
102
{ACAD_REACTORS
330
28E5
102
}
330
28E5
100
AcDbXrecord
280
     1
102
SHADEPLOT
 70
     0
102
SHADEPLOTRESLEVEL
 70
     2
102
SHADEPLOTCUSTOMDPI
 70
   300
  0
XRECORD
  5
28E8
102
{ACAD_REACTORS
330
28E7
102
}
330
28E7
100
AcDbXrecord
280
     1
102
SHADEPLOT
 70
     0
102
SHADEPLOTRESLEVEL
 70
     2
102
SHADEPLOTCUSTOMDPI
 70
   300
  0
XRECORD
  5
28E3
102
{ACAD_REACTORS
330
28E2
102
}
330
28E2
100
AcDbXrecord
280
     1
102
SHADEPLOT
 70
     0
102
SHADEPLOTRESLEVEL
 70
     2
102
SHADEPLOTCUSTOMDPI
 70
   300
  0
XRECORD
  5
28EA
102
{ACAD_REACTORS
330
1F9
102
}
330
1F9
100
AcDbXrecord
280
     1
102
MATERIAL
148
0.0
149
0.0
149
0.0
 93
        0
 94
       63
282
     0
 72
     1
 77
     1
171
     1
175
     1
179
     1
273
     0
  0
XRECORD
  5
1FA
102
{ACAD_REACTORS
330
1F9
102
}
330
1F9
100
AcDbXrecord
280
     1
 70
     1
 90
429727718
  1
D62C5603-E3A1-4AEA-B7FB-FE5D8D0755AF
310
504B03040A0000080000CC70623B3DEE336E79000000790000001B0000006175746F6465736B2D64657369676E2D7061636B6167652E786D6C3C3F786D6C2076657273696F6E3D22312E302220656E636F64696E673D227574662D3822203F3E3C666F726D6174733E3C666F726D61743E687474703A2F2F736368656D612E
310
6175746F6465736B2E636F6D2F64657369676E2D7061636B6167652F323030393C2F666F726D61743E3C2F666F726D6174733E504B0304140006080800CC70623BD486FD9CA0000000F4000000130000005B436F6E74656E745F54797065735D2E786D6C7D8EC10E82300C865F65E91D8A1E8C310C0EEA1BF002731658846E
310
D98AC1B77784ABF1D8FE5FBFBF75BBCE937A534CCEB38643598122B6FEE978D0B0485F9C41B54DDD7D022595594E1A469170414C76A4D9A4D207E29CF43ECE46F218070CC6BECC4078ACAA135ACF422C856C0E68EA1BF5669944DDD7BCDE7B1F8E415D77AECB980613C2E4AC91FC167A2B244592486606FC29C8FD7F045B9A
310
EF7053A7E60B504B0304140006080800CC70623B853B8169EB0000007C01000008000000636F72652E786D6C8D90416EC3201045AF62CDB6C206821CC7C244919D9CA01740401C94182C03558F5F9C3852BBEB6A467FFE9B197D7EFC9E1EC5975982F5AE035262288C535E5B377690E21535501C055FBC8FBF6C503839990E
310
5619041F179FE64D52DE45E362569DD7661365082642A11EB9E920A89B99642953CC8E702F67A9EE7234257977194EC9EAE275C4EABCCF5EAD5940D4AC6F0E35A568B8F43562CD7046CD199FD07E60174276A7BE677B5EADB0E0D14EEFFB6A31321A0D82627C4084204C3F096B71DD52F6819B16635EADF63F509AF53FA164
310
5DDCD1EDDD17164090FCC8732078B56691CB33A85CD7DCC40F504B0304140006080800CC70623B55019EA25F0000007C00000007000000636E782E786D6C4DCB3B0E80201045D1AD90E915ED2CF8AC45050C11660C8261F98AB1B07AC9C97D42D718D865D3E909258CFD00CCE24AC6E326A164D74DC0B4128928FF32603847
310
2BA13128B1252AC747C6BAB984FC68F0B87FE8960A5C09FE86CFB69FBA01504B0304140006080800CC70623BDBABAAF470010000D40300000C0000006662782F636F72652E786D6CC553D16E823014FD95A6AF4B694182CC941A83FA05FB810A9511A125A5257EFE2E82712ECEB8A7F100CD39F7F69E734AF9FADC366850B6
310
AF8DCE7018308C942E4C59EB2AC3DE1D498AD15A706B8CFB56869196ADCAF00863C12B6B7C374385D14E6907A836A59A41D9F7CA615434B0C8705F7CAA5606D23BA8E84F41278B93AC54100640439DE0BDB320004D43C63716C7C399D30917DCFBBA9CD9BA8469F5B156168B24CED3F7248AC8769F27244EB73B92EED8862C
310
B7F13E0C179B3C8F979C8ECD82BBBABDAA2BAC924E9558448CBD9330242CFA08E3154B5651FCC6D215639C8EE5774DBE2B5F6CF2B5768B68963BB5F5588420E442FC700B1139D4CB01F450C1E918227C2E09DF070D8140C84E1E9AAB8F1340832A9CB13130A5F1376A908D57309505ECF2A0DF179C4E9D30F5B239B87E3823
310
7A79C6F31DE1A8A5AEC08474B03C7837EAE4938639B44E5932B833D2C6B6B279CDC613877FA26EE21F4A2A4C63EC7F29A2F301D1F9F7A0E37D145F504B0304140006080800CC70623B9C113CC27E0000009D0000000B0000006662782F636E782E786D6C4DCCDF0A83201C86E15B91DFB94BFB330DD428C8FB886521330DA7
310
6397BF1A1DECE883878F57749FCDA1B7892F1BBC047A23808C7F84D9FA55424E0BE6803A256208E9EF06C84F9B91703228B1C690F78B66B34CD9A5439DF5CF0BFBF65E35BCA1B8D6A5C6F540381E886698B5741C695F9503EBA150A2F8958E3DC3EA0B504B0304140006080800CC70623B7DF2F77C2A010000120200003100
310
00006662782F41393633353835312D344632462D344230382D423046372D3739314545314133324237412F636F72652E786D6C8D51DB8EC22014FC15C2939B0D2DB4B45643319AE817EC0F6041255A68B86CFCFC856D4D76DF7CE190393373060EDB3DC707F856CE6B6B7A480A0C81328395DA5C7B18C3057510EC3873D686
310
3F34088C18550F330C39BB3A1BA7051AAC09CA84841A2BD5020AEF55806078A44B0FFD7053A328440C89E1EFC52486BBB8AA8214A99D789CF9E05200300FC927E4FB4D5B375D43103D5527440FB843077C5AA3F5861C8F645F5787F59E95B390B318B55CE45AA638FAA2957BD7248B390B7A7CC51F9C124149C82B8C378810
310
84AB2F42B7B8DD56F413775B8C5999E9FF4471926F8AA236A1AE96B8B3CC434E5839373893369E1FAF30EA395917409EB7F26AF8801C171837A4A6AC9C89E9F9C9B1A58BA30FD6A5EF5DDDCF894B9AD9B6A59C957943A9FCAE2FD5BC4DFE03504B0304140006080800CC70623BAD7543B64E01000033030000300000006662
310
782F41393633353835312D344632462D344230382D423046372D3739314545314133324237412F636E782E786D6CD593CD6EC32010845F0571AD6CE3D48AD20813A9873E410FBD12D82434182C7EAAE6EDBB2424CD25871E7B41D6EC30B3FA84F9E67BB2E40B4234DE8DB46F1925E094D7C6ED479AD3AE5951B2113C789FEE
310
6C943839C1488B4C05DF079FE72A69D8C96C13AAD6B8631503449F83828872B949AC57D26200B826A308D316B4064D6E46FCDA41C05550DC9E483A00797BFD207EFB092A45DE9514C1BBD22178396BD39D891265658C238DEA00936C654E5E433CB65A26D9F6EDB5EBC14EBF49A45CB856E66048291F6939A9A81BB5C89177
310
38143CA680F4AA299D66A042CEB3354A2684DC9D8D178FE0D9B8B41CAAD720F880EE7EF93C0C18769E099ECC04D5A102C8049A8A05632F4DDF376CF1DE0F6BB65C2F8627B65A33C6BB62177CEBBDAD973006829F89F22E814B54F4BC2BE347F8AA8F681390B50FA73F804400B5F542E796F19FF974E7F78DB802FE05E20750
310
4B0304140006080800CC70623BE75B7789680500003C100000340000006662782F41393633353835312D344632462D344230382D423046372D3739314545314133324237412F6F626A656374732E786D6CAD575B8F9B3818FD2B887D06C22499CB8AA1CA655245D5B455A356FB305264C061D8018C6C3393D95FBFC7600890
310
A4CD5EF210B0B1BFEBF98E3F7B1FF6596ABC522E1296DF9BAE3D320D9A872C4AF2F8DE2CE5CEBA358D0FBEC719939D65A691938CDE9B6ADAF4BD98B3B2D05311DD91329583D9D5FC0F438434A7A611A644887B5384CF34233629258BA878B12322891DEFF6B66BD70BFB62634E8AE781D082709A4B588AF91C528CDA28B73F
310
1C998EEF39EABBEFA97FBD6A7C7E9553F9D3D79FE442923C3C523610337627CB87ABE99D359D4CC6D6E4FACAB5E6ABF9D2726FC6A3C5F56271377BB88362213924694B38DD99FE47C48627A1E7D49F5A8BB5E1A74C0A599ED3B0F21F1E56366B89112D681E218F0915D0D6F17AD41FBA2A369DCF6335D62ABBD39779D5DDD1
310
11D4D8DE3CBB96B2E04FB8202E41051754A1AA8E8F76B4C6DFE810B580B1547F4B84911149794252234D024EF8BBE963A95AE27B3D310A9D5C215C7960FAEE415ED75694C6AFB17BCACA5D99A60A9AA65F217B0BFC53292ACB92BF283FAD0D3621576592CB5BED907C2FA8E9DF794E35E97BEA31BED21FEB401ABB94C44839
310
DCACBF0E1C5DA8DA5B2F4DFFD32AD86F543D9E565E7056502E157C00AD2671CD534549AB752FCA9CDA00677A313F04E51B22FF19E57B300579E3C97EB29F682D92935CEC18CF901B7B54FD8C51F362B56FC72FE0B3C1EAE335EDCCBF5AEC39ADB17DC238973F804BA5E6F6BFE7AF1FB32E523BE9F3BD571418E3631DCA4D48
310
5250CF639223210A9446CA30052EDF057BD35F8329C1ECD84552BF0DC8D18BE7BCE23BFE6BD960AB4A7DE79923A103BEBD80F911CBAA2C60DB19B01CF164A5583B772EE6D3FFA56666CBCDA74DC97724A48F9A58967497E489C4D979006FD7A05E227A1EBDD0F737C623387A9C844D3709995625106D157315F8B8392CD4E0
310
A0B9A720C4BE9829CEF37EA1E13111214D53925356365ADA634861B52519DD27A00AEB808EAF0628E6F435519D446F45CF2C9CF5214F0A15B2F6D06B79DA3EE3CBF7F56780D2F4E7EF73A0F5E5B02A38D07DC852C6B7C1FBB6664213E0C39E3EBA7FF4E1AD23EA2829407C85E586727488B751B2DB9502BC7B228A3FD68B6E
310
A65A22397E690AA8D158D7E404EC8CDA235CC3B7D1898680131CEC2CDF2638C65196279577750F15884AEE19F94199155B92B13297978469D4F8D358DF0AEF7631E28DC8F0D9F437D5D39A83B2231A1D52D543813A824EF8D44BCFF2FA6A31BD1E8DAD87F1CCB526B3879935BF59CDADD5C37479BB1CDD4CA7B3556B516589
310
EF352754B706114D9C885EC9131DE6EFEB43D99AFE2391C2F958179413D7CFEF6B1B6DB1E7600F00DE6E5C67454A339A4BA2E0FBA85ED26F045D454F463DBFCE484C2F90F2E5E3666003662ED8F755951A7D1BECD5B30B550B2785C8E7320B7292A4838DDA71BBC863ED7613CAF659337A3354231D4FF4A182A54904C2898C
310
98B28C4AD0CE056CCF332A80986E571EE9DBC305BB5FEB7E509220A58D25CF042D712A806AC0AD0C657FDEF80D2D9CEAA2EE4D1C76F60BFE74219A06527D6F82DF6412526107381E55E353090704D085B52408A8913C4ED159D79BDA71BB4BC506F4831350EB6F975CD22D69BF7AC49B91A2C0A9DDA3D5CA36AD20FC478E37
310
E61844E2352865EBCB61A275A65283CAAA9DD27703B4102F5AF51EF5F573B75CBB5AD38BC845F7A49F82A0966A49C2E3EA5EA0ECD326CD965F1DB402C6FA8B51A4658C5C5E2EC9E214602E55810345408596591009A82E7E7FFACA19EEA299B14A0081A705CB3296EBC14CDF658DCD336EA6D1136881AAEB87B81AB9EE53D5
310
F5EB8BC8362082DA24122F98680A4E7930C01A0079749CEA14382A0783E5EBA5A10F8C098456A03D6A4AEB6BB881E2513747552A5DB22C7EDAF83BD5528081A365F7FF06504B0304140006080000CC70623B000000000000000000000000350000006662782F41393633353835312D344632462D344230382D423046372D37
310
39314545314133324237412F76657274696365732E62696E504B0304140006080800CC70623BF270F1330600000004000000360000006662782F41393633353835312D344632462D344230382D423046372D3739314545314133324237412F747269616E676C65732E62696E636660600000504B0304140006080000CC7062
310
3B000000000000000000000000370000006662782F41393633353835312D344632462D344230382D423046372D3739314545314133324237412F617474726962757465732E62696E504B0304140006080800CC70623B08DA0BD19000000041010000360000006662782F41393633353835312D344632462D344230382D4230
310
46372D3739314545314133324237412F6469726563746F72792E786D6C858F410AC3201045AF22B36F53E9A60B35CBEEBAE80D244E44489C6234F4F835464A48035D0DF398FF9F8AF63D0E6CC63039F212F8F9020C7D47C6792B21C5FE7403D62A1188E2E60C98D7234A5830286103A55745067B9D86B8A3CF9C7F90C11DE6
310
07FB144396D7B6A82D282E9A152AD114D5EF2CB866EEE831B8EEA07A7BB5A8D7D61A2BAAEB7FD5F70921FF497D00504B0304140006080800CC70623BEDD1DC58FD000000A00100003B0000006662782F41393633353835312D344632462D344230382D423046372D3739314545314133324237412F7265736F75726365732F
310
636F72652E786D6C8D504B6E833010BD0A9A6D65B00922041947112427E8052C33A156828DFCA97AFC9A40A576D7CDCCE87D344F8F9FBFE667F689CE6B6B3A6039850C8DB2A336530731DC4903D95970676DF82583CCC8193B5861107C72362E3BA4AC096842428D1D7107A5F7182053CF7474E0D507CE32973124857FE48B
310
540F3961CEF244279DE03EB81420DB9EAC1384436FA353E879B1B182C7A8C75DA3C7F453DF353A1075D537A7BA6464B8F535A99AE14A9A2BBD90E350DD183B5CFABE3AF262350B1EF4FC9351399401471025A527C218A1E53BAB5A5AB765F5469B96525EACF23FA6B88CFF34456DC2A1DCE36E360F82A5202F42F062ED2BAD
310
579969AFDD8A6F504B010214000A0000080000CC70623B3DEE336E79000000790000001B00000000000000000000000000000000006175746F6465736B2D64657369676E2D7061636B6167652E786D6C504B01021400140006080800CC70623BD486FD9CA0000000F40000001300000000000000000000000000B20000005B
310
436F6E74656E745F54797065735D2E786D6C504B01021400140006080800CC70623B853B8169EB0000007C010000080000000000000000000000000083010000636F72652E786D6C504B01021400140006080800CC70623B55019EA25F0000007C000000070000000000000000000000000094020000636E782E786D6C504B
310
01021400140006080800CC70623BDBABAAF470010000D40300000C00000000000000000000000000180300006662782F636F72652E786D6C504B01021400140006080800CC70623B9C113CC27E0000009D0000000B00000000000000000000000000B20400006662782F636E782E786D6C504B01021400140006080800CC70
310
623B7DF2F77C2A010000120200003100000000000000000000000000590500006662782F41393633353835312D344632462D344230382D423046372D3739314545314133324237412F636F72652E786D6C504B01021400140006080800CC70623BAD7543B64E010000330300003000000000000000000000000000D2060000
310
6662782F41393633353835312D344632462D344230382D423046372D3739314545314133324237412F636E782E786D6C504B01021400140006080800CC70623BE75B7789680500003C10000034000000000000000000000000006E0800006662782F41393633353835312D344632462D344230382D423046372D3739314545
310
314133324237412F6F626A656374732E786D6C504B01021400140006080000CC70623B0000000000000000000000003500000000000000000000000000280E00006662782F41393633353835312D344632462D344230382D423046372D3739314545314133324237412F76657274696365732E62696E504B01021400140006
310
080800CC70623BF270F133060000000400000036000000000000000000000000007B0E00006662782F41393633353835312D344632462D344230382D423046372D3739314545314133324237412F747269616E676C65732E62696E504B01021400140006080000CC70623B0000000000000000000000003700000000000000
310
000000000000D50E00006662782F41393633353835312D344632462D344230382D423046372D3739314545314133324237412F617474726962757465732E62696E504B01021400140006080800CC70623B08DA0BD1900000004101000036000000000000000000000000002A0F00006662782F41393633353835312D344632
310
462D344230382D423046372D3739314545314133324237412F6469726563746F72792E786D6C504B01021400140006080800CC70623BEDD1DC58FD000000A00100003B000000000000000000000000000E1000006662782F41393633353835312D344632462D344230382D423046372D3739314545314133324237412F7265
310
736F75726365732F636F72652E786D6C504B0506000000000E000E0080040000641100000000
  0
XRECORD
  5
28E9
102
{ACAD_REACTORS
330
1F7
102
}
330
1F7
100
AcDbXrecord
280
     1
102
MATERIAL
148
0.0
149
0.0
149
0.0
 93
        0
 94
       63
282
     0
 72
     1
 77
     1
171
     1
175
     1
179
     1
273
     0
  0
XRECORD
  5
1F8
102
{ACAD_REACTORS
330
1F7
102
}
330
1F7
100
AcDbXrecord
280
     1
 70
     1
 90
429727718
  1
30362254-06B7-45E0-A893-8CFA70E3D6BC
310
504B03040A0000080000CC70623B3DEE336E79000000790000001B0000006175746F6465736B2D64657369676E2D7061636B6167652E786D6C3C3F786D6C2076657273696F6E3D22312E302220656E636F64696E673D227574662D3822203F3E3C666F726D6174733E3C666F726D61743E687474703A2F2F736368656D612E
310
6175746F6465736B2E636F6D2F64657369676E2D7061636B6167652F323030393C2F666F726D61743E3C2F666F726D6174733E504B0304140006080800CC70623BD486FD9CA0000000F4000000130000005B436F6E74656E745F54797065735D2E786D6C7D8EC10E82300C865F65E91D8A1E8C310C0EEA1BF002731658846E
310
D98AC1B77784ABF1D8FE5FBFBF75BBCE937A534CCEB38643598122B6FEE978D0B0485F9C41B54DDD7D022595594E1A469170414C76A4D9A4D207E29CF43ECE46F218070CC6BECC4078ACAA135ACF422C856C0E68EA1BF5669944DDD7BCDE7B1F8E415D77AECB980613C2E4AC91FC167A2B244592486606FC29C8FD7F045B9A
310
EF7053A7E60B504B0304140006080800CC70623B1EC5D7A3EB0000007C01000008000000636F72652E786D6C8D90416EC3201045AF82665B6103C6756C6122AB4D4ED00B204C5C94182C03558F5F9C3852BBEB6A467FFE9B197D71FC9E6FE8CBACC17AD7032D0820E3B41FAD9B7A48F1820F808E52ACDEC75F36404ECDA687
310
4D0629A6D5A76597B477D1B89855E747B38B2A041301E95B6E7A08FAD3CCAA50296647B8168BD2573599823EBB0CA76447F43862C7BCCF5EAC59410E4DDD9C7973C2755553CCCFA4C603E3040F1565ED3B1FDE4E432BCA0D9622DAF9795FAF464533826484B498524CD807E51D79ED187F21878E10516EF63F505AC67F42C9
310
BA58B1FDDD071640D2FCC87D2045B96591CB3DA85CB7DCE40F504B0304140006080800CC70623B55019EA25F0000007C00000007000000636E782E786D6C4DCB3B0E80201045D1AD90E915ED2CF8AC45050C11660C8261F98AB1B07AC9C97D42D718D865D3E909258CFD00CCE24AC6E326A164D74DC0B4128928FF32603847
310
2BA13128B1252AC747C6BAB984FC68F0B87FE8960A5C09FE86CFB69FBA01504B0304140006080800CC70623B8C9102E971010000D40300000C0000006662782F636F72652E786D6CC5535B6E833010BC8AE5DF0A6C08340F1947A84D4ED00B38C6A128602363A31CBFCB234A53A551FA553EC09AD9F5CE8C31DB9E9B1AF5CA
310
7695D1198E428A91D2D214952E33ECDD315861B4E5CC1AE3BE9561A445A3323CC098B3D21ADFCE9034DA29ED00D5A6503328BA4E398C640D8B0C77F253352214DE4145770A5B214FA2546114020D759C75CE8200340D19DE981F0F6746269C33EFAB6266AB02A655C74A59CCF365BADC27CB5D902ED22848F6340DF238A141
310
BE88E2F57B92BFEDF23523433367AE6A2EEAA455C2A902F398D2751045018D3FA264435F3771F242571B4A1919CA6F9A7C5B3CD9E42BED16F12C776AEB308F40C848FC700B1139D4891EF410CEC810227CC6846F8386402064270EF5C5C709A05E49676C024C61FC95EA45ED154CA5211D1FF4FB8291A913A68E9B83EBBB33
310
E2A7673CDE118E5AE8124C0807CB8377834E366998436B950D7A7746DAD846D4CFD978E0F04FD455FC5D49D2D4C6FE9722321F10997F0F32DC47FE05504B0304140006080800CC70623BFFEA85907E0000009D0000000B0000006662782F636E782E786D6C4DCCD10A83201886E15B91FFDC95D95A811AB6F23E625948A6C3
310
E9D8E5AF46073BFAE0E1E365ED67B3E8ADC3CB78C7815C7240DA3DFC64DCC221C519D7805AC182F7F1EF06C88D9BE6703008B6049F9E274D7A1E938DBB5AE3D6131B2589BA0D3D965551E0B2EA732C9B9A624AAEB41E3A557677029960D9AFB4EF11165F504B0304140006080800CC70623B4FEEA4082C0100001202000031
310
0000006662782F39464131463745442D413632322D343644302D413938332D3331353338454246344243312F636F72652E786D6C8D515B6EC32010BC0AE2AB55850DD871ED0813254D72825EC00192A2C460F1A872FC42ED48ED5F7E00CDCECCCEB26C731F6FE05B39AFADE921293004CA082BB5B9F43086336A21D870E6AC
310
0D7F68109861543DCC30E4ECE26C9C164858139409093556AA051CBC570102714B8F1E7AF1A5C6A11862480C7F2DA6415C878B2A4891CA89C7990F2E050073937C42DE1DB7E4F87ED8A36D4329AA9B3D46DBAEAD504556557BD81DEBDD0761E52CE42C462D17B996298E3E6BE59E35C962CE821E1FF18553435012728A7187
310
0841987E927A8D9B35ADDF70BBC6989599FE4F1427F9A4286A132ABAC49D651EF234CD5CE04CDA78BA3DC2A8FB645D00B9DF8B57E215725C60BCA2A463E54C4CE327C7A65E1C7DB02E7DEFCBF594B864C5CA6CDBD49C957943E9FA5D5FBAF336F90F504B0304140006080800CC70623BAD7543B64E01000033030000300000
310
006662782F39464131463745442D413632322D343644302D413938332D3331353338454246344243312F636E782E786D6CD593CD6EC32010845F0571AD6CE3D48AD20813A9873E410FBD12D82434182C7EAAE6EDBB2424CD25871E7B41D6EC30B3FA84F9E67BB2E40B4234DE8DB46F1925E094D7C6ED479AD3AE5951B2113C
310
789FEE6C943839C1488B4C05DF079FE72A69D8C96C13AAD6B8631503449F83828872B949AC57D26200B826A308D316B4064D6E46FCDA41C05550DC9E483A00797BFD207EFB092A45DE9514C1BBD22178396BD39D891265658C238DEA00936C654E5E433CB65A26D9F6EDB5EBC14EBF49A45CB856E66048291F6939A9A81BB5
310
C8917738143CA680F4AA299D66A042CEB3354A2684DC9D8D178FE0D9B8B41CAAD720F880EE7EF93C0C18769E099ECC04D5A102C8049A8A05632F4DDF376CF1DE0F6BB65C2F8627B65A33C6BB62177CEBBDAD973006829F89F22E814B54F4BC2BE347F8AA8F681390B50FA73F804400B5F542E796F19FF974E7F78DB802FE05
310
E207504B0304140006080800CC70623B16AB87BA640500003C100000340000006662782F39464131463745442D413632322D343644302D413938332D3331353338454246344243312F6F626A656374732E786D6CAD575B6FA33818FD2B887DE6924B3BED8A326A92B68A663B534DD4D13E548A0C38942D60649B369D5FBFC7
310
600890A493BDE42160637FD7F31D7FF63E6FB3D478A55C242CBF3247B66B1A340F5994E4F19559CA8D75611A9F7D8F33263BCB4C232719BD32D5B4E97B316765A1A722BA21652A07B3B7B33F0D11D29C9A46981221AE4C113ED38CD8A4942CA2E2C58E882476BCD9DA23BB5ED8171B73523C0F841684D35CC252CCE79062D4
310
468DFA43D7747CCF51DF7D4FFDEB5593E3AB9CCA9FBEFE241792E4E19EB28198C968BAB8199F5D5A67D3E9C49A9E8F47D6EC76B6B0469F26EEFC7C3EBFBCBEB98462213924694B38DD98FE1D62C393D073EA4FADC5DAF04326852CCF6958F90F0F2B9BB5C48816348F90C7840A68EB78EDF68723159BCEE7891A6B95DDE9D3
310
BCEAEEE8086A6C6F9E5D4B59F0175C10A7A0820BAA5055C7473B5AE3CFDD452D602CD5DF12616444529E90D448938013FE6EFA58AA96F85E4F8C42275708571E98FE6827AF6B2B4AE3D7D83D64E5A64C53054DD3AF90BD06FEA9149565C94FCA0F6B834DC85599E4F2423B24DF0B6AFA979E534DFA9E7A4CC6FA631D486393
310
921829879BF5D781A373557BCB85E97FB90DB62B558F8795179C15944B051F40AB495CF35451D26A4727654E6D8033BD98EF82F21D91FF8AF2DD9982BCF1643BDD4EB516C9492E368C67C88DED563FC36D5EACF66DFF057C3658BDBFA69DF9578B3DA735B64F18C7F20770A9D45CFCF7FCF563D6456A277DBEF78A02637CA2
310
43B90A490AEAB94F72244481D24819A6C0E59B606BFA4B3025981DBB48EAB701D97BF19C577CC77F2D1B6C55A9EF3C732474C0B727303F625995056C3B02963D9EAC146BE78EC5FCEC7FA999EBC5EACBAAE41B12D27B4D2C0BBA49F244E2ECDC81B76B502F113D8F5EE8FB1BE3111CDD4FC2AA9B844CAB1288B68AB90A7CDC
310
1C166AB0D3DC5310625FCC14E779BFD0709F8890A629C9292B1B2DED31A4B0DA928CEE135085754027E3018A397D4D5427D15BD1330B677DC8934285AC3DF45A9EB68FF8F2B8FC0A509AFEECFD0FF2DE25CC6047F7214B195F07EFEB9A094D800F7BFAE8FED187B78EA8A3A400F115961BCAD1215E47C966530AF0EE8128FE
310
58CEBB996A8964FFA529A046635D9353B0336A8F700DDF46271A024E70B0B37C9DE01847591E54DED53D54202AB947E4076556AC49C6CA5C9E1226B7F1A7B1BE15DEED62C41B91E1B3E9AFAAA735036547343A925075041DF0A9979E893B391F8FCFA6967B3EFB644DCF6E5CEBFAE272625DCC6FAF3FB93793C5F90CE1EF57
310
407342756B10D1C489E8953CD1617E5CEECAD6F4EF8914CE5D5D504E5C3F1F9736DA62CFC11E00BCDDB8CC8A9466349744C1F75EBDA4DF09BA8A9E8C7A7E9991989E20E5DBDD6A6003664ED8F7A04A8DBE0DF6EAD9B9AA858342E47399053949D2C146EDB85DE4B176BB0965FBAC19BD19AA918E27FA50C1D22402E144464C
310
59462568E704B6E71915404CB72B8FF4EDE184DDAF753F284990D2C6926782963815403548A70C657FDEF80D2D9CEAA2AE4C1C76F60BFE74219A06527D6582DF6412526107381E55E353090704D085B52408D0933C4ED159D79BDA71BB4BC506F4831350EB6F979CD22D69BF7AC49B91A2C0A9DDA3D5CA36AD20FC478E37E6
310
1844E2352865EBCB6EA275A652E3836BE04EFB400BF1A2556F515F1FBB35B2AB35BD889C744FFA1004B5544B121E57F70215746DD2F5E2C1412B602CBF19455AC6C8E5E9922C4E01E65215385004546899059180EAFCF7A707CE7017CD8CDB0410789AB32C63B91E5CEBBBACB17AC6CD347A022D5075FD106377347AAABA7E
310
7D11590744509B44E205134DC1290F06580320F78E537D3D73540E06CB970B431F185308AD40BBD794D6D77003C5A36E8EAA54BA64597CD8F83BD552A080A365F7FF06504B0304140006080000CC70623B000000000000000000000000350000006662782F39464131463745442D413632322D343644302D413938332D3331
310
353338454246344243312F76657274696365732E62696E504B0304140006080800CC70623BF270F1330600000004000000360000006662782F39464131463745442D413632322D343644302D413938332D3331353338454246344243312F747269616E676C65732E62696E636660600000504B0304140006080000CC70623B
310
000000000000000000000000370000006662782F39464131463745442D413632322D343644302D413938332D3331353338454246344243312F617474726962757465732E62696E504B0304140006080800CC70623B08DA0BD19000000041010000360000006662782F39464131463745442D413632322D343644302D413938
310
332D3331353338454246344243312F6469726563746F72792E786D6C858F410AC3201045AF22B36F53E9A60B35CBEEBAE80D244E44489C6234F4F835464A48035D0DF398FF9F8AF63D0E6CC63039F212F8F9020C7D47C6792B21C5FE7403D62A1188E2E60C98D7234A5830286103A55745067B9D86B8A3CF9C7F90C11DE607
310
FB144396D7B6A82D282E9A152AD114D5EF2CB866EEE831B8EEA07A7BB5A8D7D61A2BAAEB7FD5F70921FF497D00504B0304140006080800CC70623B0D6EF93BFE000000A00100003B0000006662782F39464131463745442D413632322D343644302D413938332D3331353338454246344243312F7265736F75726365732F63
310
6F72652E786D6C8D50596E833010BD0A9ADFCA60B334011947A8694ED00B586642AC041B79A97AFC9A40A5F6AF3F33A3B7689E1E3F7DCD8FEC139DD7D6F4C0720A191A65476DA61E62B892236427C19DB5E1970C322367EC618541F0C9D9B8EC90B226A009093576C41D94DE63804C3DD2D18357379C652E63480A7FCF17A9
310
EE72C29CE5894E3AC17D702940B63D59270887DE46A7D0F36263058F518FBB468FE9A7BE6A7420864373B8D4873369AA8691FA421B3294352543C5CAF65C0F6FEF43CB8BD52C78D0F34F46E550061C419494B6843142CB0F5677F4B52BEB177AEC28E5C52AFF638ACBF84F53D42654E51E77B379102C05791282176B5F693D
310
CB4C7BED567C03504B010214000A0000080000CC70623B3DEE336E79000000790000001B00000000000000000000000000000000006175746F6465736B2D64657369676E2D7061636B6167652E786D6C504B01021400140006080800CC70623BD486FD9CA0000000F40000001300000000000000000000000000B20000005B
310
436F6E74656E745F54797065735D2E786D6C504B01021400140006080800CC70623B1EC5D7A3EB0000007C010000080000000000000000000000000083010000636F72652E786D6C504B01021400140006080800CC70623B55019EA25F0000007C000000070000000000000000000000000094020000636E782E786D6C504B
310
01021400140006080800CC70623B8C9102E971010000D40300000C00000000000000000000000000180300006662782F636F72652E786D6C504B01021400140006080800CC70623BFFEA85907E0000009D0000000B00000000000000000000000000B30400006662782F636E782E786D6C504B01021400140006080800CC70
310
623B4FEEA4082C0100001202000031000000000000000000000000005A0500006662782F39464131463745442D413632322D343644302D413938332D3331353338454246344243312F636F72652E786D6C504B01021400140006080800CC70623BAD7543B64E010000330300003000000000000000000000000000D5060000
310
6662782F39464131463745442D413632322D343644302D413938332D3331353338454246344243312F636E782E786D6C504B01021400140006080800CC70623B16AB87BA640500003C1000003400000000000000000000000000710800006662782F39464131463745442D413632322D343644302D413938332D3331353338
310
454246344243312F6F626A656374732E786D6C504B01021400140006080000CC70623B0000000000000000000000003500000000000000000000000000270E00006662782F39464131463745442D413632322D343644302D413938332D3331353338454246344243312F76657274696365732E62696E504B01021400140006
310
080800CC70623BF270F133060000000400000036000000000000000000000000007A0E00006662782F39464131463745442D413632322D343644302D413938332D3331353338454246344243312F747269616E676C65732E62696E504B01021400140006080000CC70623B0000000000000000000000003700000000000000
310
000000000000D40E00006662782F39464131463745442D413632322D343644302D413938332D3331353338454246344243312F617474726962757465732E62696E504B01021400140006080800CC70623B08DA0BD190000000410100003600000000000000000000000000290F00006662782F39464131463745442D413632
310
322D343644302D413938332D3331353338454246344243312F6469726563746F72792E786D6C504B01021400140006080800CC70623B0D6EF93BFE000000A00100003B000000000000000000000000000D1000006662782F39464131463745442D413632322D343644302D413938332D3331353338454246344243312F7265
310
736F75726365732F636F72652E786D6C504B0506000000000E000E0080040000641100000000
  0
XRECORD
  5
28EB
102
{ACAD_REACTORS
330
173
102
}
330
173
100
AcDbXrecord
280
     1
102
MATERIAL
148
0.0
149
0.0
149
0.0
 93
        0
 94
       63
282
     0
 72
     1
 77
     1
171
     1
175
     1
179
     1
273
     0
  0
XRECORD
  5
175
102
{ACAD_REACTORS
330
173
102
}
330
173
100
AcDbXrecord
280
     1
270
     1
271
     1
  0
XRECORD
  5
174
102
{ACAD_REACTORS
330
173
102
}
330
173
100
AcDbXrecord
280
     1
270
     1
271
     1
  0
XRECORD
  5
1FB
102
{ACAD_REACTORS
330
173
102
}
330
173
100
AcDbXrecord
280
     1
 70
     0
 90
1673772943
  1
ECE7A1D2-D628-4531-984C-D00F80459256
310
504B03040A0000080000CC70623B3DEE336E79000000790000001B0000006175746F6465736B2D64657369676E2D7061636B6167652E786D6C3C3F786D6C2076657273696F6E3D22312E302220656E636F64696E673D227574662D3822203F3E3C666F726D6174733E3C666F726D61743E687474703A2F2F736368656D612E
310
6175746F6465736B2E636F6D2F64657369676E2D7061636B6167652F323030393C2F666F726D61743E3C2F666F726D6174733E504B0304140006080800CC70623BD486FD9CA0000000F4000000130000005B436F6E74656E745F54797065735D2E786D6C7D8EC10E82300C865F65E91D8A1E8C310C0EEA1BF002731658846E
310
D98AC1B77784ABF1D8FE5FBFBF75BBCE937A534CCEB38643598122B6FEE978D0B0485F9C41B54DDD7D022595594E1A469170414C76A4D9A4D207E29CF43ECE46F218070CC6BECC4078ACAA135ACF422C856C0E68EA1BF5669944DDD7BCDE7B1F8E415D77AECB980613C2E4AC91FC167A2B244592486606FC29C8FD7F045B9A
310
EF7053A7E60B504B0304140006080800CC70623BD9DDAED0EC0000007C01000008000000636F72652E786D6C8D90416EC3201045AF82665B61836D9CD8C2444DD39CA01740405C94182C03558F5F9C3852BBEB6A467FFE9B197D7EF89E6EE8CB2CC17A37002D0820E394D7D68D03A478C17B4007C117EFE32F1B20272733C0
310
2A83E0E3E2D3BC49CABB685CCCAAF3DA6CA20CC14440EA969B0182FA34932C648AD911AEC52CD5558EA6A0CF2EC329598D1E47ACCEFBECC59A050463A7EA5833865FEBDD0E37353BE3EE8DBDE3F6786A48D375FBF6CC78B9C282473B3DEFABC5C86834888A900E538A49F5419B9EB47DD5BC907D4F082F57FB1F28CDFA9F50
310
B22ED6D5F6EE030B20687EE43E10BC5CB3C8E51E54AE6B6EE207504B0304140006080800CC70623B55019EA25F0000007C00000007000000636E782E786D6C4DCB3B0E80201045D1AD90E915ED2CF8AC45050C11660C8261F98AB1B07AC9C97D42D718D865D3E909258CFD00CCE24AC6E326A164D74DC0B4128928FF326038
310
472BA13128B1252AC747C6BAB984FC68F0B87FE8960A5C09FE86CFB69FBA01504B0304140006080800CC70623BA24EB22D72010000D40300000C0000006662782F636F72652E786D6CC5535B6E833010BC8AE5DF0A6C5E49888CA3A6694ED00B38E05014B091B1518EDFE511A5A9D228FD2A1F60CDEC7A67C6986DCE4D8D7A
310
69BA4AAB0C073EC548AA5C17952A33ECECD15B61B4E1CC686DBF9561A44423333CC098B3D268D7CE50AE9595CA02AA74216750749DB418E5352C32DCE59FB211BE70162ABA93DF8AFC244AE9073ED050C759670D0840D390E18DF9F1706664C23973AE2A66B62A605A75ACA4C13C4976E1364A12EF355A2EBD384AF65EFA96
310
BC7B8BED2EA6719AAE16FB8491A199335B351775B991C2CA02F390D2D40B028F861F41BCA68B7518BFD0D59A524686F29B26D7164F36B94AD9289CE54E6D1DE6010819891F6E21228B3AD1831EC219194284CF98F06DD01008846CC5A1BEF83801D4CBDC6A1303536877A57A513B0953A94FC707FDBE6064EA84A9E3E6E0FA
310
EE8CF0E9198F7784A316AA0413C2C2F2E0ECA0934D1AE6D05A69BCDE9E91D2A611F573361E38FC1375157F5752AE6B6DFE4B11990F88CCBF0719EE23FF02504B0304140006080800CC70623B408A7D3B7C0000009D0000000B0000006662782F636E782E786D6C4DCCD10A83201886E15B91FFDC552A92A0064DBC8F581632
310
D3703A76F9ABD1C18E3E78F878E5F0D9027ABBFCF2292AE86E2D20171F69F6715550CB827B40839639A5F2770314A7CD293819B45C73AAFB45B35BA61ACAA1C1C7E7855C58C15BC331339661262CC762340413D68D77DA5B42298546CBE6573AF60CEB2F504B0304140006080800CC70623B449FB9BD290100001202000031
310
0000006662782F36394639363044362D344446342D343946362D394244322D3234314243333846323333332F636F72652E786D6C8D515B6EC32010BC0AE22B55850D98B871848994463E412FE002495162B07854397EA176A4F62F3F2C9A9D991D587EB84F37F0AD7D30CEF6905418026DA553C65E7A98E219ED203808EE9D
310
8B7F6810D871D23D2C3014FCE25D9A57483A1BB58D19B54EE9151C43D0110279CB971E06F9A5A7B11A53CC8C70ADE6515EC78BAE4895DB992778883E0700CB907242D17643D7E2538BD869608875438BBAE38922CAC8F1BDD90DB4691A5E2F42C153326A951B95E398B3D1FE599322163C9AE9115F7A3D46ADA0A018778810
310
84E907617BDCEE297BC5BB3DC6BC2EF47FA234AB2745C9D8D8D035EE220B50105E2F0DC1954B9FB747187D9F9D8FA0CCDB042D5FA0C015C65B42DF78BD10F3F3B363CB56C7109DCFDFBBB97E662ED92EB62D13BC2E1BCAE5777DB9966D8A1F504B0304140006080800CC70623BAD7543B64E01000033030000300000006662
310
782F36394639363044362D344446342D343946362D394244322D3234314243333846323333332F636E782E786D6CD593CD6EC32010845F0571AD6CE3D48AD20813A9873E410FBD12D82434182C7EAAE6EDBB2424CD25871E7B41D6EC30B3FA84F9E67BB2E40B4234DE8DB46F1925E094D7C6ED479AD3AE5951B2113C789FEE
310
6C943839C1488B4C05DF079FE72A69D8C96C13AAD6B8631503449F83828872B949AC57D26200B826A308D316B4064D6E46FCDA41C05550DC9E483A00797BFD207EFB092A45DE9514C1BBD22178396BD39D891265658C238DEA00936C654E5E433CB65A26D9F6EDB5EBC14EBF49A45CB856E66048291F6939A9A81BB5C89177
310
38143CA680F4AA299D66A042CEB3354A2684DC9D8D178FE0D9B8B41CAAD720F880EE7EF93C0C18769E099ECC04D5A102C8049A8A05632F4DDF376CF1DE0F6BB65C2F8627B65A33C6BB62177CEBBDAD973006829F89F22E814B54F4BC2BE347F8AA8F681390B50FA73F804400B5F542E796F19FF974E7F78DB802FE05E20750
310
4B0304140006080800CC70623B8D05915C650500003B100000340000006662782F36394639363044362D344446342D343946362D394244322D3234314243333846323333332F6F626A656374732E786D6CAD575B6FA33814FE2B887D06429276DA1565D4266D158D3A339A6846FB502932E050B66023DB74D2FDF5FB190C01
310
9276B2973C046C8ECFF53B17071F77456EBD502133CEAE6CDF9DD81665314F32965ED995DA3A17B6F5310C04E7AA47665B8C14F4CAD6DB7618A48257A5D94AE89654B91AEDDEDDFC61C998326A5B714EA4BCB265FC440BE2924AF184CA6737218AB8E976E7FA6E4338649B0A523E8D98964450A6A029F619B8588D52FE7039
310
B1BD30F0F4F730D0FF866AF6369557DB33949F31A9088B0F848DD8CCFCF9F2767A76E99CCDE733677E3EF59D9BBB9BA5E37F984D16E78BC5E5F5ED25044B25C0C96822E8D60EEFE11B91C581D77CEA34368A1F5329E68CD1B8B61F16D63A1B8E092D294B10C78C4A48EB593D192E7DED9BDEE7995E1B91FDEDD3ACEA9FE831
310
6A756F9F7D4D79F4274C90A7A04248AA51D5F8C718DAE06FB2F75AC4796EBE65D22A88A22223B995679120E2D50E41AA49C260C046A35368846B0BECD0DFF3EBEB8AD4F835768F69B9ADF25C43D30E6B646F807FAA64AD59F61715C7A54127C4AACA98BA3006A9D792DAE165E0D59B61A01FB3A9F9D838D2DAE62445C86166
310
F37564E842E7DE6A69879FEEA2DD5AE7E371E1A5E025154AC307D06A03D73EB5978C58FFA4C8E9033066E0F3BD53BEC1F39F91BE7B55103791EDE6BBB991A2046172CB4581D8B893FA674DDA17A77B3B7C413D1B511FD2743BFF8A38F03A658705E3ADF8015C3A3417FF3D7E439FF591DA0B5F18BC20C1B8981957AE6392A3
310
F43C640C01D1A0B4728E2DD4F26DB4B3C3152A252A3B4E913CEC1C72F012782FF88EFF8637AA552DBEF76408E8A8DE9E50F9E1CB3A2DA0DB1B6039A893B56063DC5B3E3FFB5F72E67AB9FEB4AEC496C4F4C1149625DD662C53E89D7BF0F6151A046260D1337DFDC94502430F83B0EE07A130A224BCAD7DAE1D9FB6CD422FF6
310
920702629C4BB9AE79C12F243C6432A6794E18E5552BA56B431AAB5D91317302B2B071E86C3A42B1A02F999E24061403B5D0EB639195DA655DD3EBEAB4FB862DDF579F014AD0E73C22F99E28DA57FB98E75C6CA2D74D53086D600F4786E0FE3144B771A8A7B900F03594DB8A633CBC49B2EDB69228BB479CF863B5E807AAAB
310
23872F6DFEB4129B949CA33823F58830E86D65621E10047D9DB34D862E8EAC3C2ABC2F7B2C40D67CDFE01F5545B92105AF983AC54D93D69E56FB8E797F88913F898A9FEC705D3F9D1B54EC8426FB500D40A03BD0119B06E1B95DDC7EB8F6975367793EBD70E66733DFB9BC982F9CE564727731999F5D4ECFCE3B8D6A4DC2A0
310
6D50FD148437D110834A64C6CDDF57FBACB5C307A2A477DFE4939736CFEF2B175371E0E10CF0DD1D5C15654E0BCA14D1E87DD02FF93782A162C0A3D95F1524A52770F972BF1EE9809D13CE7DD599467F8ECE9ADD85CE85A34CD45355448C64F9E8A031DC2D596ACC6E5DD93D9B82DE2EF5CAF81363A8E47996A0DE24564A79
310
4115AACE09C55E14540231FDA13C319787134EBF34E3A022514E5B4D9E0826E25C02D5805B15ABE1BEF51B26383D445DD9E875EE33FE4C22DA16427D65A3BCA92CA6D28DD01DF5DC53330704308475351050232CCD31583787BA75774AFB06E5070DD0C8EF484E19968C5D83BA5B90B244D31E54D55A372320FE4786B7EA58
310
44E135AA5467CB7EA333A61683CC6A8C3257034C10CF46F40EF9F5BE59BE5BD30C3C72D235E95D10345C1D45445A5F0BB47E46A5EBE5570F9380B5FA629579952296A773720405982B9DE04011506178964401AA8BDF1FBF0A8EAB6861DD6580C0E38217056766716DAEB2D6FA0917D3E4116581EADB879C4E7CFFB11EFACD
310
3D641311495D92C8676CB409A72D18610D803CE8A626049E8EC1887CB5B44CC39883690DDA8399B4B9855B481E7D71D4A9D22F96E5BB73BF5793020C02137BF837504B0304140006080000CC70623B000000000000000000000000350000006662782F36394639363044362D344446342D343946362D394244322D32343142
310
43333846323333332F76657274696365732E62696E504B0304140006080800CC70623BF270F1330600000004000000360000006662782F36394639363044362D344446342D343946362D394244322D3234314243333846323333332F747269616E676C65732E62696E636660600000504B0304140006080000CC70623B0000
310
00000000000000000000370000006662782F36394639363044362D344446342D343946362D394244322D3234314243333846323333332F617474726962757465732E62696E504B0304140006080800CC70623B08DA0BD19000000041010000360000006662782F36394639363044362D344446342D343946362D394244322D
310
3234314243333846323333332F6469726563746F72792E786D6C858F410AC3201045AF22B36F53E9A60B35CBEEBAE80D244E44489C6234F4F835464A48035D0DF398FF9F8AF63D0E6CC63039F212F8F9020C7D47C6792B21C5FE7403D62A1188E2E60C98D7234A5830286103A55745067B9D86B8A3CF9C7F90C11DE607FB14
310
4396D7B6A82D282E9A152AD114D5EF2CB866EEE831B8EEA07A7BB5A8D7D61A2BAAEB7FD5F70921FF497D00504B0304140006080800CC70623BCA768048FE000000A00100003B0000006662782F36394639363044362D344446342D343946362D394244322D3234314243333846323333332F7265736F75726365732F636F72
310
652E786D6C8D50596E833010BD0A9ADFCA60D600328E9AA639412F609909B1126CE4A5EAF16B0295DABFFECC8CDEA2797AECF8353F924FB44E193D409E5248504B332A3D0D10FC95B4901C39B3C6F85F3248B49871801506CE266BC2B243D2688FDA47549B11775038871E12F988C7004EDE7016A9083E2ADC3D5D84BC8B09
310
D33C8D74D471E6BC8D0192EDC93A815B742658898E651BCB59086ADC356A8C3FD555A1055ED7E7E254D615792D0F075295F585746FF53B694EE78A565DD736979A65AB9933AFE69F8CD2A2F038022F28ED489E135A7CE4554F9BBEA85E68DB53CAB255FEC71496F19FA6A0B42F8B3DEE6673C0F318E4497096AD7DC5F52C33
310
EEB55BFE0D504B010214000A0000080000CC70623B3DEE336E79000000790000001B00000000000000000000000000000000006175746F6465736B2D64657369676E2D7061636B6167652E786D6C504B01021400140006080800CC70623BD486FD9CA0000000F40000001300000000000000000000000000B20000005B436F
310
6E74656E745F54797065735D2E786D6C504B01021400140006080800CC70623BD9DDAED0EC0000007C010000080000000000000000000000000083010000636F72652E786D6C504B01021400140006080800CC70623B55019EA25F0000007C000000070000000000000000000000000095020000636E782E786D6C504B0102
310
1400140006080800CC70623BA24EB22D72010000D40300000C00000000000000000000000000190300006662782F636F72652E786D6C504B01021400140006080800CC70623B408A7D3B7C0000009D0000000B00000000000000000000000000B50400006662782F636E782E786D6C504B01021400140006080800CC70623B
310
449FB9BD290100001202000031000000000000000000000000005A0500006662782F36394639363044362D344446342D343946362D394244322D3234314243333846323333332F636F72652E786D6C504B01021400140006080800CC70623BAD7543B64E010000330300003000000000000000000000000000D20600006662
310
782F36394639363044362D344446342D343946362D394244322D3234314243333846323333332F636E782E786D6C504B01021400140006080800CC70623B8D05915C650500003B10000034000000000000000000000000006E0800006662782F36394639363044362D344446342D343946362D394244322D32343142433338
310
46323333332F6F626A656374732E786D6C504B01021400140006080000CC70623B0000000000000000000000003500000000000000000000000000250E00006662782F36394639363044362D344446342D343946362D394244322D3234314243333846323333332F76657274696365732E62696E504B010214001400060808
310
00CC70623BF270F13306000000040000003600000000000000000000000000780E00006662782F36394639363044362D344446342D343946362D394244322D3234314243333846323333332F747269616E676C65732E62696E504B01021400140006080000CC70623B00000000000000000000000037000000000000000000
310
00000000D20E00006662782F36394639363044362D344446342D343946362D394244322D3234314243333846323333332F617474726962757465732E62696E504B01021400140006080800CC70623B08DA0BD190000000410100003600000000000000000000000000270F00006662782F36394639363044362D344446342D
310
343946362D394244322D3234314243333846323333332F6469726563746F72792E786D6C504B01021400140006080800CC70623BCA768048FE000000A00100003B000000000000000000000000000B1000006662782F36394639363044362D344446342D343946362D394244322D3234314243333846323333332F7265736F
310
75726365732F636F72652E786D6C504B0506000000000E000E0080040000621100000000
  0
XRECORD
  5
176
102
{ACAD_REACTORS
330
173
102
}
330
173
100
AcDbXrecord
280
     1
270
     1
271
     1
  0
XRECORD
  5
177
102
{ACAD_REACTORS
330
173
102
}
330
173
100
AcDbXrecord
280
     1
270
     1
271
     1
  0
XRECORD
  5
290D
102
{ACAD_REACTORS
330
290C
102
}
330
290C
100
AcDbXrecord
280
     1
102
ACAD_ROUNDTRIP_2012_MLEADER_STYLE
298
     1
  0
XRECORD
  5
291F
102
{ACAD_REACTORS
330
291E
102
}
330
291E
100
AcDbXrecord
280
     1
102
DISPLAYNAME
  1
Metric50
102
FLAGS
 90
        0
  0
CELLSTYLEMAP
  5
28DF
102
{ACAD_REACTORS
330
162
102
}
330
162
100
AcDbCellStyleMap
 90
        3
300
CELLSTYLE
  1
TABLEFORMAT_BEGIN
 90
        5
170
     1
 91
        0
 92
    32768
 62
   257
 93
        1
300
CONTENTFORMAT
  1
CONTENTFORMAT_BEGIN
 90
        0
 91
        0
 92
      512
 93
        0
300

 40
0.0
140
1.0
 94
        5
 62
     0
340
11
144
6.0
309
CONTENTFORMAT_END
171
     1
301
MARGIN
  1
CELLMARGIN_BEGIN
 40
1.5
 40
1.5
 40
1.5
 40
1.5
 40
4.5
 40
4.5
309
CELLMARGIN_END
 94
        6
 95
        1
302
GRIDFORMAT
  1
GRIDFORMAT_BEGIN
 90
        0
 91
        1
 62
     0
 92
       -2
340
14
 93
        0
 40
1.125
309
GRIDFORMAT_END
 95
        2
302
GRIDFORMAT
  1
GRIDFORMAT_BEGIN
 90
        0
 91
        1
 62
     0
 92
       -2
340
14
 93
        0
 40
1.125
309
GRIDFORMAT_END
 95
        4
302
GRIDFORMAT
  1
GRIDFORMAT_BEGIN
 90
        0
 91
        1
 62
     0
 92
       -2
340
14
 93
        0
 40
1.125
309
GRIDFORMAT_END
 95
        8
302
GRIDFORMAT
  1
GRIDFORMAT_BEGIN
 90
        0
 91
        1
 62
     0
 92
       -2
340
14
 93
        0
 40
1.125
309
GRIDFORMAT_END
 95
       16
302
GRIDFORMAT
  1
GRIDFORMAT_BEGIN
 90
        0
 91
        1
 62
     0
 92
       -2
340
14
 93
        0
 40
1.125
309
GRIDFORMAT_END
 95
       32
302
GRIDFORMAT
  1
GRIDFORMAT_BEGIN
 90
        0
 91
        1
 62
     0
 92
       -2
340
14
 93
        0
 40
1.125
309
GRIDFORMAT_END
309
TABLEFORMAT_END
  1
CELLSTYLE_BEGIN
 90
        1
 91
        1
300
_TITLE
309
CELLSTYLE_END
300
CELLSTYLE
  1
TABLEFORMAT_BEGIN
 90
        5
170
     1
 91
        0
 92
        0
 62
   257
 93
        1
300
CONTENTFORMAT
  1
CONTENTFORMAT_BEGIN
 90
        0
 91
        0
 92
      512
 93
        0
300

 40
0.0
140
1.0
 94
        5
 62
     0
340
11
144
4.5
309
CONTENTFORMAT_END
171
     1
301
MARGIN
  1
CELLMARGIN_BEGIN
 40
1.5
 40
1.5
 40
1.5
 40
1.5
 40
4.5
 40
4.5
309
CELLMARGIN_END
 94
        6
 95
        1
302
GRIDFORMAT
  1
GRIDFORMAT_BEGIN
 90
        0
 91
        1
 62
     0
 92
       -2
340
14
 93
        0
 40
1.125
309
GRIDFORMAT_END
 95
        2
302
GRIDFORMAT
  1
GRIDFORMAT_BEGIN
 90
        0
 91
        1
 62
     0
 92
       -2
340
14
 93
        0
 40
1.125
309
GRIDFORMAT_END
 95
        4
302
GRIDFORMAT
  1
GRIDFORMAT_BEGIN
 90
        0
 91
        1
 62
     0
 92
       -2
340
14
 93
        0
 40
1.125
309
GRIDFORMAT_END
 95
        8
302
GRIDFORMAT
  1
GRIDFORMAT_BEGIN
 90
        0
 91
        1
 62
     0
 92
       -2
340
14
 93
        0
 40
1.125
309
GRIDFORMAT_END
 95
       16
302
GRIDFORMAT
  1
GRIDFORMAT_BEGIN
 90
        0
 91
        1
 62
     0
 92
       -2
340
14
 93
        0
 40
1.125
309
GRIDFORMAT_END
 95
       32
302
GRIDFORMAT
  1
GRIDFORMAT_BEGIN
 90
        0
 91
        1
 62
     0
 92
       -2
340
14
 93
        0
 40
1.125
309
GRIDFORMAT_END
309
TABLEFORMAT_END
  1
CELLSTYLE_BEGIN
 90
        2
 91
        1
300
_HEADER
309
CELLSTYLE_END
300
CELLSTYLE
  1
TABLEFORMAT_BEGIN
 90
        5
170
     1
 91
        0
 92
        0
 62
   257
 93
        1
300
CONTENTFORMAT
  1
CONTENTFORMAT_BEGIN
 90
        0
 91
        0
 92
      512
 93
        0
300

 40
0.0
140
1.0
 94
        2
 62
     0
340
11
144
4.5
309
CONTENTFORMAT_END
171
     1
301
MARGIN
  1
CELLMARGIN_BEGIN
 40
1.5
 40
1.5
 40
1.5
 40
1.5
 40
4.5
 40
4.5
309
CELLMARGIN_END
 94
        6
 95
        1
302
GRIDFORMAT
  1
GRIDFORMAT_BEGIN
 90
        0
 91
        1
 62
     0
 92
       -2
340
14
 93
        0
 40
1.125
309
GRIDFORMAT_END
 95
        2
302
GRIDFORMAT
  1
GRIDFORMAT_BEGIN
 90
        0
 91
        1
 62
     0
 92
       -2
340
14
 93
        0
 40
1.125
309
GRIDFORMAT_END
 95
        4
302
GRIDFORMAT
  1
GRIDFORMAT_BEGIN
 90
        0
 91
        1
 62
     0
 92
       -2
340
14
 93
        0
 40
1.125
309
GRIDFORMAT_END
 95
        8
302
GRIDFORMAT
  1
GRIDFORMAT_BEGIN
 90
        0
 91
        1
 62
     0
 92
       -2
340
14
 93
        0
 40
1.125
309
GRIDFORMAT_END
 95
       16
302
GRIDFORMAT
  1
GRIDFORMAT_BEGIN
 90
        0
 91
        1
 62
     0
 92
       -2
340
14
 93
        0
 40
1.125
309
GRIDFORMAT_END
 95
       32
302
GRIDFORMAT
  1
GRIDFORMAT_BEGIN
 90
        0
 91
        1
 62
     0
 92
       -2
340
14
 93
        0
 40
1.125
309
GRIDFORMAT_END
309
TABLEFORMAT_END
  1
CELLSTYLE_BEGIN
 90
        3
 91
        2
300
_DATA
309
CELLSTYLE_END
  0
XRECORD
  5
28E4
102
{ACAD_REACTORS
330
162
102
}
330
162
100
AcDbXrecord
280
     1
102
ACAD_ROUNDTRIP_PRE2007_TABLESTYLE
 90
      512
 91
        0
  1

 92
      512
 93
        0
  2

 94
      512
 95
        0
  3

  0
XRECORD
  5
28F7
102
{ACAD_REACTORS
330
28F6
102
}
330
28F6
100
AcDbXrecord
280
     1
102
RTVSPost2010Prop28
280
     1
102
RTVSPost2010PropOp28
 70
     1
102
RTVSPost2010Prop29
280
     1
102
RTVSPost2010PropOp29
 70
     1
102
RTVSPost2010Prop30
280
     0
102
RTVSPost2010PropOp30
 70
     1
102
RTVSPost2010Prop31
280
     0
102
RTVSPost2010PropOp31
 70
     1
102
RTVSPost2010Prop32
280
     0
102
RTVSPost2010PropOp32
 70
     1
102
RTVSPost2010Prop33
280
     0
102
RTVSPost2010PropOp33
 70
     1
102
RTVSPost2010Prop34
280
     0
102
RTVSPost2010PropOp34
 70
     1
102
RTVSPost2010Prop35
280
     0
102
RTVSPost2010PropOp35
 70
     1
102
RTVSPost2010Prop36
280
     0
102
RTVSPost2010PropOp36
 70
     1
102
RTVSPost2010Prop37
 90
       50
102
RTVSPost2010PropOp37
 70
     1
102
RTVSPost2010Prop38
140
0.0
102
RTVSPost2010PropOp38
 70
     1
102
RTVSPost2010Prop39
140
1.0
102
RTVSPost2010PropOp39
 70
     1
102
RTVSPost2010Prop40
 90
        0
102
RTVSPost2010PropOp40
 70
     1
102
RTVSPost2010Prop41ColorIndex
 90
       18
102
RTVSPost2010Prop41ColorRGB
 90
        0
102
RTVSPost2010PropOp41
 70
     1
102
RTVSPost2010Prop42
 90
       50
102
RTVSPost2010PropOp42
 70
     1
102
RTVSPost2010Prop43
 90
        3
102
RTVSPost2010PropOp43
 70
     1
102
RTVSPost2010Prop44ColorIndex
 90
        5
102
RTVSPost2010Prop44ColorRGB
 90
      255
102
RTVSPost2010PropOp44
 70
     1
102
RTVSPost2010Prop45
280
     0
102
RTVSPost2010PropOp45
 70
     1
102
RTVSPost2010Prop46
 90
       50
102
RTVSPost2010PropOp46
 70
     1
102
RTVSPost2010Prop47
 90
       50
102
RTVSPost2010PropOp47
 70
     1
102
RTVSPost2010Prop48
 90
       50
102
RTVSPost2010PropOp48
 70
     1
102
RTVSPost2010Prop49
280
     0
102
RTVSPost2010PropOp49
 70
     1
102
RTVSPost2010Prop50
 90
       50
102
RTVSPost2010PropOp50
 70
     1
102
RTVSPost2010Prop51ColorIndex
 90
      256
102
RTVSPost2010Prop51ColorRGB
 90
-16777216
102
RTVSPost2010PropOp51
 70
     0
102
RTVSPost2010Prop52
140
1.0
102
RTVSPost2010PropOp52
 70
     0
102
RTVSPost2010Prop53
 90
        2
102
RTVSPost2010PropOp53
 70
     1
102
RTVSPost2010Prop54
  1
strokes_ogs.tif
102
RTVSPost2010PropOp54
 70
     1
102
RTVSPost2010Prop55
280
     0
102
RTVSPost2010PropOp55
 70
     1
102
RTVSPost2010Prop56
140
1.0
102
RTVSPost2010PropOp56
 70
     1
102
RTVSPost2010Prop57
140
1.0
102
RTVSPost2010PropOp57
 70
     1
102
RTVSPropertyOp0
 70
     1
102
RTVSPropertyOp1
 70
     1
102
RTVSPropertyOp2
 70
     1
102
RTVSPropertyOp3
 70
     1
102
RTVSPropertyOp4
 70
     1
102
RTVSPropertyOp5
 70
     1
102
RTVSPropertyOp6
 70
     1
102
RTVSPropertyOp7
 70
     1
102
RTVSPropertyOp8
 70
     1
102
RTVSPropertyOp9
 70
     1
102
RTVSPropertyOp10
 70
     1
102
RTVSPropertyOp11
 70
     1
102
RTVSPropertyOp12
 70
     1
102
RTVSPropertyOp13
 70
     1
102
RTVSPropertyOp14
 70
     1
102
RTVSPropertyOp15
 70
     1
102
RTVSPropertyOp16
 70
     1
102
RTVSPropertyOp17
 70
     1
102
RTVSPropertyOp18
 70
     1
102
RTVSPropertyOp19
 70
     1
102
RTVSPropertyOp20
 70
     1
102
RTVSPropertyOp21
 70
     1
102
RTVSPropertyOp22
 70
     1
102
RTVSPropertyOp23
 70
     1
102
RTVSPropertyOp24
 70
     1
102
RTVSPropertyOp25
 70
     1
102
RTVSPropertyOp26
 70
     1
102
RTVSPropertyOp27
 70
     1
102
RTVSPropertyOp28
 70
     1
102
RTVSPropertyOp29
 70
     1
102
RTVSPropertyOp30
 70
     1
102
RTVSPropertyOp31
 70
     1
102
RTVSPropertyOp32
 70
     1
102
RTVSPropertyOp33
 70
     1
102
RTVSPropertyOp34
 70
     1
102
RTVSPropertyOp35
 70
     1
102
RTVSPropertyOp36
 70
     1
102
RTVSPropertyOp37
 70
     1
102
RTVSPropertyOp38
 70
     1
102
RTVSPropertyOp39
 70
     1
102
RTVSPropertyOp40
 70
     1
102
RTVSPropertyOp41
 70
     1
102
RTVSPropertyOp42
 70
     1
102
RTVSPropertyOp43
 70
     1
102
RTVSPropertyOp44
 70
     1
102
RTVSPropertyOp45
 70
     1
102
RTVSPropertyOp46
 70
     1
102
RTVSPropertyOp47
 70
     1
102
RTVSPropertyOp48
 70
     1
102
RTVSPropertyOp49
 70
     1
102
RTVSPropertyOp50
 70
     1
102
RTVSPropertyOp51
 70
     0
102
RTVSPropertyOp52
 70
     0
102
RTVSPropertyOp53
 70
     1
102
RTVSPropertyOp54
 70
     1
102
RTVSPropertyOp55
 70
     1
102
RTVSPropertyOp56
 70
     1
102
RTVSPropertyOp57
 70
     1
102
RTVSPropertyOp58
 70
     1
102
RTVSPropertyOp59
 70
     1
102
RTVSPropertyOp60
 70
     1
102
RTVSPropertyOp61
 70
     1
102
RTVSPropertyOp62
 70
     1
  0
XRECORD
  5
28F5
102
{ACAD_REACTORS
330
28F4
102
}
330
28F4
100
AcDbXrecord
280
     1
102
RTVSPost2010Prop28
280
     0
102
RTVSPost2010PropOp28
 70
     1
102
RTVSPost2010Prop29
280
     1
102
RTVSPost2010PropOp29
 70
     1
102
RTVSPost2010Prop30
280
     1
102
RTVSPost2010PropOp30
 70
     1
102
RTVSPost2010Prop31
280
     0
102
RTVSPost2010PropOp31
 70
     1
102
RTVSPost2010Prop32
280
     0
102
RTVSPost2010PropOp32
 70
     1
102
RTVSPost2010Prop33
280
     0
102
RTVSPost2010PropOp33
 70
     1
102
RTVSPost2010Prop34
280
     0
102
RTVSPost2010PropOp34
 70
     1
102
RTVSPost2010Prop35
280
     0
102
RTVSPost2010PropOp35
 70
     1
102
RTVSPost2010Prop36
280
     0
102
RTVSPost2010PropOp36
 70
     1
102
RTVSPost2010Prop37
 90
       50
102
RTVSPost2010PropOp37
 70
     1
102
RTVSPost2010Prop38
140
0.0
102
RTVSPost2010PropOp38
 70
     1
102
RTVSPost2010Prop39
140
1.0
102
RTVSPost2010PropOp39
 70
     1
102
RTVSPost2010Prop40
 90
        0
102
RTVSPost2010PropOp40
 70
     1
102
RTVSPost2010Prop41ColorIndex
 90
       18
102
RTVSPost2010Prop41ColorRGB
 90
        0
102
RTVSPost2010PropOp41
 70
     1
102
RTVSPost2010Prop42
 90
       50
102
RTVSPost2010PropOp42
 70
     1
102
RTVSPost2010Prop43
 90
        3
102
RTVSPost2010PropOp43
 70
     1
102
RTVSPost2010Prop44ColorIndex
 90
        5
102
RTVSPost2010Prop44ColorRGB
 90
      255
102
RTVSPost2010PropOp44
 70
     1
102
RTVSPost2010Prop45
280
     0
102
RTVSPost2010PropOp45
 70
     1
102
RTVSPost2010Prop46
 90
       50
102
RTVSPost2010PropOp46
 70
     1
102
RTVSPost2010Prop47
 90
       50
102
RTVSPost2010PropOp47
 70
     1
102
RTVSPost2010Prop48
 90
       50
102
RTVSPost2010PropOp48
 70
     1
102
RTVSPost2010Prop49
280
     0
102
RTVSPost2010PropOp49
 70
     1
102
RTVSPost2010Prop50
 90
       50
102
RTVSPost2010PropOp50
 70
     1
102
RTVSPost2010Prop51ColorIndex
 90
      256
102
RTVSPost2010Prop51ColorRGB
 90
-16777216
102
RTVSPost2010PropOp51
 70
     0
102
RTVSPost2010Prop52
140
1.0
102
RTVSPost2010PropOp52
 70
     0
102
RTVSPost2010Prop53
 90
        2
102
RTVSPost2010PropOp53
 70
     1
102
RTVSPost2010Prop54
  1
strokes_ogs.tif
102
RTVSPost2010PropOp54
 70
     1
102
RTVSPost2010Prop55
280
     0
102
RTVSPost2010PropOp55
 70
     1
102
RTVSPost2010Prop56
140
1.0
102
RTVSPost2010PropOp56
 70
     1
102
RTVSPost2010Prop57
140
1.0
102
RTVSPost2010PropOp57
 70
     1
102
RTVSPropertyOp0
 70
     1
102
RTVSPropertyOp1
 70
     1
102
RTVSPropertyOp2
 70
     1
102
RTVSPropertyOp3
 70
     1
102
RTVSPropertyOp4
 70
     1
102
RTVSPropertyOp5
 70
     1
102
RTVSPropertyOp6
 70
     1
102
RTVSPropertyOp7
 70
     1
102
RTVSPropertyOp8
 70
     1
102
RTVSPropertyOp9
 70
     1
102
RTVSPropertyOp10
 70
     1
102
RTVSPropertyOp11
 70
     1
102
RTVSPropertyOp12
 70
     1
102
RTVSPropertyOp13
 70
     1
102
RTVSPropertyOp14
 70
     1
102
RTVSPropertyOp15
 70
     1
102
RTVSPropertyOp16
 70
     1
102
RTVSPropertyOp17
 70
     1
102
RTVSPropertyOp18
 70
     1
102
RTVSPropertyOp19
 70
     1
102
RTVSPropertyOp20
 70
     1
102
RTVSPropertyOp21
 70
     1
102
RTVSPropertyOp22
 70
     1
102
RTVSPropertyOp23
 70
     1
102
RTVSPropertyOp24
 70
     1
102
RTVSPropertyOp25
 70
     1
102
RTVSPropertyOp26
 70
     1
102
RTVSPropertyOp27
 70
     1
102
RTVSPropertyOp28
 70
     1
102
RTVSPropertyOp29
 70
     1
102
RTVSPropertyOp30
 70
     1
102
RTVSPropertyOp31
 70
     1
102
RTVSPropertyOp32
 70
     1
102
RTVSPropertyOp33
 70
     1
102
RTVSPropertyOp34
 70
     1
102
RTVSPropertyOp35
 70
     1
102
RTVSPropertyOp36
 70
     1
102
RTVSPropertyOp37
 70
     1
102
RTVSPropertyOp38
 70
     1
102
RTVSPropertyOp39
 70
     1
102
RTVSPropertyOp40
 70
     1
102
RTVSPropertyOp41
 70
     1
102
RTVSPropertyOp42
 70
     1
102
RTVSPropertyOp43
 70
     1
102
RTVSPropertyOp44
 70
     1
102
RTVSPropertyOp45
 70
     1
102
RTVSPropertyOp46
 70
     1
102
RTVSPropertyOp47
 70
     1
102
RTVSPropertyOp48
 70
     1
102
RTVSPropertyOp49
 70
     1
102
RTVSPropertyOp50
 70
     1
102
RTVSPropertyOp51
 70
     0
102
RTVSPropertyOp52
 70
     0
102
RTVSPropertyOp53
 70
     1
102
RTVSPropertyOp54
 70
     1
102
RTVSPropertyOp55
 70
     1
102
RTVSPropertyOp56
 70
     1
102
RTVSPropertyOp57
 70
     1
102
RTVSPropertyOp58
 70
     1
102
RTVSPropertyOp59
 70
     1
102
RTVSPropertyOp60
 70
     1
102
RTVSPropertyOp61
 70
     1
102
RTVSPropertyOp62
 70
     1
  0
XRECORD
  5
2903
102
{ACAD_REACTORS
330
2902
102
}
330
2902
100
AcDbXrecord
280
     1
102
RTVSPost2010Prop28
280
     0
102
RTVSPost2010PropOp28
 70
     1
102
RTVSPost2010Prop29
280
     1
102
RTVSPost2010PropOp29
 70
     1
102
RTVSPost2010Prop30
280
     1
102
RTVSPost2010PropOp30
 70
     1
102
RTVSPost2010Prop31
280
     0
102
RTVSPost2010PropOp31
 70
     1
102
RTVSPost2010Prop32
280
     0
102
RTVSPost2010PropOp32
 70
     1
102
RTVSPost2010Prop33
280
     0
102
RTVSPost2010PropOp33
 70
     1
102
RTVSPost2010Prop34
280
     0
102
RTVSPost2010PropOp34
 70
     1
102
RTVSPost2010Prop35
280
     0
102
RTVSPost2010PropOp35
 70
     1
102
RTVSPost2010Prop36
280
     0
102
RTVSPost2010PropOp36
 70
     1
102
RTVSPost2010Prop37
 90
       50
102
RTVSPost2010PropOp37
 70
     1
102
RTVSPost2010Prop38
140
0.0
102
RTVSPost2010PropOp38
 70
     1
102
RTVSPost2010Prop39
140
1.0
102
RTVSPost2010PropOp39
 70
     1
102
RTVSPost2010Prop40
 90
        0
102
RTVSPost2010PropOp40
 70
     1
102
RTVSPost2010Prop41ColorIndex
 90
       18
102
RTVSPost2010Prop41ColorRGB
 90
        0
102
RTVSPost2010PropOp41
 70
     1
102
RTVSPost2010Prop42
 90
       50
102
RTVSPost2010PropOp42
 70
     1
102
RTVSPost2010Prop43
 90
        3
102
RTVSPost2010PropOp43
 70
     1
102
RTVSPost2010Prop44ColorIndex
 90
        5
102
RTVSPost2010Prop44ColorRGB
 90
      255
102
RTVSPost2010PropOp44
 70
     1
102
RTVSPost2010Prop45
280
     0
102
RTVSPost2010PropOp45
 70
     1
102
RTVSPost2010Prop46
 90
       50
102
RTVSPost2010PropOp46
 70
     1
102
RTVSPost2010Prop47
 90
       50
102
RTVSPost2010PropOp47
 70
     1
102
RTVSPost2010Prop48
 90
       50
102
RTVSPost2010PropOp48
 70
     1
102
RTVSPost2010Prop49
280
     0
102
RTVSPost2010PropOp49
 70
     1
102
RTVSPost2010Prop50
 90
       50
102
RTVSPost2010PropOp50
 70
     1
102
RTVSPost2010Prop51ColorIndex
 90
      256
102
RTVSPost2010Prop51ColorRGB
 90
-16777216
102
RTVSPost2010PropOp51
 70
     0
102
RTVSPost2010Prop52
140
1.0
102
RTVSPost2010PropOp52
 70
     0
102
RTVSPost2010Prop53
 90
        2
102
RTVSPost2010PropOp53
 70
     1
102
RTVSPost2010Prop54
  1
strokes_ogs.tif
102
RTVSPost2010PropOp54
 70
     1
102
RTVSPost2010Prop55
280
     0
102
RTVSPost2010PropOp55
 70
     1
102
RTVSPost2010Prop56
140
1.0
102
RTVSPost2010PropOp56
 70
     1
102
RTVSPost2010Prop57
140
1.0
102
RTVSPost2010PropOp57
 70
     1
102
RTVSPropertyOp0
 70
     1
102
RTVSPropertyOp1
 70
     1
102
RTVSPropertyOp2
 70
     1
102
RTVSPropertyOp3
 70
     1
102
RTVSPropertyOp4
 70
     1
102
RTVSPropertyOp5
 70
     1
102
RTVSPropertyOp6
 70
     1
102
RTVSPropertyOp7
 70
     1
102
RTVSPropertyOp8
 70
     1
102
RTVSPropertyOp9
 70
     1
102
RTVSPropertyOp10
 70
     1
102
RTVSPropertyOp11
 70
     1
102
RTVSPropertyOp12
 70
     1
102
RTVSPropertyOp13
 70
     1
102
RTVSPropertyOp14
 70
     1
102
RTVSPropertyOp15
 70
     1
102
RTVSPropertyOp16
 70
     1
102
RTVSPropertyOp17
 70
     1
102
RTVSPropertyOp18
 70
     1
102
RTVSPropertyOp19
 70
     1
102
RTVSPropertyOp20
 70
     1
102
RTVSPropertyOp21
 70
     1
102
RTVSPropertyOp22
 70
     1
102
RTVSPropertyOp23
 70
     1
102
RTVSPropertyOp24
 70
     1
102
RTVSPropertyOp25
 70
     1
102
RTVSPropertyOp26
 70
     1
102
RTVSPropertyOp27
 70
     1
102
RTVSPropertyOp28
 70
     1
102
RTVSPropertyOp29
 70
     1
102
RTVSPropertyOp30
 70
     1
102
RTVSPropertyOp31
 70
     1
102
RTVSPropertyOp32
 70
     1
102
RTVSPropertyOp33
 70
     1
102
RTVSPropertyOp34
 70
     1
102
RTVSPropertyOp35
 70
     1
102
RTVSPropertyOp36
 70
     1
102
RTVSPropertyOp37
 70
     1
102
RTVSPropertyOp38
 70
     1
102
RTVSPropertyOp39
 70
     1
102
RTVSPropertyOp40
 70
     1
102
RTVSPropertyOp41
 70
     1
102
RTVSPropertyOp42
 70
     1
102
RTVSPropertyOp43
 70
     1
102
RTVSPropertyOp44
 70
     1
102
RTVSPropertyOp45
 70
     1
102
RTVSPropertyOp46
 70
     1
102
RTVSPropertyOp47
 70
     1
102
RTVSPropertyOp48
 70
     1
102
RTVSPropertyOp49
 70
     1
102
RTVSPropertyOp50
 70
     1
102
RTVSPropertyOp51
 70
     0
102
RTVSPropertyOp52
 70
     0
102
RTVSPropertyOp53
 70
     1
102
RTVSPropertyOp54
 70
     1
102
RTVSPropertyOp55
 70
     1
102
RTVSPropertyOp56
 70
     1
102
RTVSPropertyOp57
 70
     1
102
RTVSPropertyOp58
 70
     1
102
RTVSPropertyOp59
 70
     1
102
RTVSPropertyOp60
 70
     1
102
RTVSPropertyOp61
 70
     1
102
RTVSPropertyOp62
 70
     1
  0
XRECORD
  5
290B
102
{ACAD_REACTORS
330
290A
102
}
330
290A
100
AcDbXrecord
280
     1
102
RTVSPost2010Prop28
280
     0
102
RTVSPost2010PropOp28
 70
     1
102
RTVSPost2010Prop29
280
     1
102
RTVSPost2010PropOp29
 70
     1
102
RTVSPost2010Prop30
280
     1
102
RTVSPost2010PropOp30
 70
     1
102
RTVSPost2010Prop31
280
     0
102
RTVSPost2010PropOp31
 70
     1
102
RTVSPost2010Prop32
280
     0
102
RTVSPost2010PropOp32
 70
     1
102
RTVSPost2010Prop33
280
     0
102
RTVSPost2010PropOp33
 70
     1
102
RTVSPost2010Prop34
280
     0
102
RTVSPost2010PropOp34
 70
     1
102
RTVSPost2010Prop35
280
     0
102
RTVSPost2010PropOp35
 70
     1
102
RTVSPost2010Prop36
280
     0
102
RTVSPost2010PropOp36
 70
     1
102
RTVSPost2010Prop37
 90
       50
102
RTVSPost2010PropOp37
 70
     1
102
RTVSPost2010Prop38
140
0.0
102
RTVSPost2010PropOp38
 70
     1
102
RTVSPost2010Prop39
140
1.0
102
RTVSPost2010PropOp39
 70
     1
102
RTVSPost2010Prop40
 90
        0
102
RTVSPost2010PropOp40
 70
     1
102
RTVSPost2010Prop41ColorIndex
 90
       18
102
RTVSPost2010Prop41ColorRGB
 90
        0
102
RTVSPost2010PropOp41
 70
     1
102
RTVSPost2010Prop42
 90
       50
102
RTVSPost2010PropOp42
 70
     1
102
RTVSPost2010Prop43
 90
        3
102
RTVSPost2010PropOp43
 70
     1
102
RTVSPost2010Prop44ColorIndex
 90
        5
102
RTVSPost2010Prop44ColorRGB
 90
      255
102
RTVSPost2010PropOp44
 70
     1
102
RTVSPost2010Prop45
280
     0
102
RTVSPost2010PropOp45
 70
     1
102
RTVSPost2010Prop46
 90
       50
102
RTVSPost2010PropOp46
 70
     1
102
RTVSPost2010Prop47
 90
       50
102
RTVSPost2010PropOp47
 70
     1
102
RTVSPost2010Prop48
 90
       50
102
RTVSPost2010PropOp48
 70
     1
102
RTVSPost2010Prop49
280
     0
102
RTVSPost2010PropOp49
 70
     1
102
RTVSPost2010Prop50
 90
       50
102
RTVSPost2010PropOp50
 70
     1
102
RTVSPost2010Prop51ColorIndex
 90
      256
102
RTVSPost2010Prop51ColorRGB
 90
-16777216
102
RTVSPost2010PropOp51
 70
     0
102
RTVSPost2010Prop52
140
1.0
102
RTVSPost2010PropOp52
 70
     0
102
RTVSPost2010Prop53
 90
        2
102
RTVSPost2010PropOp53
 70
     1
102
RTVSPost2010Prop54
  1
strokes_ogs.tif
102
RTVSPost2010PropOp54
 70
     1
102
RTVSPost2010Prop55
280
     0
102
RTVSPost2010PropOp55
 70
     1
102
RTVSPost2010Prop56
140
1.0
102
RTVSPost2010PropOp56
 70
     1
102
RTVSPost2010Prop57
140
1.0
102
RTVSPost2010PropOp57
 70
     1
102
RTVSPropertyOp0
 70
     1
102
RTVSPropertyOp1
 70
     1
102
RTVSPropertyOp2
 70
     1
102
RTVSPropertyOp3
 70
     1
102
RTVSPropertyOp4
 70
     1
102
RTVSPropertyOp5
 70
     1
102
RTVSPropertyOp6
 70
     1
102
RTVSPropertyOp7
 70
     1
102
RTVSPropertyOp8
 70
     1
102
RTVSPropertyOp9
 70
     1
102
RTVSPropertyOp10
 70
     1
102
RTVSPropertyOp11
 70
     1
102
RTVSPropertyOp12
 70
     1
102
RTVSPropertyOp13
 70
     1
102
RTVSPropertyOp14
 70
     1
102
RTVSPropertyOp15
 70
     1
102
RTVSPropertyOp16
 70
     1
102
RTVSPropertyOp17
 70
     1
102
RTVSPropertyOp18
 70
     1
102
RTVSPropertyOp19
 70
     1
102
RTVSPropertyOp20
 70
     1
102
RTVSPropertyOp21
 70
     1
102
RTVSPropertyOp22
 70
     1
102
RTVSPropertyOp23
 70
     1
102
RTVSPropertyOp24
 70
     1
102
RTVSPropertyOp25
 70
     1
102
RTVSPropertyOp26
 70
     1
102
RTVSPropertyOp27
 70
     1
102
RTVSPropertyOp28
 70
     1
102
RTVSPropertyOp29
 70
     1
102
RTVSPropertyOp30
 70
     1
102
RTVSPropertyOp31
 70
     1
102
RTVSPropertyOp32
 70
     1
102
RTVSPropertyOp33
 70
     1
102
RTVSPropertyOp34
 70
     1
102
RTVSPropertyOp35
 70
     1
102
RTVSPropertyOp36
 70
     1
102
RTVSPropertyOp37
 70
     1
102
RTVSPropertyOp38
 70
     1
102
RTVSPropertyOp39
 70
     1
102
RTVSPropertyOp40
 70
     1
102
RTVSPropertyOp41
 70
     1
102
RTVSPropertyOp42
 70
     1
102
RTVSPropertyOp43
 70
     1
102
RTVSPropertyOp44
 70
     1
102
RTVSPropertyOp45
 70
     1
102
RTVSPropertyOp46
 70
     1
102
RTVSPropertyOp47
 70
     1
102
RTVSPropertyOp48
 70
     1
102
RTVSPropertyOp49
 70
     1
102
RTVSPropertyOp50
 70
     1
102
RTVSPropertyOp51
 70
     0
102
RTVSPropertyOp52
 70
     0
102
RTVSPropertyOp53
 70
     1
102
RTVSPropertyOp54
 70
     1
102
RTVSPropertyOp55
 70
     1
102
RTVSPropertyOp56
 70
     1
102
RTVSPropertyOp57
 70
     1
102
RTVSPropertyOp58
 70
     1
102
RTVSPropertyOp59
 70
     1
102
RTVSPropertyOp60
 70
     1
102
RTVSPropertyOp61
 70
     1
102
RTVSPropertyOp62
 70
     1
  0
XRECORD
  5
28FD
102
{ACAD_REACTORS
330
28FC
102
}
330
28FC
100
AcDbXrecord
280
     1
102
RTVSPost2010Prop28
280
     0
102
RTVSPost2010PropOp28
 70
     1
102
RTVSPost2010Prop29
280
     1
102
RTVSPost2010PropOp29
 70
     1
102
RTVSPost2010Prop30
280
     1
102
RTVSPost2010PropOp30
 70
     1
102
RTVSPost2010Prop31
280
     0
102
RTVSPost2010PropOp31
 70
     1
102
RTVSPost2010Prop32
280
     0
102
RTVSPost2010PropOp32
 70
     1
102
RTVSPost2010Prop33
280
     0
102
RTVSPost2010PropOp33
 70
     1
102
RTVSPost2010Prop34
280
     0
102
RTVSPost2010PropOp34
 70
     1
102
RTVSPost2010Prop35
280
     0
102
RTVSPost2010PropOp35
 70
     1
102
RTVSPost2010Prop36
280
     0
102
RTVSPost2010PropOp36
 70
     1
102
RTVSPost2010Prop37
 90
       50
102
RTVSPost2010PropOp37
 70
     1
102
RTVSPost2010Prop38
140
0.0
102
RTVSPost2010PropOp38
 70
     1
102
RTVSPost2010Prop39
140
1.0
102
RTVSPost2010PropOp39
 70
     1
102
RTVSPost2010Prop40
 90
        0
102
RTVSPost2010PropOp40
 70
     1
102
RTVSPost2010Prop41ColorIndex
 90
       18
102
RTVSPost2010Prop41ColorRGB
 90
        0
102
RTVSPost2010PropOp41
 70
     1
102
RTVSPost2010Prop42
 90
       50
102
RTVSPost2010PropOp42
 70
     1
102
RTVSPost2010Prop43
 90
        3
102
RTVSPost2010PropOp43
 70
     1
102
RTVSPost2010Prop44ColorIndex
 90
        5
102
RTVSPost2010Prop44ColorRGB
 90
      255
102
RTVSPost2010PropOp44
 70
     1
102
RTVSPost2010Prop45
280
     0
102
RTVSPost2010PropOp45
 70
     1
102
RTVSPost2010Prop46
 90
       50
102
RTVSPost2010PropOp46
 70
     1
102
RTVSPost2010Prop47
 90
       50
102
RTVSPost2010PropOp47
 70
     1
102
RTVSPost2010Prop48
 90
       50
102
RTVSPost2010PropOp48
 70
     1
102
RTVSPost2010Prop49
280
     0
102
RTVSPost2010PropOp49
 70
     1
102
RTVSPost2010Prop50
 90
       50
102
RTVSPost2010PropOp50
 70
     1
102
RTVSPost2010Prop51ColorIndex
 90
      256
102
RTVSPost2010Prop51ColorRGB
 90
-16777216
102
RTVSPost2010PropOp51
 70
     0
102
RTVSPost2010Prop52
140
1.0
102
RTVSPost2010PropOp52
 70
     0
102
RTVSPost2010Prop53
 90
        2
102
RTVSPost2010PropOp53
 70
     1
102
RTVSPost2010Prop54
  1
strokes_ogs.tif
102
RTVSPost2010PropOp54
 70
     1
102
RTVSPost2010Prop55
280
     0
102
RTVSPost2010PropOp55
 70
     1
102
RTVSPost2010Prop56
140
1.0
102
RTVSPost2010PropOp56
 70
     1
102
RTVSPost2010Prop57
140
1.0
102
RTVSPost2010PropOp57
 70
     1
102
RTVSPropertyOp0
 70
     1
102
RTVSPropertyOp1
 70
     1
102
RTVSPropertyOp2
 70
     1
102
RTVSPropertyOp3
 70
     1
102
RTVSPropertyOp4
 70
     1
102
RTVSPropertyOp5
 70
     1
102
RTVSPropertyOp6
 70
     1
102
RTVSPropertyOp7
 70
     1
102
RTVSPropertyOp8
 70
     1
102
RTVSPropertyOp9
 70
     1
102
RTVSPropertyOp10
 70
     1
102
RTVSPropertyOp11
 70
     1
102
RTVSPropertyOp12
 70
     1
102
RTVSPropertyOp13
 70
     1
102
RTVSPropertyOp14
 70
     1
102
RTVSPropertyOp15
 70
     1
102
RTVSPropertyOp16
 70
     1
102
RTVSPropertyOp17
 70
     1
102
RTVSPropertyOp18
 70
     1
102
RTVSPropertyOp19
 70
     1
102
RTVSPropertyOp20
 70
     1
102
RTVSPropertyOp21
 70
     1
102
RTVSPropertyOp22
 70
     1
102
RTVSPropertyOp23
 70
     1
102
RTVSPropertyOp24
 70
     1
102
RTVSPropertyOp25
 70
     1
102
RTVSPropertyOp26
 70
     1
102
RTVSPropertyOp27
 70
     1
102
RTVSPropertyOp28
 70
     1
102
RTVSPropertyOp29
 70
     1
102
RTVSPropertyOp30
 70
     1
102
RTVSPropertyOp31
 70
     1
102
RTVSPropertyOp32
 70
     1
102
RTVSPropertyOp33
 70
     1
102
RTVSPropertyOp34
 70
     1
102
RTVSPropertyOp35
 70
     1
102
RTVSPropertyOp36
 70
     1
102
RTVSPropertyOp37
 70
     1
102
RTVSPropertyOp38
 70
     1
102
RTVSPropertyOp39
 70
     1
102
RTVSPropertyOp40
 70
     1
102
RTVSPropertyOp41
 70
     1
102
RTVSPropertyOp42
 70
     1
102
RTVSPropertyOp43
 70
     1
102
RTVSPropertyOp44
 70
     1
102
RTVSPropertyOp45
 70
     1
102
RTVSPropertyOp46
 70
     1
102
RTVSPropertyOp47
 70
     1
102
RTVSPropertyOp48
 70
     1
102
RTVSPropertyOp49
 70
     1
102
RTVSPropertyOp50
 70
     1
102
RTVSPropertyOp51
 70
     0
102
RTVSPropertyOp52
 70
     0
102
RTVSPropertyOp53
 70
     1
102
RTVSPropertyOp54
 70
     1
102
RTVSPropertyOp55
 70
     1
102
RTVSPropertyOp56
 70
     1
102
RTVSPropertyOp57
 70
     1
102
RTVSPropertyOp58
 70
     1
102
RTVSPropertyOp59
 70
     1
102
RTVSPropertyOp60
 70
     1
102
RTVSPropertyOp61
 70
     1
102
RTVSPropertyOp62
 70
     1
  0
XRECORD
  5
2901
102
{ACAD_REACTORS
330
2900
102
}
330
2900
100
AcDbXrecord
280
     1
102
RTVSPost2010Prop28
280
     0
102
RTVSPost2010PropOp28
 70
     1
102
RTVSPost2010Prop29
280
     1
102
RTVSPost2010PropOp29
 70
     1
102
RTVSPost2010Prop30
280
     1
102
RTVSPost2010PropOp30
 70
     1
102
RTVSPost2010Prop31
280
     0
102
RTVSPost2010PropOp31
 70
     1
102
RTVSPost2010Prop32
280
     0
102
RTVSPost2010PropOp32
 70
     1
102
RTVSPost2010Prop33
280
     0
102
RTVSPost2010PropOp33
 70
     1
102
RTVSPost2010Prop34
280
     0
102
RTVSPost2010PropOp34
 70
     1
102
RTVSPost2010Prop35
280
     0
102
RTVSPost2010PropOp35
 70
     1
102
RTVSPost2010Prop36
280
     0
102
RTVSPost2010PropOp36
 70
     1
102
RTVSPost2010Prop37
 90
       50
102
RTVSPost2010PropOp37
 70
     1
102
RTVSPost2010Prop38
140
0.0
102
RTVSPost2010PropOp38
 70
     1
102
RTVSPost2010Prop39
140
1.0
102
RTVSPost2010PropOp39
 70
     1
102
RTVSPost2010Prop40
 90
        0
102
RTVSPost2010PropOp40
 70
     1
102
RTVSPost2010Prop41ColorIndex
 90
       18
102
RTVSPost2010Prop41ColorRGB
 90
        0
102
RTVSPost2010PropOp41
 70
     1
102
RTVSPost2010Prop42
 90
       50
102
RTVSPost2010PropOp42
 70
     1
102
RTVSPost2010Prop43
 90
        3
102
RTVSPost2010PropOp43
 70
     1
102
RTVSPost2010Prop44ColorIndex
 90
        5
102
RTVSPost2010Prop44ColorRGB
 90
      255
102
RTVSPost2010PropOp44
 70
     1
102
RTVSPost2010Prop45
280
     0
102
RTVSPost2010PropOp45
 70
     1
102
RTVSPost2010Prop46
 90
       50
102
RTVSPost2010PropOp46
 70
     1
102
RTVSPost2010Prop47
 90
       50
102
RTVSPost2010PropOp47
 70
     1
102
RTVSPost2010Prop48
 90
       50
102
RTVSPost2010PropOp48
 70
     1
102
RTVSPost2010Prop49
280
     0
102
RTVSPost2010PropOp49
 70
     1
102
RTVSPost2010Prop50
 90
       50
102
RTVSPost2010PropOp50
 70
     1
102
RTVSPost2010Prop51ColorIndex
 90
      256
102
RTVSPost2010Prop51ColorRGB
 90
-16777216
102
RTVSPost2010PropOp51
 70
     0
102
RTVSPost2010Prop52
140
1.0
102
RTVSPost2010PropOp52
 70
     0
102
RTVSPost2010Prop53
 90
        2
102
RTVSPost2010PropOp53
 70
     1
102
RTVSPost2010Prop54
  1
strokes_ogs.tif
102
RTVSPost2010PropOp54
 70
     1
102
RTVSPost2010Prop55
280
     0
102
RTVSPost2010PropOp55
 70
     1
102
RTVSPost2010Prop56
140
1.0
102
RTVSPost2010PropOp56
 70
     1
102
RTVSPost2010Prop57
140
1.0
102
RTVSPost2010PropOp57
 70
     1
102
RTVSPropertyOp0
 70
     1
102
RTVSPropertyOp1
 70
     1
102
RTVSPropertyOp2
 70
     1
102
RTVSPropertyOp3
 70
     1
102
RTVSPropertyOp4
 70
     1
102
RTVSPropertyOp5
 70
     1
102
RTVSPropertyOp6
 70
     1
102
RTVSPropertyOp7
 70
     1
102
RTVSPropertyOp8
 70
     1
102
RTVSPropertyOp9
 70
     1
102
RTVSPropertyOp10
 70
     1
102
RTVSPropertyOp11
 70
     1
102
RTVSPropertyOp12
 70
     1
102
RTVSPropertyOp13
 70
     1
102
RTVSPropertyOp14
 70
     1
102
RTVSPropertyOp15
 70
     1
102
RTVSPropertyOp16
 70
     1
102
RTVSPropertyOp17
 70
     1
102
RTVSPropertyOp18
 70
     1
102
RTVSPropertyOp19
 70
     1
102
RTVSPropertyOp20
 70
     1
102
RTVSPropertyOp21
 70
     1
102
RTVSPropertyOp22
 70
     1
102
RTVSPropertyOp23
 70
     1
102
RTVSPropertyOp24
 70
     1
102
RTVSPropertyOp25
 70
     1
102
RTVSPropertyOp26
 70
     1
102
RTVSPropertyOp27
 70
     1
102
RTVSPropertyOp28
 70
     1
102
RTVSPropertyOp29
 70
     1
102
RTVSPropertyOp30
 70
     1
102
RTVSPropertyOp31
 70
     1
102
RTVSPropertyOp32
 70
     1
102
RTVSPropertyOp33
 70
     1
102
RTVSPropertyOp34
 70
     1
102
RTVSPropertyOp35
 70
     1
102
RTVSPropertyOp36
 70
     1
102
RTVSPropertyOp37
 70
     1
102
RTVSPropertyOp38
 70
     1
102
RTVSPropertyOp39
 70
     1
102
RTVSPropertyOp40
 70
     1
102
RTVSPropertyOp41
 70
     1
102
RTVSPropertyOp42
 70
     1
102
RTVSPropertyOp43
 70
     1
102
RTVSPropertyOp44
 70
     1
102
RTVSPropertyOp45
 70
     1
102
RTVSPropertyOp46
 70
     1
102
RTVSPropertyOp47
 70
     1
102
RTVSPropertyOp48
 70
     1
102
RTVSPropertyOp49
 70
     1
102
RTVSPropertyOp50
 70
     1
102
RTVSPropertyOp51
 70
     0
102
RTVSPropertyOp52
 70
     0
102
RTVSPropertyOp53
 70
     1
102
RTVSPropertyOp54
 70
     1
102
RTVSPropertyOp55
 70
     1
102
RTVSPropertyOp56
 70
     1
102
RTVSPropertyOp57
 70
     1
102
RTVSPropertyOp58
 70
     1
102
RTVSPropertyOp59
 70
     1
102
RTVSPropertyOp60
 70
     1
102
RTVSPropertyOp61
 70
     1
102
RTVSPropertyOp62
 70
     1
  0
XRECORD
  5
2913
102
{ACAD_REACTORS
330
2912
102
}
330
2912
100
AcDbXrecord
280
     1
102
RTVSPost2010Prop28
280
     0
102
RTVSPost2010PropOp28
 70
     1
102
RTVSPost2010Prop29
280
     1
102
RTVSPost2010PropOp29
 70
     1
102
RTVSPost2010Prop30
280
     1
102
RTVSPost2010PropOp30
 70
     1
102
RTVSPost2010Prop31
280
     0
102
RTVSPost2010PropOp31
 70
     1
102
RTVSPost2010Prop32
280
     0
102
RTVSPost2010PropOp32
 70
     1
102
RTVSPost2010Prop33
280
     0
102
RTVSPost2010PropOp33
 70
     1
102
RTVSPost2010Prop34
280
     0
102
RTVSPost2010PropOp34
 70
     1
102
RTVSPost2010Prop35
280
     0
102
RTVSPost2010PropOp35
 70
     1
102
RTVSPost2010Prop36
280
     0
102
RTVSPost2010PropOp36
 70
     1
102
RTVSPost2010Prop37
 90
       50
102
RTVSPost2010PropOp37
 70
     1
102
RTVSPost2010Prop38
140
0.0
102
RTVSPost2010PropOp38
 70
     1
102
RTVSPost2010Prop39
140
1.0
102
RTVSPost2010PropOp39
 70
     1
102
RTVSPost2010Prop40
 90
        0
102
RTVSPost2010PropOp40
 70
     1
102
RTVSPost2010Prop41ColorIndex
 90
       18
102
RTVSPost2010Prop41ColorRGB
 90
        0
102
RTVSPost2010PropOp41
 70
     1
102
RTVSPost2010Prop42
 90
       50
102
RTVSPost2010PropOp42
 70
     1
102
RTVSPost2010Prop43
 90
        3
102
RTVSPost2010PropOp43
 70
     1
102
RTVSPost2010Prop44ColorIndex
 90
        5
102
RTVSPost2010Prop44ColorRGB
 90
      255
102
RTVSPost2010PropOp44
 70
     1
102
RTVSPost2010Prop45
280
     0
102
RTVSPost2010PropOp45
 70
     1
102
RTVSPost2010Prop46
 90
       50
102
RTVSPost2010PropOp46
 70
     1
102
RTVSPost2010Prop47
 90
       50
102
RTVSPost2010PropOp47
 70
     1
102
RTVSPost2010Prop48
 90
       50
102
RTVSPost2010PropOp48
 70
     1
102
RTVSPost2010Prop49
280
     0
102
RTVSPost2010PropOp49
 70
     1
102
RTVSPost2010Prop50
 90
       50
102
RTVSPost2010PropOp50
 70
     1
102
RTVSPost2010Prop51ColorIndex
 90
      256
102
RTVSPost2010Prop51ColorRGB
 90
-16777216
102
RTVSPost2010PropOp51
 70
     0
102
RTVSPost2010Prop52
140
1.0
102
RTVSPost2010PropOp52
 70
     0
102
RTVSPost2010Prop53
 90
        2
102
RTVSPost2010PropOp53
 70
     1
102
RTVSPost2010Prop54
  1
strokes_ogs.tif
102
RTVSPost2010PropOp54
 70
     1
102
RTVSPost2010Prop55
280
     0
102
RTVSPost2010PropOp55
 70
     1
102
RTVSPost2010Prop56
140
1.0
102
RTVSPost2010PropOp56
 70
     1
102
RTVSPost2010Prop57
140
1.0
102
RTVSPost2010PropOp57
 70
     1
102
RTVSPropertyOp0
 70
     0
102
RTVSPropertyOp1
 70
     0
102
RTVSPropertyOp2
 70
     0
102
RTVSPropertyOp3
 70
     0
102
RTVSPropertyOp4
 70
     0
102
RTVSPropertyOp5
 70
     0
102
RTVSPropertyOp6
 70
     0
102
RTVSPropertyOp7
 70
     0
102
RTVSPropertyOp8
 70
     0
102
RTVSPropertyOp9
 70
     0
102
RTVSPropertyOp10
 70
     0
102
RTVSPropertyOp11
 70
     0
102
RTVSPropertyOp12
 70
     0
102
RTVSPropertyOp13
 70
     0
102
RTVSPropertyOp14
 70
     2
102
RTVSPropertyOp15
 70
     0
102
RTVSPropertyOp16
 70
     0
102
RTVSPropertyOp17
 70
     0
102
RTVSPropertyOp18
 70
     0
102
RTVSPropertyOp19
 70
     0
102
RTVSPropertyOp20
 70
     0
102
RTVSPropertyOp21
 70
     0
102
RTVSPropertyOp22
 70
     0
102
RTVSPropertyOp23
 70
     0
102
RTVSPropertyOp24
 70
     0
102
RTVSPropertyOp25
 70
     0
102
RTVSPropertyOp26
 70
     0
102
RTVSPropertyOp27
 70
     0
102
RTVSPropertyOp28
 70
     1
102
RTVSPropertyOp29
 70
     1
102
RTVSPropertyOp30
 70
     1
102
RTVSPropertyOp31
 70
     1
102
RTVSPropertyOp32
 70
     1
102
RTVSPropertyOp33
 70
     1
102
RTVSPropertyOp34
 70
     1
102
RTVSPropertyOp35
 70
     1
102
RTVSPropertyOp36
 70
     1
102
RTVSPropertyOp37
 70
     1
102
RTVSPropertyOp38
 70
     1
102
RTVSPropertyOp39
 70
     1
102
RTVSPropertyOp40
 70
     1
102
RTVSPropertyOp41
 70
     1
102
RTVSPropertyOp42
 70
     1
102
RTVSPropertyOp43
 70
     1
102
RTVSPropertyOp44
 70
     1
102
RTVSPropertyOp45
 70
     1
102
RTVSPropertyOp46
 70
     1
102
RTVSPropertyOp47
 70
     1
102
RTVSPropertyOp48
 70
     1
102
RTVSPropertyOp49
 70
     1
102
RTVSPropertyOp50
 70
     1
102
RTVSPropertyOp51
 70
     0
102
RTVSPropertyOp52
 70
     0
102
RTVSPropertyOp53
 70
     1
102
RTVSPropertyOp54
 70
     1
102
RTVSPropertyOp55
 70
     1
102
RTVSPropertyOp56
 70
     1
102
RTVSPropertyOp57
 70
     1
102
RTVSPropertyOp58
 70
     1
102
RTVSPropertyOp59
 70
     1
102
RTVSPropertyOp60
 70
     1
102
RTVSPropertyOp61
 70
     1
102
RTVSPropertyOp62
 70
     1
  0
XRECORD
  5
2909
102
{ACAD_REACTORS
330
2908
102
}
330
2908
100
AcDbXrecord
280
     1
102
RTVSPost2010Prop28
280
     0
102
RTVSPost2010PropOp28
 70
     1
102
RTVSPost2010Prop29
280
     1
102
RTVSPost2010PropOp29
 70
     1
102
RTVSPost2010Prop30
280
     1
102
RTVSPost2010PropOp30
 70
     1
102
RTVSPost2010Prop31
280
     0
102
RTVSPost2010PropOp31
 70
     1
102
RTVSPost2010Prop32
280
     0
102
RTVSPost2010PropOp32
 70
     1
102
RTVSPost2010Prop33
280
     0
102
RTVSPost2010PropOp33
 70
     1
102
RTVSPost2010Prop34
280
     0
102
RTVSPost2010PropOp34
 70
     1
102
RTVSPost2010Prop35
280
     0
102
RTVSPost2010PropOp35
 70
     1
102
RTVSPost2010Prop36
280
     0
102
RTVSPost2010PropOp36
 70
     1
102
RTVSPost2010Prop37
 90
       50
102
RTVSPost2010PropOp37
 70
     1
102
RTVSPost2010Prop38
140
0.0
102
RTVSPost2010PropOp38
 70
     1
102
RTVSPost2010Prop39
140
1.0
102
RTVSPost2010PropOp39
 70
     1
102
RTVSPost2010Prop40
 90
        0
102
RTVSPost2010PropOp40
 70
     1
102
RTVSPost2010Prop41ColorIndex
 90
       18
102
RTVSPost2010Prop41ColorRGB
 90
        0
102
RTVSPost2010PropOp41
 70
     1
102
RTVSPost2010Prop42
 90
       50
102
RTVSPost2010PropOp42
 70
     1
102
RTVSPost2010Prop43
 90
        3
102
RTVSPost2010PropOp43
 70
     1
102
RTVSPost2010Prop44ColorIndex
 90
        5
102
RTVSPost2010Prop44ColorRGB
 90
      255
102
RTVSPost2010PropOp44
 70
     1
102
RTVSPost2010Prop45
280
     0
102
RTVSPost2010PropOp45
 70
     1
102
RTVSPost2010Prop46
 90
       50
102
RTVSPost2010PropOp46
 70
     1
102
RTVSPost2010Prop47
 90
       50
102
RTVSPost2010PropOp47
 70
     1
102
RTVSPost2010Prop48
 90
       50
102
RTVSPost2010PropOp48
 70
     1
102
RTVSPost2010Prop49
280
     0
102
RTVSPost2010PropOp49
 70
     1
102
RTVSPost2010Prop50
 90
       50
102
RTVSPost2010PropOp50
 70
     1
102
RTVSPost2010Prop51ColorIndex
 90
      256
102
RTVSPost2010Prop51ColorRGB
 90
-16777216
102
RTVSPost2010PropOp51
 70
     0
102
RTVSPost2010Prop52
140
1.0
102
RTVSPost2010PropOp52
 70
     0
102
RTVSPost2010Prop53
 90
        2
102
RTVSPost2010PropOp53
 70
     1
102
RTVSPost2010Prop54
  1
strokes_ogs.tif
102
RTVSPost2010PropOp54
 70
     1
102
RTVSPost2010Prop55
280
     0
102
RTVSPost2010PropOp55
 70
     1
102
RTVSPost2010Prop56
140
1.0
102
RTVSPost2010PropOp56
 70
     1
102
RTVSPost2010Prop57
140
1.0
102
RTVSPost2010PropOp57
 70
     1
102
RTVSPropertyOp0
 70
     1
102
RTVSPropertyOp1
 70
     1
102
RTVSPropertyOp2
 70
     1
102
RTVSPropertyOp3
 70
     1
102
RTVSPropertyOp4
 70
     1
102
RTVSPropertyOp5
 70
     1
102
RTVSPropertyOp6
 70
     1
102
RTVSPropertyOp7
 70
     1
102
RTVSPropertyOp8
 70
     1
102
RTVSPropertyOp9
 70
     1
102
RTVSPropertyOp10
 70
     1
102
RTVSPropertyOp11
 70
     1
102
RTVSPropertyOp12
 70
     1
102
RTVSPropertyOp13
 70
     1
102
RTVSPropertyOp14
 70
     1
102
RTVSPropertyOp15
 70
     1
102
RTVSPropertyOp16
 70
     1
102
RTVSPropertyOp17
 70
     1
102
RTVSPropertyOp18
 70
     1
102
RTVSPropertyOp19
 70
     1
102
RTVSPropertyOp20
 70
     1
102
RTVSPropertyOp21
 70
     1
102
RTVSPropertyOp22
 70
     1
102
RTVSPropertyOp23
 70
     1
102
RTVSPropertyOp24
 70
     1
102
RTVSPropertyOp25
 70
     1
102
RTVSPropertyOp26
 70
     1
102
RTVSPropertyOp27
 70
     1
102
RTVSPropertyOp28
 70
     1
102
RTVSPropertyOp29
 70
     1
102
RTVSPropertyOp30
 70
     1
102
RTVSPropertyOp31
 70
     1
102
RTVSPropertyOp32
 70
     1
102
RTVSPropertyOp33
 70
     1
102
RTVSPropertyOp34
 70
     1
102
RTVSPropertyOp35
 70
     1
102
RTVSPropertyOp36
 70
     1
102
RTVSPropertyOp37
 70
     1
102
RTVSPropertyOp38
 70
     1
102
RTVSPropertyOp39
 70
     1
102
RTVSPropertyOp40
 70
     1
102
RTVSPropertyOp41
 70
     1
102
RTVSPropertyOp42
 70
     1
102
RTVSPropertyOp43
 70
     1
102
RTVSPropertyOp44
 70
     1
102
RTVSPropertyOp45
 70
     1
102
RTVSPropertyOp46
 70
     1
102
RTVSPropertyOp47
 70
     1
102
RTVSPropertyOp48
 70
     1
102
RTVSPropertyOp49
 70
     1
102
RTVSPropertyOp50
 70
     1
102
RTVSPropertyOp51
 70
     0
102
RTVSPropertyOp52
 70
     0
102
RTVSPropertyOp53
 70
     1
102
RTVSPropertyOp54
 70
     1
102
RTVSPropertyOp55
 70
     1
102
RTVSPropertyOp56
 70
     1
102
RTVSPropertyOp57
 70
     1
102
RTVSPropertyOp58
 70
     1
102
RTVSPropertyOp59
 70
     1
102
RTVSPropertyOp60
 70
     1
102
RTVSPropertyOp61
 70
     1
102
RTVSPropertyOp62
 70
     1
  0
XRECORD
  5
28ED
102
{ACAD_REACTORS
330
28EC
102
}
330
28EC
100
AcDbXrecord
280
     1
102
RTVSPost2010Prop28
280
     0
102
RTVSPost2010PropOp28
 70
     1
102
RTVSPost2010Prop29
280
     1
102
RTVSPost2010PropOp29
 70
     1
102
RTVSPost2010Prop30
280
     1
102
RTVSPost2010PropOp30
 70
     1
102
RTVSPost2010Prop31
280
     0
102
RTVSPost2010PropOp31
 70
     1
102
RTVSPost2010Prop32
280
     0
102
RTVSPost2010PropOp32
 70
     1
102
RTVSPost2010Prop33
280
     0
102
RTVSPost2010PropOp33
 70
     1
102
RTVSPost2010Prop34
280
     0
102
RTVSPost2010PropOp34
 70
     1
102
RTVSPost2010Prop35
280
     0
102
RTVSPost2010PropOp35
 70
     1
102
RTVSPost2010Prop36
280
     0
102
RTVSPost2010PropOp36
 70
     1
102
RTVSPost2010Prop37
 90
       50
102
RTVSPost2010PropOp37
 70
     1
102
RTVSPost2010Prop38
140
0.0
102
RTVSPost2010PropOp38
 70
     1
102
RTVSPost2010Prop39
140
1.0
102
RTVSPost2010PropOp39
 70
     1
102
RTVSPost2010Prop40
 90
        0
102
RTVSPost2010PropOp40
 70
     1
102
RTVSPost2010Prop41ColorIndex
 90
       18
102
RTVSPost2010Prop41ColorRGB
 90
        0
102
RTVSPost2010PropOp41
 70
     1
102
RTVSPost2010Prop42
 90
       50
102
RTVSPost2010PropOp42
 70
     1
102
RTVSPost2010Prop43
 90
        3
102
RTVSPost2010PropOp43
 70
     1
102
RTVSPost2010Prop44ColorIndex
 90
        5
102
RTVSPost2010Prop44ColorRGB
 90
      255
102
RTVSPost2010PropOp44
 70
     1
102
RTVSPost2010Prop45
280
     0
102
RTVSPost2010PropOp45
 70
     1
102
RTVSPost2010Prop46
 90
       50
102
RTVSPost2010PropOp46
 70
     1
102
RTVSPost2010Prop47
 90
       50
102
RTVSPost2010PropOp47
 70
     1
102
RTVSPost2010Prop48
 90
       50
102
RTVSPost2010PropOp48
 70
     1
102
RTVSPost2010Prop49
280
     0
102
RTVSPost2010PropOp49
 70
     1
102
RTVSPost2010Prop50
 90
       50
102
RTVSPost2010PropOp50
 70
     1
102
RTVSPost2010Prop51ColorIndex
 90
      256
102
RTVSPost2010Prop51ColorRGB
 90
-16777216
102
RTVSPost2010PropOp51
 70
     0
102
RTVSPost2010Prop52
140
1.0
102
RTVSPost2010PropOp52
 70
     0
102
RTVSPost2010Prop53
 90
        2
102
RTVSPost2010PropOp53
 70
     1
102
RTVSPost2010Prop54
  1
strokes_ogs.tif
102
RTVSPost2010PropOp54
 70
     1
102
RTVSPost2010Prop55
280
     0
102
RTVSPost2010PropOp55
 70
     1
102
RTVSPost2010Prop56
140
1.0
102
RTVSPost2010PropOp56
 70
     1
102
RTVSPost2010Prop57
140
1.0
102
RTVSPost2010PropOp57
 70
     1
102
RTVSPropertyOp0
 70
     1
102
RTVSPropertyOp1
 70
     1
102
RTVSPropertyOp2
 70
     1
102
RTVSPropertyOp3
 70
     1
102
RTVSPropertyOp4
 70
     1
102
RTVSPropertyOp5
 70
     1
102
RTVSPropertyOp6
 70
     1
102
RTVSPropertyOp7
 70
     1
102
RTVSPropertyOp8
 70
     1
102
RTVSPropertyOp9
 70
     1
102
RTVSPropertyOp10
 70
     1
102
RTVSPropertyOp11
 70
     1
102
RTVSPropertyOp12
 70
     1
102
RTVSPropertyOp13
 70
     1
102
RTVSPropertyOp14
 70
     1
102
RTVSPropertyOp15
 70
     1
102
RTVSPropertyOp16
 70
     1
102
RTVSPropertyOp17
 70
     1
102
RTVSPropertyOp18
 70
     1
102
RTVSPropertyOp19
 70
     1
102
RTVSPropertyOp20
 70
     1
102
RTVSPropertyOp21
 70
     1
102
RTVSPropertyOp22
 70
     1
102
RTVSPropertyOp23
 70
     1
102
RTVSPropertyOp24
 70
     1
102
RTVSPropertyOp25
 70
     1
102
RTVSPropertyOp26
 70
     1
102
RTVSPropertyOp27
 70
     1
102
RTVSPropertyOp28
 70
     1
102
RTVSPropertyOp29
 70
     1
102
RTVSPropertyOp30
 70
     1
102
RTVSPropertyOp31
 70
     1
102
RTVSPropertyOp32
 70
     1
102
RTVSPropertyOp33
 70
     1
102
RTVSPropertyOp34
 70
     1
102
RTVSPropertyOp35
 70
     1
102
RTVSPropertyOp36
 70
     1
102
RTVSPropertyOp37
 70
     1
102
RTVSPropertyOp38
 70
     1
102
RTVSPropertyOp39
 70
     1
102
RTVSPropertyOp40
 70
     1
102
RTVSPropertyOp41
 70
     1
102
RTVSPropertyOp42
 70
     1
102
RTVSPropertyOp43
 70
     1
102
RTVSPropertyOp44
 70
     1
102
RTVSPropertyOp45
 70
     1
102
RTVSPropertyOp46
 70
     1
102
RTVSPropertyOp47
 70
     1
102
RTVSPropertyOp48
 70
     1
102
RTVSPropertyOp49
 70
     1
102
RTVSPropertyOp50
 70
     1
102
RTVSPropertyOp51
 70
     0
102
RTVSPropertyOp52
 70
     0
102
RTVSPropertyOp53
 70
     1
102
RTVSPropertyOp54
 70
     1
102
RTVSPropertyOp55
 70
     1
102
RTVSPropertyOp56
 70
     1
102
RTVSPropertyOp57
 70
     1
102
RTVSPropertyOp58
 70
     1
102
RTVSPropertyOp59
 70
     1
102
RTVSPropertyOp60
 70
     1
102
RTVSPropertyOp61
 70
     1
102
RTVSPropertyOp62
 70
     1
  0
XRECORD
  5
28EF
102
{ACAD_REACTORS
330
28EE
102
}
330
28EE
100
AcDbXrecord
280
     1
102
RTVSPost2010Prop28
280
     0
102
RTVSPost2010PropOp28
 70
     1
102
RTVSPost2010Prop29
280
     1
102
RTVSPost2010PropOp29
 70
     1
102
RTVSPost2010Prop30
280
     1
102
RTVSPost2010PropOp30
 70
     1
102
RTVSPost2010Prop31
280
     0
102
RTVSPost2010PropOp31
 70
     1
102
RTVSPost2010Prop32
280
     0
102
RTVSPost2010PropOp32
 70
     1
102
RTVSPost2010Prop33
280
     0
102
RTVSPost2010PropOp33
 70
     1
102
RTVSPost2010Prop34
280
     0
102
RTVSPost2010PropOp34
 70
     1
102
RTVSPost2010Prop35
280
     0
102
RTVSPost2010PropOp35
 70
     1
102
RTVSPost2010Prop36
280
     0
102
RTVSPost2010PropOp36
 70
     1
102
RTVSPost2010Prop37
 90
       50
102
RTVSPost2010PropOp37
 70
     1
102
RTVSPost2010Prop38
140
0.0
102
RTVSPost2010PropOp38
 70
     1
102
RTVSPost2010Prop39
140
1.0
102
RTVSPost2010PropOp39
 70
     1
102
RTVSPost2010Prop40
 90
        0
102
RTVSPost2010PropOp40
 70
     1
102
RTVSPost2010Prop41ColorIndex
 90
       18
102
RTVSPost2010Prop41ColorRGB
 90
        0
102
RTVSPost2010PropOp41
 70
     1
102
RTVSPost2010Prop42
 90
       50
102
RTVSPost2010PropOp42
 70
     1
102
RTVSPost2010Prop43
 90
        3
102
RTVSPost2010PropOp43
 70
     1
102
RTVSPost2010Prop44ColorIndex
 90
        5
102
RTVSPost2010Prop44ColorRGB
 90
      255
102
RTVSPost2010PropOp44
 70
     1
102
RTVSPost2010Prop45
280
     0
102
RTVSPost2010PropOp45
 70
     1
102
RTVSPost2010Prop46
 90
       50
102
RTVSPost2010PropOp46
 70
     1
102
RTVSPost2010Prop47
 90
       50
102
RTVSPost2010PropOp47
 70
     1
102
RTVSPost2010Prop48
 90
       50
102
RTVSPost2010PropOp48
 70
     1
102
RTVSPost2010Prop49
280
     0
102
RTVSPost2010PropOp49
 70
     1
102
RTVSPost2010Prop50
 90
       50
102
RTVSPost2010PropOp50
 70
     1
102
RTVSPost2010Prop51ColorIndex
 90
      256
102
RTVSPost2010Prop51ColorRGB
 90
-16777216
102
RTVSPost2010PropOp51
 70
     0
102
RTVSPost2010Prop52
140
1.0
102
RTVSPost2010PropOp52
 70
     0
102
RTVSPost2010Prop53
 90
        2
102
RTVSPost2010PropOp53
 70
     1
102
RTVSPost2010Prop54
  1
strokes_ogs.tif
102
RTVSPost2010PropOp54
 70
     1
102
RTVSPost2010Prop55
280
     0
102
RTVSPost2010PropOp55
 70
     1
102
RTVSPost2010Prop56
140
1.0
102
RTVSPost2010PropOp56
 70
     1
102
RTVSPost2010Prop57
140
1.0
102
RTVSPost2010PropOp57
 70
     1
102
RTVSPropertyOp0
 70
     1
102
RTVSPropertyOp1
 70
     1
102
RTVSPropertyOp2
 70
     1
102
RTVSPropertyOp3
 70
     1
102
RTVSPropertyOp4
 70
     1
102
RTVSPropertyOp5
 70
     1
102
RTVSPropertyOp6
 70
     1
102
RTVSPropertyOp7
 70
     1
102
RTVSPropertyOp8
 70
     1
102
RTVSPropertyOp9
 70
     1
102
RTVSPropertyOp10
 70
     1
102
RTVSPropertyOp11
 70
     1
102
RTVSPropertyOp12
 70
     1
102
RTVSPropertyOp13
 70
     1
102
RTVSPropertyOp14
 70
     1
102
RTVSPropertyOp15
 70
     1
102
RTVSPropertyOp16
 70
     1
102
RTVSPropertyOp17
 70
     1
102
RTVSPropertyOp18
 70
     1
102
RTVSPropertyOp19
 70
     1
102
RTVSPropertyOp20
 70
     1
102
RTVSPropertyOp21
 70
     1
102
RTVSPropertyOp22
 70
     1
102
RTVSPropertyOp23
 70
     1
102
RTVSPropertyOp24
 70
     1
102
RTVSPropertyOp25
 70
     1
102
RTVSPropertyOp26
 70
     1
102
RTVSPropertyOp27
 70
     1
102
RTVSPropertyOp28
 70
     1
102
RTVSPropertyOp29
 70
     1
102
RTVSPropertyOp30
 70
     1
102
RTVSPropertyOp31
 70
     1
102
RTVSPropertyOp32
 70
     1
102
RTVSPropertyOp33
 70
     1
102
RTVSPropertyOp34
 70
     1
102
RTVSPropertyOp35
 70
     1
102
RTVSPropertyOp36
 70
     1
102
RTVSPropertyOp37
 70
     1
102
RTVSPropertyOp38
 70
     1
102
RTVSPropertyOp39
 70
     1
102
RTVSPropertyOp40
 70
     1
102
RTVSPropertyOp41
 70
     1
102
RTVSPropertyOp42
 70
     1
102
RTVSPropertyOp43
 70
     1
102
RTVSPropertyOp44
 70
     1
102
RTVSPropertyOp45
 70
     1
102
RTVSPropertyOp46
 70
     1
102
RTVSPropertyOp47
 70
     1
102
RTVSPropertyOp48
 70
     1
102
RTVSPropertyOp49
 70
     1
102
RTVSPropertyOp50
 70
     1
102
RTVSPropertyOp51
 70
     0
102
RTVSPropertyOp52
 70
     0
102
RTVSPropertyOp53
 70
     1
102
RTVSPropertyOp54
 70
     1
102
RTVSPropertyOp55
 70
     1
102
RTVSPropertyOp56
 70
     1
102
RTVSPropertyOp57
 70
     1
102
RTVSPropertyOp58
 70
     1
102
RTVSPropertyOp59
 70
     1
102
RTVSPropertyOp60
 70
     1
102
RTVSPropertyOp61
 70
     1
102
RTVSPropertyOp62
 70
     1
  0
XRECORD
  5
28F1
102
{ACAD_REACTORS
330
28F0
102
}
330
28F0
100
AcDbXrecord
280
     1
102
RTVSPost2010Prop28
280
     0
102
RTVSPost2010PropOp28
 70
     1
102
RTVSPost2010Prop29
280
     1
102
RTVSPost2010PropOp29
 70
     1
102
RTVSPost2010Prop30
280
     1
102
RTVSPost2010PropOp30
 70
     1
102
RTVSPost2010Prop31
280
     0
102
RTVSPost2010PropOp31
 70
     1
102
RTVSPost2010Prop32
280
     0
102
RTVSPost2010PropOp32
 70
     1
102
RTVSPost2010Prop33
280
     0
102
RTVSPost2010PropOp33
 70
     1
102
RTVSPost2010Prop34
280
     0
102
RTVSPost2010PropOp34
 70
     1
102
RTVSPost2010Prop35
280
     0
102
RTVSPost2010PropOp35
 70
     1
102
RTVSPost2010Prop36
280
     0
102
RTVSPost2010PropOp36
 70
     1
102
RTVSPost2010Prop37
 90
       50
102
RTVSPost2010PropOp37
 70
     1
102
RTVSPost2010Prop38
140
0.0
102
RTVSPost2010PropOp38
 70
     1
102
RTVSPost2010Prop39
140
1.0
102
RTVSPost2010PropOp39
 70
     1
102
RTVSPost2010Prop40
 90
        0
102
RTVSPost2010PropOp40
 70
     1
102
RTVSPost2010Prop41ColorIndex
 90
       18
102
RTVSPost2010Prop41ColorRGB
 90
        0
102
RTVSPost2010PropOp41
 70
     1
102
RTVSPost2010Prop42
 90
       50
102
RTVSPost2010PropOp42
 70
     1
102
RTVSPost2010Prop43
 90
        3
102
RTVSPost2010PropOp43
 70
     1
102
RTVSPost2010Prop44ColorIndex
 90
        5
102
RTVSPost2010Prop44ColorRGB
 90
      255
102
RTVSPost2010PropOp44
 70
     1
102
RTVSPost2010Prop45
280
     0
102
RTVSPost2010PropOp45
 70
     1
102
RTVSPost2010Prop46
 90
       50
102
RTVSPost2010PropOp46
 70
     1
102
RTVSPost2010Prop47
 90
       50
102
RTVSPost2010PropOp47
 70
     1
102
RTVSPost2010Prop48
 90
       50
102
RTVSPost2010PropOp48
 70
     1
102
RTVSPost2010Prop49
280
     0
102
RTVSPost2010PropOp49
 70
     1
102
RTVSPost2010Prop50
 90
       50
102
RTVSPost2010PropOp50
 70
     1
102
RTVSPost2010Prop51ColorIndex
 90
      256
102
RTVSPost2010Prop51ColorRGB
 90
-16777216
102
RTVSPost2010PropOp51
 70
     0
102
RTVSPost2010Prop52
140
1.0
102
RTVSPost2010PropOp52
 70
     0
102
RTVSPost2010Prop53
 90
        2
102
RTVSPost2010PropOp53
 70
     1
102
RTVSPost2010Prop54
  1
strokes_ogs.tif
102
RTVSPost2010PropOp54
 70
     1
102
RTVSPost2010Prop55
280
     0
102
RTVSPost2010PropOp55
 70
     1
102
RTVSPost2010Prop56
140
1.0
102
RTVSPost2010PropOp56
 70
     1
102
RTVSPost2010Prop57
140
1.0
102
RTVSPost2010PropOp57
 70
     1
102
RTVSPropertyOp0
 70
     1
102
RTVSPropertyOp1
 70
     1
102
RTVSPropertyOp2
 70
     1
102
RTVSPropertyOp3
 70
     1
102
RTVSPropertyOp4
 70
     1
102
RTVSPropertyOp5
 70
     1
102
RTVSPropertyOp6
 70
     1
102
RTVSPropertyOp7
 70
     1
102
RTVSPropertyOp8
 70
     1
102
RTVSPropertyOp9
 70
     1
102
RTVSPropertyOp10
 70
     1
102
RTVSPropertyOp11
 70
     1
102
RTVSPropertyOp12
 70
     1
102
RTVSPropertyOp13
 70
     1
102
RTVSPropertyOp14
 70
     1
102
RTVSPropertyOp15
 70
     1
102
RTVSPropertyOp16
 70
     1
102
RTVSPropertyOp17
 70
     1
102
RTVSPropertyOp18
 70
     1
102
RTVSPropertyOp19
 70
     1
102
RTVSPropertyOp20
 70
     1
102
RTVSPropertyOp21
 70
     1
102
RTVSPropertyOp22
 70
     1
102
RTVSPropertyOp23
 70
     1
102
RTVSPropertyOp24
 70
     1
102
RTVSPropertyOp25
 70
     1
102
RTVSPropertyOp26
 70
     1
102
RTVSPropertyOp27
 70
     1
102
RTVSPropertyOp28
 70
     1
102
RTVSPropertyOp29
 70
     1
102
RTVSPropertyOp30
 70
     1
102
RTVSPropertyOp31
 70
     1
102
RTVSPropertyOp32
 70
     1
102
RTVSPropertyOp33
 70
     1
102
RTVSPropertyOp34
 70
     1
102
RTVSPropertyOp35
 70
     1
102
RTVSPropertyOp36
 70
     1
102
RTVSPropertyOp37
 70
     1
102
RTVSPropertyOp38
 70
     1
102
RTVSPropertyOp39
 70
     1
102
RTVSPropertyOp40
 70
     1
102
RTVSPropertyOp41
 70
     1
102
RTVSPropertyOp42
 70
     1
102
RTVSPropertyOp43
 70
     1
102
RTVSPropertyOp44
 70
     1
102
RTVSPropertyOp45
 70
     1
102
RTVSPropertyOp46
 70
     1
102
RTVSPropertyOp47
 70
     1
102
RTVSPropertyOp48
 70
     1
102
RTVSPropertyOp49
 70
     1
102
RTVSPropertyOp50
 70
     1
102
RTVSPropertyOp51
 70
     0
102
RTVSPropertyOp52
 70
     0
102
RTVSPropertyOp53
 70
     1
102
RTVSPropertyOp54
 70
     1
102
RTVSPropertyOp55
 70
     1
102
RTVSPropertyOp56
 70
     1
102
RTVSPropertyOp57
 70
     1
102
RTVSPropertyOp58
 70
     1
102
RTVSPropertyOp59
 70
     1
102
RTVSPropertyOp60
 70
     1
102
RTVSPropertyOp61
 70
     1
102
RTVSPropertyOp62
 70
     1
  0
XRECORD
  5
28F3
102
{ACAD_REACTORS
330
28F2
102
}
330
28F2
100
AcDbXrecord
280
     1
102
RTVSPost2010Prop28
280
     0
102
RTVSPost2010PropOp28
 70
     1
102
RTVSPost2010Prop29
280
     1
102
RTVSPost2010PropOp29
 70
     1
102
RTVSPost2010Prop30
280
     1
102
RTVSPost2010PropOp30
 70
     1
102
RTVSPost2010Prop31
280
     0
102
RTVSPost2010PropOp31
 70
     1
102
RTVSPost2010Prop32
280
     0
102
RTVSPost2010PropOp32
 70
     1
102
RTVSPost2010Prop33
280
     0
102
RTVSPost2010PropOp33
 70
     1
102
RTVSPost2010Prop34
280
     0
102
RTVSPost2010PropOp34
 70
     1
102
RTVSPost2010Prop35
280
     0
102
RTVSPost2010PropOp35
 70
     1
102
RTVSPost2010Prop36
280
     0
102
RTVSPost2010PropOp36
 70
     1
102
RTVSPost2010Prop37
 90
       50
102
RTVSPost2010PropOp37
 70
     1
102
RTVSPost2010Prop38
140
0.0
102
RTVSPost2010PropOp38
 70
     1
102
RTVSPost2010Prop39
140
1.0
102
RTVSPost2010PropOp39
 70
     1
102
RTVSPost2010Prop40
 90
        0
102
RTVSPost2010PropOp40
 70
     1
102
RTVSPost2010Prop41ColorIndex
 90
       18
102
RTVSPost2010Prop41ColorRGB
 90
        0
102
RTVSPost2010PropOp41
 70
     1
102
RTVSPost2010Prop42
 90
       50
102
RTVSPost2010PropOp42
 70
     1
102
RTVSPost2010Prop43
 90
        3
102
RTVSPost2010PropOp43
 70
     1
102
RTVSPost2010Prop44ColorIndex
 90
        5
102
RTVSPost2010Prop44ColorRGB
 90
      255
102
RTVSPost2010PropOp44
 70
     1
102
RTVSPost2010Prop45
280
     0
102
RTVSPost2010PropOp45
 70
     1
102
RTVSPost2010Prop46
 90
       50
102
RTVSPost2010PropOp46
 70
     1
102
RTVSPost2010Prop47
 90
       50
102
RTVSPost2010PropOp47
 70
     1
102
RTVSPost2010Prop48
 90
       50
102
RTVSPost2010PropOp48
 70
     1
102
RTVSPost2010Prop49
280
     0
102
RTVSPost2010PropOp49
 70
     1
102
RTVSPost2010Prop50
 90
       50
102
RTVSPost2010PropOp50
 70
     1
102
RTVSPost2010Prop51ColorIndex
 90
      256
102
RTVSPost2010Prop51ColorRGB
 90
-16777216
102
RTVSPost2010PropOp51
 70
     0
102
RTVSPost2010Prop52
140
1.0
102
RTVSPost2010PropOp52
 70
     0
102
RTVSPost2010Prop53
 90
        2
102
RTVSPost2010PropOp53
 70
     1
102
RTVSPost2010Prop54
  1
strokes_ogs.tif
102
RTVSPost2010PropOp54
 70
     1
102
RTVSPost2010Prop55
280
     0
102
RTVSPost2010PropOp55
 70
     1
102
RTVSPost2010Prop56
140
1.0
102
RTVSPost2010PropOp56
 70
     1
102
RTVSPost2010Prop57
140
1.0
102
RTVSPost2010PropOp57
 70
     1
102
RTVSPropertyOp0
 70
     1
102
RTVSPropertyOp1
 70
     1
102
RTVSPropertyOp2
 70
     1
102
RTVSPropertyOp3
 70
     1
102
RTVSPropertyOp4
 70
     1
102
RTVSPropertyOp5
 70
     1
102
RTVSPropertyOp6
 70
     1
102
RTVSPropertyOp7
 70
     1
102
RTVSPropertyOp8
 70
     1
102
RTVSPropertyOp9
 70
     1
102
RTVSPropertyOp10
 70
     1
102
RTVSPropertyOp11
 70
     1
102
RTVSPropertyOp12
 70
     1
102
RTVSPropertyOp13
 70
     1
102
RTVSPropertyOp14
 70
     1
102
RTVSPropertyOp15
 70
     1
102
RTVSPropertyOp16
 70
     1
102
RTVSPropertyOp17
 70
     1
102
RTVSPropertyOp18
 70
     1
102
RTVSPropertyOp19
 70
     1
102
RTVSPropertyOp20
 70
     1
102
RTVSPropertyOp21
 70
     1
102
RTVSPropertyOp22
 70
     1
102
RTVSPropertyOp23
 70
     1
102
RTVSPropertyOp24
 70
     1
102
RTVSPropertyOp25
 70
     1
102
RTVSPropertyOp26
 70
     1
102
RTVSPropertyOp27
 70
     1
102
RTVSPropertyOp28
 70
     1
102
RTVSPropertyOp29
 70
     1
102
RTVSPropertyOp30
 70
     1
102
RTVSPropertyOp31
 70
     1
102
RTVSPropertyOp32
 70
     1
102
RTVSPropertyOp33
 70
     1
102
RTVSPropertyOp34
 70
     1
102
RTVSPropertyOp35
 70
     1
102
RTVSPropertyOp36
 70
     1
102
RTVSPropertyOp37
 70
     1
102
RTVSPropertyOp38
 70
     1
102
RTVSPropertyOp39
 70
     1
102
RTVSPropertyOp40
 70
     1
102
RTVSPropertyOp41
 70
     1
102
RTVSPropertyOp42
 70
     1
102
RTVSPropertyOp43
 70
     1
102
RTVSPropertyOp44
 70
     1
102
RTVSPropertyOp45
 70
     1
102
RTVSPropertyOp46
 70
     1
102
RTVSPropertyOp47
 70
     1
102
RTVSPropertyOp48
 70
     1
102
RTVSPropertyOp49
 70
     1
102
RTVSPropertyOp50
 70
     1
102
RTVSPropertyOp51
 70
     0
102
RTVSPropertyOp52
 70
     0
102
RTVSPropertyOp53
 70
     1
102
RTVSPropertyOp54
 70
     1
102
RTVSPropertyOp55
 70
     1
102
RTVSPropertyOp56
 70
     1
102
RTVSPropertyOp57
 70
     1
102
RTVSPropertyOp58
 70
     1
102
RTVSPropertyOp59
 70
     1
102
RTVSPropertyOp60
 70
     1
102
RTVSPropertyOp61
 70
     1
102
RTVSPropertyOp62
 70
     1
  0
XRECORD
  5
28FB
102
{ACAD_REACTORS
330
28FA
102
}
330
28FA
100
AcDbXrecord
280
     1
102
RTVSPost2010Prop28
280
     0
102
RTVSPost2010PropOp28
 70
     1
102
RTVSPost2010Prop29
280
     1
102
RTVSPost2010PropOp29
 70
     1
102
RTVSPost2010Prop30
280
     1
102
RTVSPost2010PropOp30
 70
     1
102
RTVSPost2010Prop31
280
     0
102
RTVSPost2010PropOp31
 70
     1
102
RTVSPost2010Prop32
280
     0
102
RTVSPost2010PropOp32
 70
     1
102
RTVSPost2010Prop33
280
     0
102
RTVSPost2010PropOp33
 70
     1
102
RTVSPost2010Prop34
280
     0
102
RTVSPost2010PropOp34
 70
     1
102
RTVSPost2010Prop35
280
     0
102
RTVSPost2010PropOp35
 70
     1
102
RTVSPost2010Prop36
280
     0
102
RTVSPost2010PropOp36
 70
     1
102
RTVSPost2010Prop37
 90
       50
102
RTVSPost2010PropOp37
 70
     1
102
RTVSPost2010Prop38
140
0.0
102
RTVSPost2010PropOp38
 70
     1
102
RTVSPost2010Prop39
140
1.0
102
RTVSPost2010PropOp39
 70
     1
102
RTVSPost2010Prop40
 90
        0
102
RTVSPost2010PropOp40
 70
     1
102
RTVSPost2010Prop41ColorIndex
 90
       18
102
RTVSPost2010Prop41ColorRGB
 90
        0
102
RTVSPost2010PropOp41
 70
     1
102
RTVSPost2010Prop42
 90
       50
102
RTVSPost2010PropOp42
 70
     1
102
RTVSPost2010Prop43
 90
        3
102
RTVSPost2010PropOp43
 70
     1
102
RTVSPost2010Prop44ColorIndex
 90
        5
102
RTVSPost2010Prop44ColorRGB
 90
      255
102
RTVSPost2010PropOp44
 70
     1
102
RTVSPost2010Prop45
280
     0
102
RTVSPost2010PropOp45
 70
     1
102
RTVSPost2010Prop46
 90
       50
102
RTVSPost2010PropOp46
 70
     1
102
RTVSPost2010Prop47
 90
       50
102
RTVSPost2010PropOp47
 70
     1
102
RTVSPost2010Prop48
 90
       50
102
RTVSPost2010PropOp48
 70
     1
102
RTVSPost2010Prop49
280
     0
102
RTVSPost2010PropOp49
 70
     1
102
RTVSPost2010Prop50
 90
       50
102
RTVSPost2010PropOp50
 70
     1
102
RTVSPost2010Prop51ColorIndex
 90
      256
102
RTVSPost2010Prop51ColorRGB
 90
-16777216
102
RTVSPost2010PropOp51
 70
     0
102
RTVSPost2010Prop52
140
1.0
102
RTVSPost2010PropOp52
 70
     0
102
RTVSPost2010Prop53
 90
        2
102
RTVSPost2010PropOp53
 70
     1
102
RTVSPost2010Prop54
  1
strokes_ogs.tif
102
RTVSPost2010PropOp54
 70
     1
102
RTVSPost2010Prop55
280
     0
102
RTVSPost2010PropOp55
 70
     1
102
RTVSPost2010Prop56
140
1.0
102
RTVSPost2010PropOp56
 70
     1
102
RTVSPost2010Prop57
140
1.0
102
RTVSPost2010PropOp57
 70
     1
102
RTVSPropertyOp0
 70
     1
102
RTVSPropertyOp1
 70
     1
102
RTVSPropertyOp2
 70
     1
102
RTVSPropertyOp3
 70
     1
102
RTVSPropertyOp4
 70
     1
102
RTVSPropertyOp5
 70
     1
102
RTVSPropertyOp6
 70
     1
102
RTVSPropertyOp7
 70
     1
102
RTVSPropertyOp8
 70
     1
102
RTVSPropertyOp9
 70
     1
102
RTVSPropertyOp10
 70
     1
102
RTVSPropertyOp11
 70
     1
102
RTVSPropertyOp12
 70
     1
102
RTVSPropertyOp13
 70
     1
102
RTVSPropertyOp14
 70
     1
102
RTVSPropertyOp15
 70
     1
102
RTVSPropertyOp16
 70
     1
102
RTVSPropertyOp17
 70
     1
102
RTVSPropertyOp18
 70
     1
102
RTVSPropertyOp19
 70
     1
102
RTVSPropertyOp20
 70
     1
102
RTVSPropertyOp21
 70
     1
102
RTVSPropertyOp22
 70
     1
102
RTVSPropertyOp23
 70
     1
102
RTVSPropertyOp24
 70
     1
102
RTVSPropertyOp25
 70
     1
102
RTVSPropertyOp26
 70
     1
102
RTVSPropertyOp27
 70
     1
102
RTVSPropertyOp28
 70
     1
102
RTVSPropertyOp29
 70
     1
102
RTVSPropertyOp30
 70
     1
102
RTVSPropertyOp31
 70
     1
102
RTVSPropertyOp32
 70
     1
102
RTVSPropertyOp33
 70
     1
102
RTVSPropertyOp34
 70
     1
102
RTVSPropertyOp35
 70
     1
102
RTVSPropertyOp36
 70
     1
102
RTVSPropertyOp37
 70
     1
102
RTVSPropertyOp38
 70
     1
102
RTVSPropertyOp39
 70
     1
102
RTVSPropertyOp40
 70
     1
102
RTVSPropertyOp41
 70
     1
102
RTVSPropertyOp42
 70
     1
102
RTVSPropertyOp43
 70
     1
102
RTVSPropertyOp44
 70
     1
102
RTVSPropertyOp45
 70
     1
102
RTVSPropertyOp46
 70
     1
102
RTVSPropertyOp47
 70
     1
102
RTVSPropertyOp48
 70
     1
102
RTVSPropertyOp49
 70
     1
102
RTVSPropertyOp50
 70
     1
102
RTVSPropertyOp51
 70
     0
102
RTVSPropertyOp52
 70
     0
102
RTVSPropertyOp53
 70
     1
102
RTVSPropertyOp54
 70
     1
102
RTVSPropertyOp55
 70
     1
102
RTVSPropertyOp56
 70
     1
102
RTVSPropertyOp57
 70
     1
102
RTVSPropertyOp58
 70
     1
102
RTVSPropertyOp59
 70
     1
102
RTVSPropertyOp60
 70
     1
102
RTVSPropertyOp61
 70
     1
102
RTVSPropertyOp62
 70
     1
  0
XRECORD
  5
290F
102
{ACAD_REACTORS
330
290E
102
}
330
290E
100
AcDbXrecord
280
     1
102
RTVSPost2010Prop28
280
     0
102
RTVSPost2010PropOp28
 70
     1
102
RTVSPost2010Prop29
280
     1
102
RTVSPost2010PropOp29
 70
     1
102
RTVSPost2010Prop30
280
     1
102
RTVSPost2010PropOp30
 70
     1
102
RTVSPost2010Prop31
280
     0
102
RTVSPost2010PropOp31
 70
     1
102
RTVSPost2010Prop32
280
     0
102
RTVSPost2010PropOp32
 70
     1
102
RTVSPost2010Prop33
280
     0
102
RTVSPost2010PropOp33
 70
     1
102
RTVSPost2010Prop34
280
     0
102
RTVSPost2010PropOp34
 70
     1
102
RTVSPost2010Prop35
280
     0
102
RTVSPost2010PropOp35
 70
     1
102
RTVSPost2010Prop36
280
     0
102
RTVSPost2010PropOp36
 70
     1
102
RTVSPost2010Prop37
 90
       50
102
RTVSPost2010PropOp37
 70
     1
102
RTVSPost2010Prop38
140
0.0
102
RTVSPost2010PropOp38
 70
     1
102
RTVSPost2010Prop39
140
1.0
102
RTVSPost2010PropOp39
 70
     1
102
RTVSPost2010Prop40
 90
        0
102
RTVSPost2010PropOp40
 70
     1
102
RTVSPost2010Prop41ColorIndex
 90
       18
102
RTVSPost2010Prop41ColorRGB
 90
        0
102
RTVSPost2010PropOp41
 70
     1
102
RTVSPost2010Prop42
 90
       50
102
RTVSPost2010PropOp42
 70
     1
102
RTVSPost2010Prop43
 90
        3
102
RTVSPost2010PropOp43
 70
     1
102
RTVSPost2010Prop44ColorIndex
 90
        5
102
RTVSPost2010Prop44ColorRGB
 90
      255
102
RTVSPost2010PropOp44
 70
     1
102
RTVSPost2010Prop45
280
     0
102
RTVSPost2010PropOp45
 70
     1
102
RTVSPost2010Prop46
 90
       50
102
RTVSPost2010PropOp46
 70
     1
102
RTVSPost2010Prop47
 90
       50
102
RTVSPost2010PropOp47
 70
     1
102
RTVSPost2010Prop48
 90
       50
102
RTVSPost2010PropOp48
 70
     1
102
RTVSPost2010Prop49
280
     0
102
RTVSPost2010PropOp49
 70
     1
102
RTVSPost2010Prop50
 90
       50
102
RTVSPost2010PropOp50
 70
     1
102
RTVSPost2010Prop51ColorIndex
 90
      256
102
RTVSPost2010Prop51ColorRGB
 90
-16777216
102
RTVSPost2010PropOp51
 70
     0
102
RTVSPost2010Prop52
140
1.0
102
RTVSPost2010PropOp52
 70
     0
102
RTVSPost2010Prop53
 90
        2
102
RTVSPost2010PropOp53
 70
     1
102
RTVSPost2010Prop54
  1
strokes_ogs.tif
102
RTVSPost2010PropOp54
 70
     1
102
RTVSPost2010Prop55
280
     0
102
RTVSPost2010PropOp55
 70
     1
102
RTVSPost2010Prop56
140
1.0
102
RTVSPost2010PropOp56
 70
     1
102
RTVSPost2010Prop57
140
1.0
102
RTVSPost2010PropOp57
 70
     1
102
RTVSPropertyOp0
 70
     0
102
RTVSPropertyOp1
 70
     0
102
RTVSPropertyOp2
 70
     0
102
RTVSPropertyOp3
 70
     0
102
RTVSPropertyOp4
 70
     0
102
RTVSPropertyOp5
 70
     0
102
RTVSPropertyOp6
 70
     0
102
RTVSPropertyOp7
 70
     0
102
RTVSPropertyOp8
 70
     0
102
RTVSPropertyOp9
 70
     0
102
RTVSPropertyOp10
 70
     0
102
RTVSPropertyOp11
 70
     0
102
RTVSPropertyOp12
 70
     0
102
RTVSPropertyOp13
 70
     0
102
RTVSPropertyOp14
 70
     2
102
RTVSPropertyOp15
 70
     0
102
RTVSPropertyOp16
 70
     0
102
RTVSPropertyOp17
 70
     0
102
RTVSPropertyOp18
 70
     0
102
RTVSPropertyOp19
 70
     0
102
RTVSPropertyOp20
 70
     0
102
RTVSPropertyOp21
 70
     0
102
RTVSPropertyOp22
 70
     0
102
RTVSPropertyOp23
 70
     0
102
RTVSPropertyOp24
 70
     0
102
RTVSPropertyOp25
 70
     0
102
RTVSPropertyOp26
 70
     0
102
RTVSPropertyOp27
 70
     0
102
RTVSPropertyOp28
 70
     1
102
RTVSPropertyOp29
 70
     1
102
RTVSPropertyOp30
 70
     1
102
RTVSPropertyOp31
 70
     1
102
RTVSPropertyOp32
 70
     1
102
RTVSPropertyOp33
 70
     1
102
RTVSPropertyOp34
 70
     1
102
RTVSPropertyOp35
 70
     1
102
RTVSPropertyOp36
 70
     1
102
RTVSPropertyOp37
 70
     1
102
RTVSPropertyOp38
 70
     1
102
RTVSPropertyOp39
 70
     1
102
RTVSPropertyOp40
 70
     1
102
RTVSPropertyOp41
 70
     1
102
RTVSPropertyOp42
 70
     1
102
RTVSPropertyOp43
 70
     1
102
RTVSPropertyOp44
 70
     1
102
RTVSPropertyOp45
 70
     1
102
RTVSPropertyOp46
 70
     1
102
RTVSPropertyOp47
 70
     1
102
RTVSPropertyOp48
 70
     1
102
RTVSPropertyOp49
 70
     1
102
RTVSPropertyOp50
 70
     1
102
RTVSPropertyOp51
 70
     0
102
RTVSPropertyOp52
 70
     0
102
RTVSPropertyOp53
 70
     1
102
RTVSPropertyOp54
 70
     1
102
RTVSPropertyOp55
 70
     1
102
RTVSPropertyOp56
 70
     1
102
RTVSPropertyOp57
 70
     1
102
RTVSPropertyOp58
 70
     1
102
RTVSPropertyOp59
 70
     1
102
RTVSPropertyOp60
 70
     1
102
RTVSPropertyOp61
 70
     1
102
RTVSPropertyOp62
 70
     1
  0
XRECORD
  5
2907
102
{ACAD_REACTORS
330
2906
102
}
330
2906
100
AcDbXrecord
280
     1
102
RTVSPost2010Prop28
280
     0
102
RTVSPost2010PropOp28
 70
     1
102
RTVSPost2010Prop29
280
     1
102
RTVSPost2010PropOp29
 70
     1
102
RTVSPost2010Prop30
280
     1
102
RTVSPost2010PropOp30
 70
     1
102
RTVSPost2010Prop31
280
     0
102
RTVSPost2010PropOp31
 70
     1
102
RTVSPost2010Prop32
280
     0
102
RTVSPost2010PropOp32
 70
     1
102
RTVSPost2010Prop33
280
     0
102
RTVSPost2010PropOp33
 70
     1
102
RTVSPost2010Prop34
280
     0
102
RTVSPost2010PropOp34
 70
     1
102
RTVSPost2010Prop35
280
     0
102
RTVSPost2010PropOp35
 70
     1
102
RTVSPost2010Prop36
280
     0
102
RTVSPost2010PropOp36
 70
     1
102
RTVSPost2010Prop37
 90
       50
102
RTVSPost2010PropOp37
 70
     1
102
RTVSPost2010Prop38
140
0.0
102
RTVSPost2010PropOp38
 70
     1
102
RTVSPost2010Prop39
140
1.0
102
RTVSPost2010PropOp39
 70
     1
102
RTVSPost2010Prop40
 90
        0
102
RTVSPost2010PropOp40
 70
     1
102
RTVSPost2010Prop41ColorIndex
 90
       18
102
RTVSPost2010Prop41ColorRGB
 90
        0
102
RTVSPost2010PropOp41
 70
     1
102
RTVSPost2010Prop42
 90
       50
102
RTVSPost2010PropOp42
 70
     1
102
RTVSPost2010Prop43
 90
        3
102
RTVSPost2010PropOp43
 70
     1
102
RTVSPost2010Prop44ColorIndex
 90
        5
102
RTVSPost2010Prop44ColorRGB
 90
      255
102
RTVSPost2010PropOp44
 70
     1
102
RTVSPost2010Prop45
280
     0
102
RTVSPost2010PropOp45
 70
     1
102
RTVSPost2010Prop46
 90
       50
102
RTVSPost2010PropOp46
 70
     1
102
RTVSPost2010Prop47
 90
       50
102
RTVSPost2010PropOp47
 70
     1
102
RTVSPost2010Prop48
 90
       50
102
RTVSPost2010PropOp48
 70
     1
102
RTVSPost2010Prop49
280
     0
102
RTVSPost2010PropOp49
 70
     1
102
RTVSPost2010Prop50
 90
       50
102
RTVSPost2010PropOp50
 70
     1
102
RTVSPost2010Prop51ColorIndex
 90
      256
102
RTVSPost2010Prop51ColorRGB
 90
-16777216
102
RTVSPost2010PropOp51
 70
     0
102
RTVSPost2010Prop52
140
1.0
102
RTVSPost2010PropOp52
 70
     0
102
RTVSPost2010Prop53
 90
        2
102
RTVSPost2010PropOp53
 70
     1
102
RTVSPost2010Prop54
  1
strokes_ogs.tif
102
RTVSPost2010PropOp54
 70
     1
102
RTVSPost2010Prop55
280
     0
102
RTVSPost2010PropOp55
 70
     1
102
RTVSPost2010Prop56
140
1.0
102
RTVSPost2010PropOp56
 70
     1
102
RTVSPost2010Prop57
140
1.0
102
RTVSPost2010PropOp57
 70
     1
102
RTVSPropertyOp0
 70
     1
102
RTVSPropertyOp1
 70
     1
102
RTVSPropertyOp2
 70
     1
102
RTVSPropertyOp3
 70
     1
102
RTVSPropertyOp4
 70
     1
102
RTVSPropertyOp5
 70
     1
102
RTVSPropertyOp6
 70
     1
102
RTVSPropertyOp7
 70
     1
102
RTVSPropertyOp8
 70
     1
102
RTVSPropertyOp9
 70
     1
102
RTVSPropertyOp10
 70
     1
102
RTVSPropertyOp11
 70
     1
102
RTVSPropertyOp12
 70
     1
102
RTVSPropertyOp13
 70
     1
102
RTVSPropertyOp14
 70
     1
102
RTVSPropertyOp15
 70
     1
102
RTVSPropertyOp16
 70
     1
102
RTVSPropertyOp17
 70
     1
102
RTVSPropertyOp18
 70
     1
102
RTVSPropertyOp19
 70
     1
102
RTVSPropertyOp20
 70
     1
102
RTVSPropertyOp21
 70
     1
102
RTVSPropertyOp22
 70
     1
102
RTVSPropertyOp23
 70
     1
102
RTVSPropertyOp24
 70
     1
102
RTVSPropertyOp25
 70
     1
102
RTVSPropertyOp26
 70
     1
102
RTVSPropertyOp27
 70
     1
102
RTVSPropertyOp28
 70
     1
102
RTVSPropertyOp29
 70
     1
102
RTVSPropertyOp30
 70
     1
102
RTVSPropertyOp31
 70
     1
102
RTVSPropertyOp32
 70
     1
102
RTVSPropertyOp33
 70
     1
102
RTVSPropertyOp34
 70
     1
102
RTVSPropertyOp35
 70
     1
102
RTVSPropertyOp36
 70
     1
102
RTVSPropertyOp37
 70
     1
102
RTVSPropertyOp38
 70
     1
102
RTVSPropertyOp39
 70
     1
102
RTVSPropertyOp40
 70
     1
102
RTVSPropertyOp41
 70
     1
102
RTVSPropertyOp42
 70
     1
102
RTVSPropertyOp43
 70
     1
102
RTVSPropertyOp44
 70
     1
102
RTVSPropertyOp45
 70
     1
102
RTVSPropertyOp46
 70
     1
102
RTVSPropertyOp47
 70
     1
102
RTVSPropertyOp48
 70
     1
102
RTVSPropertyOp49
 70
     1
102
RTVSPropertyOp50
 70
     1
102
RTVSPropertyOp51
 70
     0
102
RTVSPropertyOp52
 70
     0
102
RTVSPropertyOp53
 70
     1
102
RTVSPropertyOp54
 70
     1
102
RTVSPropertyOp55
 70
     1
102
RTVSPropertyOp56
 70
     1
102
RTVSPropertyOp57
 70
     1
102
RTVSPropertyOp58
 70
     1
102
RTVSPropertyOp59
 70
     1
102
RTVSPropertyOp60
 70
     1
102
RTVSPropertyOp61
 70
     1
102
RTVSPropertyOp62
 70
     1
  0
XRECORD
  5
2911
102
{ACAD_REACTORS
330
2910
102
}
330
2910
100
AcDbXrecord
280
     1
102
RTVSPost2010Prop28
280
     0
102
RTVSPost2010PropOp28
 70
     1
102
RTVSPost2010Prop29
280
     1
102
RTVSPost2010PropOp29
 70
     1
102
RTVSPost2010Prop30
280
     1
102
RTVSPost2010PropOp30
 70
     1
102
RTVSPost2010Prop31
280
     0
102
RTVSPost2010PropOp31
 70
     1
102
RTVSPost2010Prop32
280
     0
102
RTVSPost2010PropOp32
 70
     1
102
RTVSPost2010Prop33
280
     0
102
RTVSPost2010PropOp33
 70
     1
102
RTVSPost2010Prop34
280
     0
102
RTVSPost2010PropOp34
 70
     1
102
RTVSPost2010Prop35
280
     0
102
RTVSPost2010PropOp35
 70
     1
102
RTVSPost2010Prop36
280
     0
102
RTVSPost2010PropOp36
 70
     1
102
RTVSPost2010Prop37
 90
       50
102
RTVSPost2010PropOp37
 70
     1
102
RTVSPost2010Prop38
140
0.0
102
RTVSPost2010PropOp38
 70
     1
102
RTVSPost2010Prop39
140
1.0
102
RTVSPost2010PropOp39
 70
     1
102
RTVSPost2010Prop40
 90
        0
102
RTVSPost2010PropOp40
 70
     1
102
RTVSPost2010Prop41ColorIndex
 90
       18
102
RTVSPost2010Prop41ColorRGB
 90
        0
102
RTVSPost2010PropOp41
 70
     1
102
RTVSPost2010Prop42
 90
       50
102
RTVSPost2010PropOp42
 70
     1
102
RTVSPost2010Prop43
 90
        3
102
RTVSPost2010PropOp43
 70
     1
102
RTVSPost2010Prop44ColorIndex
 90
        5
102
RTVSPost2010Prop44ColorRGB
 90
      255
102
RTVSPost2010PropOp44
 70
     1
102
RTVSPost2010Prop45
280
     0
102
RTVSPost2010PropOp45
 70
     1
102
RTVSPost2010Prop46
 90
       50
102
RTVSPost2010PropOp46
 70
     1
102
RTVSPost2010Prop47
 90
       50
102
RTVSPost2010PropOp47
 70
     1
102
RTVSPost2010Prop48
 90
       50
102
RTVSPost2010PropOp48
 70
     1
102
RTVSPost2010Prop49
280
     0
102
RTVSPost2010PropOp49
 70
     1
102
RTVSPost2010Prop50
 90
       50
102
RTVSPost2010PropOp50
 70
     1
102
RTVSPost2010Prop51ColorIndex
 90
      256
102
RTVSPost2010Prop51ColorRGB
 90
-16777216
102
RTVSPost2010PropOp51
 70
     0
102
RTVSPost2010Prop52
140
1.0
102
RTVSPost2010PropOp52
 70
     0
102
RTVSPost2010Prop53
 90
        2
102
RTVSPost2010PropOp53
 70
     1
102
RTVSPost2010Prop54
  1
strokes_ogs.tif
102
RTVSPost2010PropOp54
 70
     1
102
RTVSPost2010Prop55
280
     0
102
RTVSPost2010PropOp55
 70
     1
102
RTVSPost2010Prop56
140
1.0
102
RTVSPost2010PropOp56
 70
     1
102
RTVSPost2010Prop57
140
1.0
102
RTVSPost2010PropOp57
 70
     1
102
RTVSPropertyOp0
 70
     0
102
RTVSPropertyOp1
 70
     0
102
RTVSPropertyOp2
 70
     0
102
RTVSPropertyOp3
 70
     0
102
RTVSPropertyOp4
 70
     0
102
RTVSPropertyOp5
 70
     0
102
RTVSPropertyOp6
 70
     0
102
RTVSPropertyOp7
 70
     0
102
RTVSPropertyOp8
 70
     0
102
RTVSPropertyOp9
 70
     0
102
RTVSPropertyOp10
 70
     0
102
RTVSPropertyOp11
 70
     0
102
RTVSPropertyOp12
 70
     0
102
RTVSPropertyOp13
 70
     0
102
RTVSPropertyOp14
 70
     2
102
RTVSPropertyOp15
 70
     0
102
RTVSPropertyOp16
 70
     0
102
RTVSPropertyOp17
 70
     0
102
RTVSPropertyOp18
 70
     0
102
RTVSPropertyOp19
 70
     0
102
RTVSPropertyOp20
 70
     0
102
RTVSPropertyOp21
 70
     0
102
RTVSPropertyOp22
 70
     0
102
RTVSPropertyOp23
 70
     0
102
RTVSPropertyOp24
 70
     0
102
RTVSPropertyOp25
 70
     0
102
RTVSPropertyOp26
 70
     0
102
RTVSPropertyOp27
 70
     0
102
RTVSPropertyOp28
 70
     1
102
RTVSPropertyOp29
 70
     1
102
RTVSPropertyOp30
 70
     1
102
RTVSPropertyOp31
 70
     1
102
RTVSPropertyOp32
 70
     1
102
RTVSPropertyOp33
 70
     1
102
RTVSPropertyOp34
 70
     1
102
RTVSPropertyOp35
 70
     1
102
RTVSPropertyOp36
 70
     1
102
RTVSPropertyOp37
 70
     1
102
RTVSPropertyOp38
 70
     1
102
RTVSPropertyOp39
 70
     1
102
RTVSPropertyOp40
 70
     1
102
RTVSPropertyOp41
 70
     1
102
RTVSPropertyOp42
 70
     1
102
RTVSPropertyOp43
 70
     1
102
RTVSPropertyOp44
 70
     1
102
RTVSPropertyOp45
 70
     1
102
RTVSPropertyOp46
 70
     1
102
RTVSPropertyOp47
 70
     1
102
RTVSPropertyOp48
 70
     1
102
RTVSPropertyOp49
 70
     1
102
RTVSPropertyOp50
 70
     1
102
RTVSPropertyOp51
 70
     0
102
RTVSPropertyOp52
 70
     0
102
RTVSPropertyOp53
 70
     1
102
RTVSPropertyOp54
 70
     1
102
RTVSPropertyOp55
 70
     1
102
RTVSPropertyOp56
 70
     1
102
RTVSPropertyOp57
 70
     1
102
RTVSPropertyOp58
 70
     1
102
RTVSPropertyOp59
 70
     1
102
RTVSPropertyOp60
 70
     1
102
RTVSPropertyOp61
 70
     1
102
RTVSPropertyOp62
 70
     1
  0
XRECORD
  5
28FF
102
{ACAD_REACTORS
330
28FE
102
}
330
28FE
100
AcDbXrecord
280
     1
102
RTVSPost2010Prop28
280
     0
102
RTVSPost2010PropOp28
 70
     1
102
RTVSPost2010Prop29
280
     1
102
RTVSPost2010PropOp29
 70
     1
102
RTVSPost2010Prop30
280
     1
102
RTVSPost2010PropOp30
 70
     1
102
RTVSPost2010Prop31
280
     0
102
RTVSPost2010PropOp31
 70
     1
102
RTVSPost2010Prop32
280
     0
102
RTVSPost2010PropOp32
 70
     1
102
RTVSPost2010Prop33
280
     0
102
RTVSPost2010PropOp33
 70
     1
102
RTVSPost2010Prop34
280
     0
102
RTVSPost2010PropOp34
 70
     1
102
RTVSPost2010Prop35
280
     0
102
RTVSPost2010PropOp35
 70
     1
102
RTVSPost2010Prop36
280
     0
102
RTVSPost2010PropOp36
 70
     1
102
RTVSPost2010Prop37
 90
       50
102
RTVSPost2010PropOp37
 70
     1
102
RTVSPost2010Prop38
140
0.0
102
RTVSPost2010PropOp38
 70
     1
102
RTVSPost2010Prop39
140
1.0
102
RTVSPost2010PropOp39
 70
     1
102
RTVSPost2010Prop40
 90
        0
102
RTVSPost2010PropOp40
 70
     1
102
RTVSPost2010Prop41ColorIndex
 90
       18
102
RTVSPost2010Prop41ColorRGB
 90
        0
102
RTVSPost2010PropOp41
 70
     1
102
RTVSPost2010Prop42
 90
       50
102
RTVSPost2010PropOp42
 70
     1
102
RTVSPost2010Prop43
 90
        3
102
RTVSPost2010PropOp43
 70
     1
102
RTVSPost2010Prop44ColorIndex
 90
        5
102
RTVSPost2010Prop44ColorRGB
 90
      255
102
RTVSPost2010PropOp44
 70
     1
102
RTVSPost2010Prop45
280
     0
102
RTVSPost2010PropOp45
 70
     1
102
RTVSPost2010Prop46
 90
       50
102
RTVSPost2010PropOp46
 70
     1
102
RTVSPost2010Prop47
 90
       50
102
RTVSPost2010PropOp47
 70
     1
102
RTVSPost2010Prop48
 90
       50
102
RTVSPost2010PropOp48
 70
     1
102
RTVSPost2010Prop49
280
     0
102
RTVSPost2010PropOp49
 70
     1
102
RTVSPost2010Prop50
 90
       50
102
RTVSPost2010PropOp50
 70
     1
102
RTVSPost2010Prop51ColorIndex
 90
      256
102
RTVSPost2010Prop51ColorRGB
 90
-16777216
102
RTVSPost2010PropOp51
 70
     0
102
RTVSPost2010Prop52
140
1.0
102
RTVSPost2010PropOp52
 70
     0
102
RTVSPost2010Prop53
 90
        2
102
RTVSPost2010PropOp53
 70
     1
102
RTVSPost2010Prop54
  1
strokes_ogs.tif
102
RTVSPost2010PropOp54
 70
     1
102
RTVSPost2010Prop55
280
     0
102
RTVSPost2010PropOp55
 70
     1
102
RTVSPost2010Prop56
140
1.0
102
RTVSPost2010PropOp56
 70
     1
102
RTVSPost2010Prop57
140
1.0
102
RTVSPost2010PropOp57
 70
     1
102
RTVSPropertyOp0
 70
     1
102
RTVSPropertyOp1
 70
     1
102
RTVSPropertyOp2
 70
     1
102
RTVSPropertyOp3
 70
     1
102
RTVSPropertyOp4
 70
     1
102
RTVSPropertyOp5
 70
     1
102
RTVSPropertyOp6
 70
     1
102
RTVSPropertyOp7
 70
     1
102
RTVSPropertyOp8
 70
     1
102
RTVSPropertyOp9
 70
     1
102
RTVSPropertyOp10
 70
     1
102
RTVSPropertyOp11
 70
     1
102
RTVSPropertyOp12
 70
     1
102
RTVSPropertyOp13
 70
     1
102
RTVSPropertyOp14
 70
     1
102
RTVSPropertyOp15
 70
     1
102
RTVSPropertyOp16
 70
     1
102
RTVSPropertyOp17
 70
     1
102
RTVSPropertyOp18
 70
     1
102
RTVSPropertyOp19
 70
     1
102
RTVSPropertyOp20
 70
     1
102
RTVSPropertyOp21
 70
     1
102
RTVSPropertyOp22
 70
     1
102
RTVSPropertyOp23
 70
     1
102
RTVSPropertyOp24
 70
     1
102
RTVSPropertyOp25
 70
     1
102
RTVSPropertyOp26
 70
     1
102
RTVSPropertyOp27
 70
     1
102
RTVSPropertyOp28
 70
     1
102
RTVSPropertyOp29
 70
     1
102
RTVSPropertyOp30
 70
     1
102
RTVSPropertyOp31
 70
     1
102
RTVSPropertyOp32
 70
     1
102
RTVSPropertyOp33
 70
     1
102
RTVSPropertyOp34
 70
     1
102
RTVSPropertyOp35
 70
     1
102
RTVSPropertyOp36
 70
     1
102
RTVSPropertyOp37
 70
     1
102
RTVSPropertyOp38
 70
     1
102
RTVSPropertyOp39
 70
     1
102
RTVSPropertyOp40
 70
     1
102
RTVSPropertyOp41
 70
     1
102
RTVSPropertyOp42
 70
     1
102
RTVSPropertyOp43
 70
     1
102
RTVSPropertyOp44
 70
     1
102
RTVSPropertyOp45
 70
     1
102
RTVSPropertyOp46
 70
     1
102
RTVSPropertyOp47
 70
     1
102
RTVSPropertyOp48
 70
     1
102
RTVSPropertyOp49
 70
     1
102
RTVSPropertyOp50
 70
     1
102
RTVSPropertyOp51
 70
     0
102
RTVSPropertyOp52
 70
     0
102
RTVSPropertyOp53
 70
     1
102
RTVSPropertyOp54
 70
     1
102
RTVSPropertyOp55
 70
     1
102
RTVSPropertyOp56
 70
     1
102
RTVSPropertyOp57
 70
     1
102
RTVSPropertyOp58
 70
     1
102
RTVSPropertyOp59
 70
     1
102
RTVSPropertyOp60
 70
     1
102
RTVSPropertyOp61
 70
     1
102
RTVSPropertyOp62
 70
     1
  0
XRECORD
  5
291D
102
{ACAD_REACTORS
330
291C
102
}
330
291C
100
AcDbXrecord
280
     1
102
RTVSPost2010Prop28
280
     0
102
RTVSPost2010PropOp28
 70
     1
102
RTVSPost2010Prop29
280
     1
102
RTVSPost2010PropOp29
 70
     1
102
RTVSPost2010Prop30
280
     1
102
RTVSPost2010PropOp30
 70
     1
102
RTVSPost2010Prop31
280
     0
102
RTVSPost2010PropOp31
 70
     1
102
RTVSPost2010Prop32
280
     0
102
RTVSPost2010PropOp32
 70
     1
102
RTVSPost2010Prop33
280
     0
102
RTVSPost2010PropOp33
 70
     1
102
RTVSPost2010Prop34
280
     0
102
RTVSPost2010PropOp34
 70
     1
102
RTVSPost2010Prop35
280
     0
102
RTVSPost2010PropOp35
 70
     1
102
RTVSPost2010Prop36
280
     0
102
RTVSPost2010PropOp36
 70
     1
102
RTVSPost2010Prop37
 90
       50
102
RTVSPost2010PropOp37
 70
     1
102
RTVSPost2010Prop38
140
0.0
102
RTVSPost2010PropOp38
 70
     1
102
RTVSPost2010Prop39
140
1.0
102
RTVSPost2010PropOp39
 70
     1
102
RTVSPost2010Prop40
 90
        0
102
RTVSPost2010PropOp40
 70
     1
102
RTVSPost2010Prop41ColorIndex
 90
       18
102
RTVSPost2010Prop41ColorRGB
 90
        0
102
RTVSPost2010PropOp41
 70
     1
102
RTVSPost2010Prop42
 90
       50
102
RTVSPost2010PropOp42
 70
     1
102
RTVSPost2010Prop43
 90
        3
102
RTVSPost2010PropOp43
 70
     1
102
RTVSPost2010Prop44ColorIndex
 90
        5
102
RTVSPost2010Prop44ColorRGB
 90
      255
102
RTVSPost2010PropOp44
 70
     1
102
RTVSPost2010Prop45
280
     0
102
RTVSPost2010PropOp45
 70
     1
102
RTVSPost2010Prop46
 90
       50
102
RTVSPost2010PropOp46
 70
     1
102
RTVSPost2010Prop47
 90
       50
102
RTVSPost2010PropOp47
 70
     1
102
RTVSPost2010Prop48
 90
       50
102
RTVSPost2010PropOp48
 70
     1
102
RTVSPost2010Prop49
280
     0
102
RTVSPost2010PropOp49
 70
     1
102
RTVSPost2010Prop50
 90
       50
102
RTVSPost2010PropOp50
 70
     1
102
RTVSPost2010Prop51ColorIndex
 90
      256
102
RTVSPost2010Prop51ColorRGB
 90
-16777216
102
RTVSPost2010PropOp51
 70
     0
102
RTVSPost2010Prop52
140
1.0
102
RTVSPost2010PropOp52
 70
     0
102
RTVSPost2010Prop53
 90
        2
102
RTVSPost2010PropOp53
 70
     1
102
RTVSPost2010Prop54
  1
strokes_ogs.tif
102
RTVSPost2010PropOp54
 70
     1
102
RTVSPost2010Prop55
280
     0
102
RTVSPost2010PropOp55
 70
     1
102
RTVSPost2010Prop56
140
1.0
102
RTVSPost2010PropOp56
 70
     1
102
RTVSPost2010Prop57
140
1.0
102
RTVSPost2010PropOp57
 70
     1
102
RTVSPropertyOp0
 70
     1
102
RTVSPropertyOp1
 70
     1
102
RTVSPropertyOp2
 70
     1
102
RTVSPropertyOp3
 70
     1
102
RTVSPropertyOp4
 70
     1
102
RTVSPropertyOp5
 70
     1
102
RTVSPropertyOp6
 70
     1
102
RTVSPropertyOp7
 70
     1
102
RTVSPropertyOp8
 70
     1
102
RTVSPropertyOp9
 70
     1
102
RTVSPropertyOp10
 70
     1
102
RTVSPropertyOp11
 70
     1
102
RTVSPropertyOp12
 70
     1
102
RTVSPropertyOp13
 70
     1
102
RTVSPropertyOp14
 70
     1
102
RTVSPropertyOp15
 70
     1
102
RTVSPropertyOp16
 70
     1
102
RTVSPropertyOp17
 70
     1
102
RTVSPropertyOp18
 70
     1
102
RTVSPropertyOp19
 70
     1
102
RTVSPropertyOp20
 70
     1
102
RTVSPropertyOp21
 70
     1
102
RTVSPropertyOp22
 70
     1
102
RTVSPropertyOp23
 70
     1
102
RTVSPropertyOp24
 70
     1
102
RTVSPropertyOp25
 70
     1
102
RTVSPropertyOp26
 70
     1
102
RTVSPropertyOp27
 70
     1
102
RTVSPropertyOp28
 70
     1
102
RTVSPropertyOp29
 70
     1
102
RTVSPropertyOp30
 70
     1
102
RTVSPropertyOp31
 70
     1
102
RTVSPropertyOp32
 70
     1
102
RTVSPropertyOp33
 70
     1
102
RTVSPropertyOp34
 70
     1
102
RTVSPropertyOp35
 70
     1
102
RTVSPropertyOp36
 70
     1
102
RTVSPropertyOp37
 70
     1
102
RTVSPropertyOp38
 70
     1
102
RTVSPropertyOp39
 70
     1
102
RTVSPropertyOp40
 70
     1
102
RTVSPropertyOp41
 70
     1
102
RTVSPropertyOp42
 70
     1
102
RTVSPropertyOp43
 70
     1
102
RTVSPropertyOp44
 70
     1
102
RTVSPropertyOp45
 70
     1
102
RTVSPropertyOp46
 70
     1
102
RTVSPropertyOp47
 70
     1
102
RTVSPropertyOp48
 70
     1
102
RTVSPropertyOp49
 70
     1
102
RTVSPropertyOp50
 70
     1
102
RTVSPropertyOp51
 70
     0
102
RTVSPropertyOp52
 70
     0
102
RTVSPropertyOp53
 70
     1
102
RTVSPropertyOp54
 70
     1
102
RTVSPropertyOp55
 70
     1
102
RTVSPropertyOp56
 70
     1
102
RTVSPropertyOp57
 70
     1
102
RTVSPropertyOp58
 70
     1
102
RTVSPropertyOp59
 70
     1
102
RTVSPropertyOp60
 70
     1
102
RTVSPropertyOp61
 70
     1
102
RTVSPropertyOp62
 70
     1
  0
XRECORD
  5
291B
102
{ACAD_REACTORS
330
291A
102
}
330
291A
100
AcDbXrecord
280
     1
102
RTVSPost2010Prop28
280
     0
102
RTVSPost2010PropOp28
 70
     1
102
RTVSPost2010Prop29
280
     1
102
RTVSPost2010PropOp29
 70
     1
102
RTVSPost2010Prop30
280
     1
102
RTVSPost2010PropOp30
 70
     1
102
RTVSPost2010Prop31
280
     0
102
RTVSPost2010PropOp31
 70
     1
102
RTVSPost2010Prop32
280
     0
102
RTVSPost2010PropOp32
 70
     1
102
RTVSPost2010Prop33
280
     0
102
RTVSPost2010PropOp33
 70
     1
102
RTVSPost2010Prop34
280
     0
102
RTVSPost2010PropOp34
 70
     1
102
RTVSPost2010Prop35
280
     0
102
RTVSPost2010PropOp35
 70
     1
102
RTVSPost2010Prop36
280
     0
102
RTVSPost2010PropOp36
 70
     1
102
RTVSPost2010Prop37
 90
       50
102
RTVSPost2010PropOp37
 70
     1
102
RTVSPost2010Prop38
140
0.0
102
RTVSPost2010PropOp38
 70
     1
102
RTVSPost2010Prop39
140
1.0
102
RTVSPost2010PropOp39
 70
     1
102
RTVSPost2010Prop40
 90
        0
102
RTVSPost2010PropOp40
 70
     1
102
RTVSPost2010Prop41ColorIndex
 90
       18
102
RTVSPost2010Prop41ColorRGB
 90
        0
102
RTVSPost2010PropOp41
 70
     1
102
RTVSPost2010Prop42
 90
       50
102
RTVSPost2010PropOp42
 70
     1
102
RTVSPost2010Prop43
 90
        3
102
RTVSPost2010PropOp43
 70
     1
102
RTVSPost2010Prop44ColorIndex
 90
        5
102
RTVSPost2010Prop44ColorRGB
 90
      255
102
RTVSPost2010PropOp44
 70
     1
102
RTVSPost2010Prop45
280
     0
102
RTVSPost2010PropOp45
 70
     1
102
RTVSPost2010Prop46
 90
       50
102
RTVSPost2010PropOp46
 70
     1
102
RTVSPost2010Prop47
 90
       50
102
RTVSPost2010PropOp47
 70
     1
102
RTVSPost2010Prop48
 90
       50
102
RTVSPost2010PropOp48
 70
     1
102
RTVSPost2010Prop49
280
     0
102
RTVSPost2010PropOp49
 70
     1
102
RTVSPost2010Prop50
 90
       50
102
RTVSPost2010PropOp50
 70
     1
102
RTVSPost2010Prop51ColorIndex
 90
      256
102
RTVSPost2010Prop51ColorRGB
 90
-16777216
102
RTVSPost2010PropOp51
 70
     0
102
RTVSPost2010Prop52
140
1.0
102
RTVSPost2010PropOp52
 70
     0
102
RTVSPost2010Prop53
 90
        2
102
RTVSPost2010PropOp53
 70
     1
102
RTVSPost2010Prop54
  1
strokes_ogs.tif
102
RTVSPost2010PropOp54
 70
     1
102
RTVSPost2010Prop55
280
     0
102
RTVSPost2010PropOp55
 70
     1
102
RTVSPost2010Prop56
140
1.0
102
RTVSPost2010PropOp56
 70
     1
102
RTVSPost2010Prop57
140
1.0
102
RTVSPost2010PropOp57
 70
     1
102
RTVSPropertyOp0
 70
     1
102
RTVSPropertyOp1
 70
     1
102
RTVSPropertyOp2
 70
     1
102
RTVSPropertyOp3
 70
     1
102
RTVSPropertyOp4
 70
     1
102
RTVSPropertyOp5
 70
     1
102
RTVSPropertyOp6
 70
     1
102
RTVSPropertyOp7
 70
     1
102
RTVSPropertyOp8
 70
     1
102
RTVSPropertyOp9
 70
     1
102
RTVSPropertyOp10
 70
     1
102
RTVSPropertyOp11
 70
     1
102
RTVSPropertyOp12
 70
     1
102
RTVSPropertyOp13
 70
     1
102
RTVSPropertyOp14
 70
     1
102
RTVSPropertyOp15
 70
     1
102
RTVSPropertyOp16
 70
     1
102
RTVSPropertyOp17
 70
     1
102
RTVSPropertyOp18
 70
     1
102
RTVSPropertyOp19
 70
     1
102
RTVSPropertyOp20
 70
     1
102
RTVSPropertyOp21
 70
     1
102
RTVSPropertyOp22
 70
     1
102
RTVSPropertyOp23
 70
     1
102
RTVSPropertyOp24
 70
     1
102
RTVSPropertyOp25
 70
     1
102
RTVSPropertyOp26
 70
     1
102
RTVSPropertyOp27
 70
     1
102
RTVSPropertyOp28
 70
     1
102
RTVSPropertyOp29
 70
     1
102
RTVSPropertyOp30
 70
     1
102
RTVSPropertyOp31
 70
     1
102
RTVSPropertyOp32
 70
     1
102
RTVSPropertyOp33
 70
     1
102
RTVSPropertyOp34
 70
     1
102
RTVSPropertyOp35
 70
     1
102
RTVSPropertyOp36
 70
     1
102
RTVSPropertyOp37
 70
     1
102
RTVSPropertyOp38
 70
     1
102
RTVSPropertyOp39
 70
     1
102
RTVSPropertyOp40
 70
     1
102
RTVSPropertyOp41
 70
     1
102
RTVSPropertyOp42
 70
     1
102
RTVSPropertyOp43
 70
     1
102
RTVSPropertyOp44
 70
     1
102
RTVSPropertyOp45
 70
     1
102
RTVSPropertyOp46
 70
     1
102
RTVSPropertyOp47
 70
     1
102
RTVSPropertyOp48
 70
     1
102
RTVSPropertyOp49
 70
     1
102
RTVSPropertyOp50
 70
     1
102
RTVSPropertyOp51
 70
     0
102
RTVSPropertyOp52
 70
     0
102
RTVSPropertyOp53
 70
     1
102
RTVSPropertyOp54
 70
     1
102
RTVSPropertyOp55
 70
     1
102
RTVSPropertyOp56
 70
     1
102
RTVSPropertyOp57
 70
     1
102
RTVSPropertyOp58
 70
     1
102
RTVSPropertyOp59
 70
     1
102
RTVSPropertyOp60
 70
     1
102
RTVSPropertyOp61
 70
     1
102
RTVSPropertyOp62
 70
     1
  0
XRECORD
  5
2915
102
{ACAD_REACTORS
330
2914
102
}
330
2914
100
AcDbXrecord
280
     1
102
RTVSPost2010Prop28
280
     0
102
RTVSPost2010PropOp28
 70
     1
102
RTVSPost2010Prop29
280
     1
102
RTVSPost2010PropOp29
 70
     1
102
RTVSPost2010Prop30
280
     1
102
RTVSPost2010PropOp30
 70
     1
102
RTVSPost2010Prop31
280
     0
102
RTVSPost2010PropOp31
 70
     1
102
RTVSPost2010Prop32
280
     0
102
RTVSPost2010PropOp32
 70
     1
102
RTVSPost2010Prop33
280
     0
102
RTVSPost2010PropOp33
 70
     1
102
RTVSPost2010Prop34
280
     0
102
RTVSPost2010PropOp34
 70
     1
102
RTVSPost2010Prop35
280
     0
102
RTVSPost2010PropOp35
 70
     1
102
RTVSPost2010Prop36
280
     0
102
RTVSPost2010PropOp36
 70
     1
102
RTVSPost2010Prop37
 90
       50
102
RTVSPost2010PropOp37
 70
     1
102
RTVSPost2010Prop38
140
0.0
102
RTVSPost2010PropOp38
 70
     1
102
RTVSPost2010Prop39
140
1.0
102
RTVSPost2010PropOp39
 70
     1
102
RTVSPost2010Prop40
 90
        0
102
RTVSPost2010PropOp40
 70
     1
102
RTVSPost2010Prop41ColorIndex
 90
       18
102
RTVSPost2010Prop41ColorRGB
 90
        0
102
RTVSPost2010PropOp41
 70
     1
102
RTVSPost2010Prop42
 90
       50
102
RTVSPost2010PropOp42
 70
     1
102
RTVSPost2010Prop43
 90
        3
102
RTVSPost2010PropOp43
 70
     1
102
RTVSPost2010Prop44ColorIndex
 90
        5
102
RTVSPost2010Prop44ColorRGB
 90
      255
102
RTVSPost2010PropOp44
 70
     1
102
RTVSPost2010Prop45
280
     0
102
RTVSPost2010PropOp45
 70
     1
102
RTVSPost2010Prop46
 90
       50
102
RTVSPost2010PropOp46
 70
     1
102
RTVSPost2010Prop47
 90
       50
102
RTVSPost2010PropOp47
 70
     1
102
RTVSPost2010Prop48
 90
       50
102
RTVSPost2010PropOp48
 70
     1
102
RTVSPost2010Prop49
280
     0
102
RTVSPost2010PropOp49
 70
     1
102
RTVSPost2010Prop50
 90
       50
102
RTVSPost2010PropOp50
 70
     1
102
RTVSPost2010Prop51ColorIndex
 90
      256
102
RTVSPost2010Prop51ColorRGB
 90
-16777216
102
RTVSPost2010PropOp51
 70
     0
102
RTVSPost2010Prop52
140
1.0
102
RTVSPost2010PropOp52
 70
     0
102
RTVSPost2010Prop53
 90
        2
102
RTVSPost2010PropOp53
 70
     1
102
RTVSPost2010Prop54
  1
strokes_ogs.tif
102
RTVSPost2010PropOp54
 70
     1
102
RTVSPost2010Prop55
280
     0
102
RTVSPost2010PropOp55
 70
     1
102
RTVSPost2010Prop56
140
1.0
102
RTVSPost2010PropOp56
 70
     1
102
RTVSPost2010Prop57
140
1.0
102
RTVSPost2010PropOp57
 70
     1
102
RTVSPropertyOp0
 70
     1
102
RTVSPropertyOp1
 70
     1
102
RTVSPropertyOp2
 70
     1
102
RTVSPropertyOp3
 70
     1
102
RTVSPropertyOp4
 70
     1
102
RTVSPropertyOp5
 70
     1
102
RTVSPropertyOp6
 70
     1
102
RTVSPropertyOp7
 70
     1
102
RTVSPropertyOp8
 70
     1
102
RTVSPropertyOp9
 70
     1
102
RTVSPropertyOp10
 70
     1
102
RTVSPropertyOp11
 70
     1
102
RTVSPropertyOp12
 70
     1
102
RTVSPropertyOp13
 70
     1
102
RTVSPropertyOp14
 70
     1
102
RTVSPropertyOp15
 70
     1
102
RTVSPropertyOp16
 70
     1
102
RTVSPropertyOp17
 70
     1
102
RTVSPropertyOp18
 70
     1
102
RTVSPropertyOp19
 70
     1
102
RTVSPropertyOp20
 70
     1
102
RTVSPropertyOp21
 70
     1
102
RTVSPropertyOp22
 70
     1
102
RTVSPropertyOp23
 70
     1
102
RTVSPropertyOp24
 70
     1
102
RTVSPropertyOp25
 70
     1
102
RTVSPropertyOp26
 70
     1
102
RTVSPropertyOp27
 70
     1
102
RTVSPropertyOp28
 70
     1
102
RTVSPropertyOp29
 70
     1
102
RTVSPropertyOp30
 70
     1
102
RTVSPropertyOp31
 70
     1
102
RTVSPropertyOp32
 70
     1
102
RTVSPropertyOp33
 70
     1
102
RTVSPropertyOp34
 70
     1
102
RTVSPropertyOp35
 70
     1
102
RTVSPropertyOp36
 70
     1
102
RTVSPropertyOp37
 70
     1
102
RTVSPropertyOp38
 70
     1
102
RTVSPropertyOp39
 70
     1
102
RTVSPropertyOp40
 70
     1
102
RTVSPropertyOp41
 70
     1
102
RTVSPropertyOp42
 70
     1
102
RTVSPropertyOp43
 70
     1
102
RTVSPropertyOp44
 70
     1
102
RTVSPropertyOp45
 70
     1
102
RTVSPropertyOp46
 70
     1
102
RTVSPropertyOp47
 70
     1
102
RTVSPropertyOp48
 70
     1
102
RTVSPropertyOp49
 70
     1
102
RTVSPropertyOp50
 70
     1
102
RTVSPropertyOp51
 70
     0
102
RTVSPropertyOp52
 70
     0
102
RTVSPropertyOp53
 70
     1
102
RTVSPropertyOp54
 70
     1
102
RTVSPropertyOp55
 70
     1
102
RTVSPropertyOp56
 70
     1
102
RTVSPropertyOp57
 70
     1
102
RTVSPropertyOp58
 70
     1
102
RTVSPropertyOp59
 70
     1
102
RTVSPropertyOp60
 70
     1
102
RTVSPropertyOp61
 70
     1
102
RTVSPropertyOp62
 70
     1
  0
XRECORD
  5
2917
102
{ACAD_REACTORS
330
2916
102
}
330
2916
100
AcDbXrecord
280
     1
102
RTVSPost2010Prop28
280
     0
102
RTVSPost2010PropOp28
 70
     1
102
RTVSPost2010Prop29
280
     1
102
RTVSPost2010PropOp29
 70
     1
102
RTVSPost2010Prop30
280
     1
102
RTVSPost2010PropOp30
 70
     1
102
RTVSPost2010Prop31
280
     0
102
RTVSPost2010PropOp31
 70
     1
102
RTVSPost2010Prop32
280
     0
102
RTVSPost2010PropOp32
 70
     1
102
RTVSPost2010Prop33
280
     0
102
RTVSPost2010PropOp33
 70
     1
102
RTVSPost2010Prop34
280
     0
102
RTVSPost2010PropOp34
 70
     1
102
RTVSPost2010Prop35
280
     0
102
RTVSPost2010PropOp35
 70
     1
102
RTVSPost2010Prop36
280
     0
102
RTVSPost2010PropOp36
 70
     1
102
RTVSPost2010Prop37
 90
       50
102
RTVSPost2010PropOp37
 70
     1
102
RTVSPost2010Prop38
140
0.0
102
RTVSPost2010PropOp38
 70
     1
102
RTVSPost2010Prop39
140
1.0
102
RTVSPost2010PropOp39
 70
     1
102
RTVSPost2010Prop40
 90
        0
102
RTVSPost2010PropOp40
 70
     1
102
RTVSPost2010Prop41ColorIndex
 90
       18
102
RTVSPost2010Prop41ColorRGB
 90
        0
102
RTVSPost2010PropOp41
 70
     1
102
RTVSPost2010Prop42
 90
       50
102
RTVSPost2010PropOp42
 70
     1
102
RTVSPost2010Prop43
 90
        3
102
RTVSPost2010PropOp43
 70
     1
102
RTVSPost2010Prop44ColorIndex
 90
        5
102
RTVSPost2010Prop44ColorRGB
 90
      255
102
RTVSPost2010PropOp44
 70
     1
102
RTVSPost2010Prop45
280
     0
102
RTVSPost2010PropOp45
 70
     1
102
RTVSPost2010Prop46
 90
       50
102
RTVSPost2010PropOp46
 70
     1
102
RTVSPost2010Prop47
 90
       50
102
RTVSPost2010PropOp47
 70
     1
102
RTVSPost2010Prop48
 90
       50
102
RTVSPost2010PropOp48
 70
     1
102
RTVSPost2010Prop49
280
     0
102
RTVSPost2010PropOp49
 70
     1
102
RTVSPost2010Prop50
 90
       50
102
RTVSPost2010PropOp50
 70
     1
102
RTVSPost2010Prop51ColorIndex
 90
      256
102
RTVSPost2010Prop51ColorRGB
 90
-16777216
102
RTVSPost2010PropOp51
 70
     0
102
RTVSPost2010Prop52
140
1.0
102
RTVSPost2010PropOp52
 70
     0
102
RTVSPost2010Prop53
 90
        2
102
RTVSPost2010PropOp53
 70
     1
102
RTVSPost2010Prop54
  1
strokes_ogs.tif
102
RTVSPost2010PropOp54
 70
     1
102
RTVSPost2010Prop55
280
     0
102
RTVSPost2010PropOp55
 70
     1
102
RTVSPost2010Prop56
140
1.0
102
RTVSPost2010PropOp56
 70
     1
102
RTVSPost2010Prop57
140
1.0
102
RTVSPost2010PropOp57
 70
     1
102
RTVSPropertyOp0
 70
     1
102
RTVSPropertyOp1
 70
     1
102
RTVSPropertyOp2
 70
     1
102
RTVSPropertyOp3
 70
     1
102
RTVSPropertyOp4
 70
     1
102
RTVSPropertyOp5
 70
     1
102
RTVSPropertyOp6
 70
     1
102
RTVSPropertyOp7
 70
     1
102
RTVSPropertyOp8
 70
     1
102
RTVSPropertyOp9
 70
     1
102
RTVSPropertyOp10
 70
     1
102
RTVSPropertyOp11
 70
     1
102
RTVSPropertyOp12
 70
     1
102
RTVSPropertyOp13
 70
     1
102
RTVSPropertyOp14
 70
     1
102
RTVSPropertyOp15
 70
     1
102
RTVSPropertyOp16
 70
     1
102
RTVSPropertyOp17
 70
     1
102
RTVSPropertyOp18
 70
     1
102
RTVSPropertyOp19
 70
     1
102
RTVSPropertyOp20
 70
     1
102
RTVSPropertyOp21
 70
     1
102
RTVSPropertyOp22
 70
     1
102
RTVSPropertyOp23
 70
     1
102
RTVSPropertyOp24
 70
     1
102
RTVSPropertyOp25
 70
     1
102
RTVSPropertyOp26
 70
     1
102
RTVSPropertyOp27
 70
     1
102
RTVSPropertyOp28
 70
     1
102
RTVSPropertyOp29
 70
     1
102
RTVSPropertyOp30
 70
     1
102
RTVSPropertyOp31
 70
     1
102
RTVSPropertyOp32
 70
     1
102
RTVSPropertyOp33
 70
     1
102
RTVSPropertyOp34
 70
     1
102
RTVSPropertyOp35
 70
     1
102
RTVSPropertyOp36
 70
     1
102
RTVSPropertyOp37
 70
     1
102
RTVSPropertyOp38
 70
     1
102
RTVSPropertyOp39
 70
     1
102
RTVSPropertyOp40
 70
     1
102
RTVSPropertyOp41
 70
     1
102
RTVSPropertyOp42
 70
     1
102
RTVSPropertyOp43
 70
     1
102
RTVSPropertyOp44
 70
     1
102
RTVSPropertyOp45
 70
     1
102
RTVSPropertyOp46
 70
     1
102
RTVSPropertyOp47
 70
     1
102
RTVSPropertyOp48
 70
     1
102
RTVSPropertyOp49
 70
     1
102
RTVSPropertyOp50
 70
     1
102
RTVSPropertyOp51
 70
     0
102
RTVSPropertyOp52
 70
     0
102
RTVSPropertyOp53
 70
     1
102
RTVSPropertyOp54
 70
     1
102
RTVSPropertyOp55
 70
     1
102
RTVSPropertyOp56
 70
     1
102
RTVSPropertyOp57
 70
     1
102
RTVSPropertyOp58
 70
     1
102
RTVSPropertyOp59
 70
     1
102
RTVSPropertyOp60
 70
     1
102
RTVSPropertyOp61
 70
     1
102
RTVSPropertyOp62
 70
     1
  0
XRECORD
  5
2905
102
{ACAD_REACTORS
330
2904
102
}
330
2904
100
AcDbXrecord
280
     1
102
RTVSPost2010Prop28
280
     0
102
RTVSPost2010PropOp28
 70
     1
102
RTVSPost2010Prop29
280
     1
102
RTVSPost2010PropOp29
 70
     1
102
RTVSPost2010Prop30
280
     1
102
RTVSPost2010PropOp30
 70
     1
102
RTVSPost2010Prop31
280
     0
102
RTVSPost2010PropOp31
 70
     1
102
RTVSPost2010Prop32
280
     0
102
RTVSPost2010PropOp32
 70
     1
102
RTVSPost2010Prop33
280
     0
102
RTVSPost2010PropOp33
 70
     1
102
RTVSPost2010Prop34
280
     0
102
RTVSPost2010PropOp34
 70
     1
102
RTVSPost2010Prop35
280
     0
102
RTVSPost2010PropOp35
 70
     1
102
RTVSPost2010Prop36
280
     0
102
RTVSPost2010PropOp36
 70
     1
102
RTVSPost2010Prop37
 90
       50
102
RTVSPost2010PropOp37
 70
     1
102
RTVSPost2010Prop38
140
0.0
102
RTVSPost2010PropOp38
 70
     1
102
RTVSPost2010Prop39
140
1.0
102
RTVSPost2010PropOp39
 70
     1
102
RTVSPost2010Prop40
 90
        0
102
RTVSPost2010PropOp40
 70
     1
102
RTVSPost2010Prop41ColorIndex
 90
       18
102
RTVSPost2010Prop41ColorRGB
 90
        0
102
RTVSPost2010PropOp41
 70
     1
102
RTVSPost2010Prop42
 90
       50
102
RTVSPost2010PropOp42
 70
     1
102
RTVSPost2010Prop43
 90
        3
102
RTVSPost2010PropOp43
 70
     1
102
RTVSPost2010Prop44ColorIndex
 90
        5
102
RTVSPost2010Prop44ColorRGB
 90
      255
102
RTVSPost2010PropOp44
 70
     1
102
RTVSPost2010Prop45
280
     0
102
RTVSPost2010PropOp45
 70
     1
102
RTVSPost2010Prop46
 90
       50
102
RTVSPost2010PropOp46
 70
     1
102
RTVSPost2010Prop47
 90
       50
102
RTVSPost2010PropOp47
 70
     1
102
RTVSPost2010Prop48
 90
       50
102
RTVSPost2010PropOp48
 70
     1
102
RTVSPost2010Prop49
280
     0
102
RTVSPost2010PropOp49
 70
     1
102
RTVSPost2010Prop50
 90
       50
102
RTVSPost2010PropOp50
 70
     1
102
RTVSPost2010Prop51ColorIndex
 90
      256
102
RTVSPost2010Prop51ColorRGB
 90
-16777216
102
RTVSPost2010PropOp51
 70
     0
102
RTVSPost2010Prop52
140
1.0
102
RTVSPost2010PropOp52
 70
     0
102
RTVSPost2010Prop53
 90
        2
102
RTVSPost2010PropOp53
 70
     1
102
RTVSPost2010Prop54
  1
strokes_ogs.tif
102
RTVSPost2010PropOp54
 70
     1
102
RTVSPost2010Prop55
280
     0
102
RTVSPost2010PropOp55
 70
     1
102
RTVSPost2010Prop56
140
1.0
102
RTVSPost2010PropOp56
 70
     1
102
RTVSPost2010Prop57
140
1.0
102
RTVSPost2010PropOp57
 70
     1
102
RTVSPropertyOp0
 70
     1
102
RTVSPropertyOp1
 70
     1
102
RTVSPropertyOp2
 70
     1
102
RTVSPropertyOp3
 70
     1
102
RTVSPropertyOp4
 70
     1
102
RTVSPropertyOp5
 70
     1
102
RTVSPropertyOp6
 70
     1
102
RTVSPropertyOp7
 70
     1
102
RTVSPropertyOp8
 70
     1
102
RTVSPropertyOp9
 70
     1
102
RTVSPropertyOp10
 70
     1
102
RTVSPropertyOp11
 70
     1
102
RTVSPropertyOp12
 70
     1
102
RTVSPropertyOp13
 70
     1
102
RTVSPropertyOp14
 70
     1
102
RTVSPropertyOp15
 70
     1
102
RTVSPropertyOp16
 70
     1
102
RTVSPropertyOp17
 70
     1
102
RTVSPropertyOp18
 70
     1
102
RTVSPropertyOp19
 70
     1
102
RTVSPropertyOp20
 70
     1
102
RTVSPropertyOp21
 70
     1
102
RTVSPropertyOp22
 70
     1
102
RTVSPropertyOp23
 70
     1
102
RTVSPropertyOp24
 70
     1
102
RTVSPropertyOp25
 70
     1
102
RTVSPropertyOp26
 70
     1
102
RTVSPropertyOp27
 70
     1
102
RTVSPropertyOp28
 70
     1
102
RTVSPropertyOp29
 70
     1
102
RTVSPropertyOp30
 70
     1
102
RTVSPropertyOp31
 70
     1
102
RTVSPropertyOp32
 70
     1
102
RTVSPropertyOp33
 70
     1
102
RTVSPropertyOp34
 70
     1
102
RTVSPropertyOp35
 70
     1
102
RTVSPropertyOp36
 70
     1
102
RTVSPropertyOp37
 70
     1
102
RTVSPropertyOp38
 70
     1
102
RTVSPropertyOp39
 70
     1
102
RTVSPropertyOp40
 70
     1
102
RTVSPropertyOp41
 70
     1
102
RTVSPropertyOp42
 70
     1
102
RTVSPropertyOp43
 70
     1
102
RTVSPropertyOp44
 70
     1
102
RTVSPropertyOp45
 70
     1
102
RTVSPropertyOp46
 70
     1
102
RTVSPropertyOp47
 70
     1
102
RTVSPropertyOp48
 70
     1
102
RTVSPropertyOp49
 70
     1
102
RTVSPropertyOp50
 70
     1
102
RTVSPropertyOp51
 70
     0
102
RTVSPropertyOp52
 70
     0
102
RTVSPropertyOp53
 70
     1
102
RTVSPropertyOp54
 70
     1
102
RTVSPropertyOp55
 70
     1
102
RTVSPropertyOp56
 70
     1
102
RTVSPropertyOp57
 70
     1
102
RTVSPropertyOp58
 70
     1
102
RTVSPropertyOp59
 70
     1
102
RTVSPropertyOp60
 70
     1
102
RTVSPropertyOp61
 70
     1
102
RTVSPropertyOp62
 70
     1
  0
XRECORD
  5
28F9
102
{ACAD_REACTORS
330
28F8
102
}
330
28F8
100
AcDbXrecord
280
     1
102
RTVSPost2010Prop28
280
     0
102
RTVSPost2010PropOp28
 70
     1
102
RTVSPost2010Prop29
280
     1
102
RTVSPost2010PropOp29
 70
     1
102
RTVSPost2010Prop30
280
     1
102
RTVSPost2010PropOp30
 70
     1
102
RTVSPost2010Prop31
280
     0
102
RTVSPost2010PropOp31
 70
     1
102
RTVSPost2010Prop32
280
     0
102
RTVSPost2010PropOp32
 70
     1
102
RTVSPost2010Prop33
280
     0
102
RTVSPost2010PropOp33
 70
     1
102
RTVSPost2010Prop34
280
     0
102
RTVSPost2010PropOp34
 70
     1
102
RTVSPost2010Prop35
280
     0
102
RTVSPost2010PropOp35
 70
     1
102
RTVSPost2010Prop36
280
     0
102
RTVSPost2010PropOp36
 70
     1
102
RTVSPost2010Prop37
 90
       50
102
RTVSPost2010PropOp37
 70
     1
102
RTVSPost2010Prop38
140
0.0
102
RTVSPost2010PropOp38
 70
     1
102
RTVSPost2010Prop39
140
1.0
102
RTVSPost2010PropOp39
 70
     1
102
RTVSPost2010Prop40
 90
        0
102
RTVSPost2010PropOp40
 70
     1
102
RTVSPost2010Prop41ColorIndex
 90
       18
102
RTVSPost2010Prop41ColorRGB
 90
        0
102
RTVSPost2010PropOp41
 70
     1
102
RTVSPost2010Prop42
 90
       50
102
RTVSPost2010PropOp42
 70
     1
102
RTVSPost2010Prop43
 90
        3
102
RTVSPost2010PropOp43
 70
     1
102
RTVSPost2010Prop44ColorIndex
 90
        5
102
RTVSPost2010Prop44ColorRGB
 90
      255
102
RTVSPost2010PropOp44
 70
     1
102
RTVSPost2010Prop45
280
     0
102
RTVSPost2010PropOp45
 70
     1
102
RTVSPost2010Prop46
 90
       50
102
RTVSPost2010PropOp46
 70
     1
102
RTVSPost2010Prop47
 90
       50
102
RTVSPost2010PropOp47
 70
     1
102
RTVSPost2010Prop48
 90
       50
102
RTVSPost2010PropOp48
 70
     1
102
RTVSPost2010Prop49
280
     0
102
RTVSPost2010PropOp49
 70
     1
102
RTVSPost2010Prop50
 90
       50
102
RTVSPost2010PropOp50
 70
     1
102
RTVSPost2010Prop51ColorIndex
 90
      256
102
RTVSPost2010Prop51ColorRGB
 90
-16777216
102
RTVSPost2010PropOp51
 70
     0
102
RTVSPost2010Prop52
140
1.0
102
RTVSPost2010PropOp52
 70
     0
102
RTVSPost2010Prop53
 90
        2
102
RTVSPost2010PropOp53
 70
     1
102
RTVSPost2010Prop54
  1
strokes_ogs.tif
102
RTVSPost2010PropOp54
 70
     1
102
RTVSPost2010Prop55
280
     0
102
RTVSPost2010PropOp55
 70
     1
102
RTVSPost2010Prop56
140
1.0
102
RTVSPost2010PropOp56
 70
     1
102
RTVSPost2010Prop57
140
1.0
102
RTVSPost2010PropOp57
 70
     1
102
RTVSPropertyOp0
 70
     1
102
RTVSPropertyOp1
 70
     1
102
RTVSPropertyOp2
 70
     1
102
RTVSPropertyOp3
 70
     1
102
RTVSPropertyOp4
 70
     1
102
RTVSPropertyOp5
 70
     1
102
RTVSPropertyOp6
 70
     1
102
RTVSPropertyOp7
 70
     1
102
RTVSPropertyOp8
 70
     1
102
RTVSPropertyOp9
 70
     1
102
RTVSPropertyOp10
 70
     1
102
RTVSPropertyOp11
 70
     1
102
RTVSPropertyOp12
 70
     1
102
RTVSPropertyOp13
 70
     1
102
RTVSPropertyOp14
 70
     1
102
RTVSPropertyOp15
 70
     1
102
RTVSPropertyOp16
 70
     1
102
RTVSPropertyOp17
 70
     1
102
RTVSPropertyOp18
 70
     1
102
RTVSPropertyOp19
 70
     1
102
RTVSPropertyOp20
 70
     1
102
RTVSPropertyOp21
 70
     1
102
RTVSPropertyOp22
 70
     1
102
RTVSPropertyOp23
 70
     1
102
RTVSPropertyOp24
 70
     1
102
RTVSPropertyOp25
 70
     1
102
RTVSPropertyOp26
 70
     1
102
RTVSPropertyOp27
 70
     1
102
RTVSPropertyOp28
 70
     1
102
RTVSPropertyOp29
 70
     1
102
RTVSPropertyOp30
 70
     1
102
RTVSPropertyOp31
 70
     1
102
RTVSPropertyOp32
 70
     1
102
RTVSPropertyOp33
 70
     1
102
RTVSPropertyOp34
 70
     1
102
RTVSPropertyOp35
 70
     1
102
RTVSPropertyOp36
 70
     1
102
RTVSPropertyOp37
 70
     1
102
RTVSPropertyOp38
 70
     1
102
RTVSPropertyOp39
 70
     1
102
RTVSPropertyOp40
 70
     1
102
RTVSPropertyOp41
 70
     1
102
RTVSPropertyOp42
 70
     1
102
RTVSPropertyOp43
 70
     1
102
RTVSPropertyOp44
 70
     1
102
RTVSPropertyOp45
 70
     1
102
RTVSPropertyOp46
 70
     1
102
RTVSPropertyOp47
 70
     1
102
RTVSPropertyOp48
 70
     1
102
RTVSPropertyOp49
 70
     1
102
RTVSPropertyOp50
 70
     1
102
RTVSPropertyOp51
 70
     0
102
RTVSPropertyOp52
 70
     0
102
RTVSPropertyOp53
 70
     1
102
RTVSPropertyOp54
 70
     1
102
RTVSPropertyOp55
 70
     1
102
RTVSPropertyOp56
 70
     1
102
RTVSPropertyOp57
 70
     1
102
RTVSPropertyOp58
 70
     1
102
RTVSPropertyOp59
 70
     1
102
RTVSPropertyOp60
 70
     1
102
RTVSPropertyOp61
 70
     1
102
RTVSPropertyOp62
 70
     1
  0
XRECORD
  5
2919
102
{ACAD_REACTORS
330
2918
102
}
330
2918
100
AcDbXrecord
280
     1
102
RTVSPost2010Prop28
280
     0
102
RTVSPost2010PropOp28
 70
     1
102
RTVSPost2010Prop29
280
     1
102
RTVSPost2010PropOp29
 70
     1
102
RTVSPost2010Prop30
280
     1
102
RTVSPost2010PropOp30
 70
     1
102
RTVSPost2010Prop31
280
     0
102
RTVSPost2010PropOp31
 70
     1
102
RTVSPost2010Prop32
280
     0
102
RTVSPost2010PropOp32
 70
     1
102
RTVSPost2010Prop33
280
     0
102
RTVSPost2010PropOp33
 70
     1
102
RTVSPost2010Prop34
280
     0
102
RTVSPost2010PropOp34
 70
     1
102
RTVSPost2010Prop35
280
     0
102
RTVSPost2010PropOp35
 70
     1
102
RTVSPost2010Prop36
280
     0
102
RTVSPost2010PropOp36
 70
     1
102
RTVSPost2010Prop37
 90
       50
102
RTVSPost2010PropOp37
 70
     1
102
RTVSPost2010Prop38
140
0.0
102
RTVSPost2010PropOp38
 70
     1
102
RTVSPost2010Prop39
140
1.0
102
RTVSPost2010PropOp39
 70
     1
102
RTVSPost2010Prop40
 90
        0
102
RTVSPost2010PropOp40
 70
     1
102
RTVSPost2010Prop41ColorIndex
 90
       18
102
RTVSPost2010Prop41ColorRGB
 90
        0
102
RTVSPost2010PropOp41
 70
     1
102
RTVSPost2010Prop42
 90
       50
102
RTVSPost2010PropOp42
 70
     1
102
RTVSPost2010Prop43
 90
        3
102
RTVSPost2010PropOp43
 70
     1
102
RTVSPost2010Prop44ColorIndex
 90
        5
102
RTVSPost2010Prop44ColorRGB
 90
      255
102
RTVSPost2010PropOp44
 70
     1
102
RTVSPost2010Prop45
280
     0
102
RTVSPost2010PropOp45
 70
     1
102
RTVSPost2010Prop46
 90
       50
102
RTVSPost2010PropOp46
 70
     1
102
RTVSPost2010Prop47
 90
       50
102
RTVSPost2010PropOp47
 70
     1
102
RTVSPost2010Prop48
 90
       50
102
RTVSPost2010PropOp48
 70
     1
102
RTVSPost2010Prop49
280
     0
102
RTVSPost2010PropOp49
 70
     1
102
RTVSPost2010Prop50
 90
       50
102
RTVSPost2010PropOp50
 70
     1
102
RTVSPost2010Prop51ColorIndex
 90
      256
102
RTVSPost2010Prop51ColorRGB
 90
-16777216
102
RTVSPost2010PropOp51
 70
     0
102
RTVSPost2010Prop52
140
1.0
102
RTVSPost2010PropOp52
 70
     0
102
RTVSPost2010Prop53
 90
        2
102
RTVSPost2010PropOp53
 70
     1
102
RTVSPost2010Prop54
  1
strokes_ogs.tif
102
RTVSPost2010PropOp54
 70
     1
102
RTVSPost2010Prop55
280
     0
102
RTVSPost2010PropOp55
 70
     1
102
RTVSPost2010Prop56
140
1.0
102
RTVSPost2010PropOp56
 70
     1
102
RTVSPost2010Prop57
140
1.0
102
RTVSPost2010PropOp57
 70
     1
102
RTVSPropertyOp0
 70
     1
102
RTVSPropertyOp1
 70
     1
102
RTVSPropertyOp2
 70
     1
102
RTVSPropertyOp3
 70
     1
102
RTVSPropertyOp4
 70
     1
102
RTVSPropertyOp5
 70
     1
102
RTVSPropertyOp6
 70
     1
102
RTVSPropertyOp7
 70
     1
102
RTVSPropertyOp8
 70
     1
102
RTVSPropertyOp9
 70
     1
102
RTVSPropertyOp10
 70
     1
102
RTVSPropertyOp11
 70
     1
102
RTVSPropertyOp12
 70
     1
102
RTVSPropertyOp13
 70
     1
102
RTVSPropertyOp14
 70
     1
102
RTVSPropertyOp15
 70
     1
102
RTVSPropertyOp16
 70
     1
102
RTVSPropertyOp17
 70
     1
102
RTVSPropertyOp18
 70
     1
102
RTVSPropertyOp19
 70
     1
102
RTVSPropertyOp20
 70
     1
102
RTVSPropertyOp21
 70
     1
102
RTVSPropertyOp22
 70
     1
102
RTVSPropertyOp23
 70
     1
102
RTVSPropertyOp24
 70
     1
102
RTVSPropertyOp25
 70
     1
102
RTVSPropertyOp26
 70
     1
102
RTVSPropertyOp27
 70
     1
102
RTVSPropertyOp28
 70
     1
102
RTVSPropertyOp29
 70
     1
102
RTVSPropertyOp30
 70
     1
102
RTVSPropertyOp31
 70
     1
102
RTVSPropertyOp32
 70
     1
102
RTVSPropertyOp33
 70
     1
102
RTVSPropertyOp34
 70
     1
102
RTVSPropertyOp35
 70
     1
102
RTVSPropertyOp36
 70
     1
102
RTVSPropertyOp37
 70
     1
102
RTVSPropertyOp38
 70
     1
102
RTVSPropertyOp39
 70
     1
102
RTVSPropertyOp40
 70
     1
102
RTVSPropertyOp41
 70
     1
102
RTVSPropertyOp42
 70
     1
102
RTVSPropertyOp43
 70
     1
102
RTVSPropertyOp44
 70
     1
102
RTVSPropertyOp45
 70
     1
102
RTVSPropertyOp46
 70
     1
102
RTVSPropertyOp47
 70
     1
102
RTVSPropertyOp48
 70
     1
102
RTVSPropertyOp49
 70
     1
102
RTVSPropertyOp50
 70
     1
102
RTVSPropertyOp51
 70
     0
102
RTVSPropertyOp52
 70
     0
102
RTVSPropertyOp53
 70
     1
102
RTVSPropertyOp54
 70
     1
102
RTVSPropertyOp55
 70
     1
102
RTVSPropertyOp56
 70
     1
102
RTVSPropertyOp57
 70
     1
102
RTVSPropertyOp58
 70
     1
102
RTVSPropertyOp59
 70
     1
102
RTVSPropertyOp60
 70
     1
102
RTVSPropertyOp61
 70
     1
102
RTVSPropertyOp62
 70
     1
  0
ENDSEC
  0
EOF
