  0
SECTION
  2
HEADER
  9
$ACADVER
  1
AC1015
  9
$ACADMAINTVER
 70
    18
  9
$DWGCODEPAGE
  3
ANSI_1252
  9
$INSBASE
 10
0.0
 20
0.0
 30
0.0
  9
$EXTMIN
 10
-245.9783928631554
 20
-316.4462124454396
 30
-0.0015258207003583
  9
$EXTMAX
 10
335.1297005861179
 20
334.464890261489
 30
0.0000000349246037
  9
$LIMMIN
 10
0.0
 20
0.0
  9
$LIMMAX
 10
420.0
 20
297.0
  9
$ORTHOMODE
 70
     0
  9
$REGENMODE
 70
     1
  9
$FILLMODE
 70
     1
  9
$QTEXTMODE
 70
     0
  9
$MIRRTEXT
 70
     0
  9
$LTSCALE
 40
1.0
  9
$ATTMODE
 70
     1
  9
$TEXTSIZE
 40
2.5
  9
$TRACEWID
 40
1.0
  9
$TEXTSTYLE
  7
Standard
  9
$CLAYER
  8
0
  9
$CELTYPE
  6
ByLayer
  9
$CECOLOR
 62
   256
  9
$CELTSCALE
 40
1.0
  9
$DISPSILH
 70
     0
  9
$DIMSCALE
 40
1.0
  9
$DIMASZ
 40
2.5
  9
$DIMEXO
 40
0.625
  9
$DIMDLI
 40
3.75
  9
$DIMRND
 40
0.0
  9
$DIMDLE
 40
0.0
  9
$DIMEXE
 40
1.25
  9
$DIMTP
 40
0.0
  9
$DIMTM
 40
0.0
  9
$DIMTXT
 40
2.5
  9
$DIMCEN
 40
2.5
  9
$DIMTSZ
 40
0.0
  9
$DIMTOL
 70
     0
  9
$DIMLIM
 70
     0
  9
$DIMTIH
 70
     0
  9
$DIMTOH
 70
     0
  9
$DIMSE1
 70
     0
  9
$DIMSE2
 70
     0
  9
$DIMTAD
 70
     1
  9
$DIMZIN
 70
     8
  9
$DIMBLK
  1

  9
$DIMASO
 70
     1
  9
$DIMSHO
 70
     1
  9
$DIMPOST
  1

  9
$DIMAPOST
  1

  9
$DIMALT
 70
     0
  9
$DIMALTD
 70
     3
  9
$DIMALTF
 40
0.03937007874016
  9
$DIMLFAC
 40
1.0
  9
$DIMTOFL
 70
     1
  9
$DIMTVP
 40
0.0
  9
$DIMTIX
 70
     0
  9
$DIMSOXD
 70
     0
  9
$DIMSAH
 70
     0
  9
$DIMBLK1
  1

  9
$DIMBLK2
  1

  9
$DIMSTYLE
  2
ISO-25
  9
$DIMCLRD
 70
     0
  9
$DIMCLRE
 70
     0
  9
$DIMCLRT
 70
     0
  9
$DIMTFAC
 40
1.0
  9
$DIMGAP
 40
0.625
  9
$DIMJUST
 70
     0
  9
$DIMSD1
 70
     0
  9
$DIMSD2
 70
     0
  9
$DIMTOLJ
 70
     0
  9
$DIMTZIN
 70
     8
  9
$DIMALTZ
 70
     0
  9
$DIMALTTZ
 70
     0
  9
$DIMUPT
 70
     0
  9
$DIMDEC
 70
     2
  9
$DIMTDEC
 70
     2
  9
$DIMALTU
 70
     2
  9
$DIMALTTD
 70
     3
  9
$DIMTXSTY
  7
Standard
  9
$DIMAUNIT
 70
     0
  9
$DIMADEC
 70
     0
  9
$DIMALTRND
 40
0.0
  9
$DIMAZIN
 70
     0
  9
$DIMDSEP
 70
    44
  9
$DIMATFIT
 70
     3
  9
$DIMFRAC
 70
     0
  9
$DIMLDRBLK
  1

  9
$DIMLUNIT
 70
     2
  9
$DIMLWD
 70
    -2
  9
$DIMLWE
 70
    -2
  9
$DIMTMOVE
 70
     0
  9
$LUNITS
 70
     2
  9
$LUPREC
 70
     4
  9
$SKETCHINC
 40
1.0
  9
$FILLETRAD
 40
0.0
  9
$AUNITS
 70
     0
  9
$AUPREC
 70
     0
  9
$MENU
  1
.
  9
$ELEVATION
 40
0.0
  9
$PELEVATION
 40
0.0
  9
$THICKNESS
 40
0.0
  9
$LIMCHECK
 70
     0
  9
$CHAMFERA
 40
0.0
  9
$CHAMFERB
 40
0.0
  9
$CHAMFERC
 40
0.0
  9
$CHAMFERD
 40
0.0
  9
$SKPOLY
 70
     0
  9
$TDCREATE
 40
2460312.614849537
  9
$TDUCREATE
 40
2460312.323182870
  9
$TDUPDATE
 40
2460312.639594908
  9
$TDUUPDATE
 40
2460312.347928241
  9
$TDINDWG
 40
0.0084143519
  9
$TDUSRTIMER
 40
0.0084143519
  9
$USRTIMER
 70
     1
  9
$ANGBASE
 50
0.0
  9
$ANGDIR
 70
     0
  9
$PDMODE
 70
     0
  9
$PDSIZE
 40
0.0
  9
$PLINEWID
 40
0.0
  9
$SPLFRAME
 70
     0
  9
$SPLINETYPE
 70
     6
  9
$SPLINESEGS
 70
     8
  9
$HANDSEED
  5
19F30
  9
$SURFTAB1
 70
     6
  9
$SURFTAB2
 70
     6
  9
$SURFTYPE
 70
     6
  9
$SURFU
 70
     6
  9
$SURFV
 70
     6
  9
$UCSBASE
  2

  9
$UCSNAME
  2

  9
$UCSORG
 10
0.0
 20
0.0
 30
0.0
  9
$UCSXDIR
 10
1.0
 20
0.0
 30
0.0
  9
$UCSYDIR
 10
0.0
 20
1.0
 30
0.0
  9
$UCSORTHOREF
  2

  9
$UCSORTHOVIEW
 70
     0
  9
$UCSORGTOP
 10
0.0
 20
0.0
 30
0.0
  9
$UCSORGBOTTOM
 10
0.0
 20
0.0
 30
0.0
  9
$UCSORGLEFT
 10
0.0
 20
0.0
 30
0.0
  9
$UCSORGRIGHT
 10
0.0
 20
0.0
 30
0.0
  9
$UCSORGFRONT
 10
0.0
 20
0.0
 30
0.0
  9
$UCSORGBACK
 10
0.0
 20
0.0
 30
0.0
  9
$PUCSBASE
  2

  9
$PUCSNAME
  2

  9
$PUCSORG
 10
0.0
 20
0.0
 30
0.0
  9
$PUCSXDIR
 10
1.0
 20
0.0
 30
0.0
  9
$PUCSYDIR
 10
0.0
 20
1.0
 30
0.0
  9
$PUCSORTHOREF
  2

  9
$PUCSORTHOVIEW
 70
     0
  9
$PUCSORGTOP
 10
0.0
 20
0.0
 30
0.0
  9
$PUCSORGBOTTOM
 10
0.0
 20
0.0
 30
0.0
  9
$PUCSORGLEFT
 10
0.0
 20
0.0
 30
0.0
  9
$PUCSORGRIGHT
 10
0.0
 20
0.0
 30
0.0
  9
$PUCSORGFRONT
 10
0.0
 20
0.0
 30
0.0
  9
$PUCSORGBACK
 10
0.0
 20
0.0
 30
0.0
  9
$USERI1
 70
     0
  9
$USERI2
 70
     0
  9
$USERI3
 70
     0
  9
$USERI4
 70
     0
  9
$USERI5
 70
     0
  9
$USERR1
 40
0.0
  9
$USERR2
 40
0.0
  9
$USERR3
 40
0.0
  9
$USERR4
 40
0.0
  9
$USERR5
 40
0.0
  9
$WORLDVIEW
 70
     1
  9
$SHADEDGE
 70
     3
  9
$SHADEDIF
 70
    70
  9
$TILEMODE
 70
     1
  9
$MAXACTVP
 70
    48
  9
$PINSBASE
 10
0.0
 20
0.0
 30
0.0
  9
$PLIMCHECK
 70
     0
  9
$PEXTMIN
 10
0.0
 20
0.0
 30
0.0
  9
$PEXTMAX
 10
0.0
 20
0.0
 30
0.0
  9
$PLIMMIN
 10
0.0
 20
0.0
  9
$PLIMMAX
 10
12.0
 20
9.0
  9
$UNITMODE
 70
     0
  9
$VISRETAIN
 70
     1
  9
$PLINEGEN
 70
     0
  9
$PSLTSCALE
 70
     1
  9
$TREEDEPTH
 70
  3020
  9
$CMLSTYLE
  2
Standard
  9
$CMLJUST
 70
     0
  9
$CMLSCALE
 40
20.0
  9
$PROXYGRAPHICS
 70
     1
  9
$MEASUREMENT
 70
     1
  9
$CELWEIGHT
370
    -1
  9
$ENDCAPS
280
     0
  9
$JOINSTYLE
280
     0
  9
$LWDISPLAY
290
     0
  9
$INSUNITS
 70
     4
  9
$HYPERLINKBASE
  1

  9
$STYLESHEET
  1

  9
$XEDIT
290
     1
  9
$CEPSNTYPE
380
     0
  9
$PSTYLEMODE
290
     1
  9
$FINGERPRINTGUID
  2
{76627DFA-49B3-8E40-92F3-2A68E0317742}
  9
$VERSIONGUID
  2
{43E6E006-CFCE-1045-8F7A-C87B6DA7EAEA}
  9
$EXTNAMES
290
     1
  9
$PSVPSCALE
 40
0.0
  9
$OLESTARTUP
290
     0
  0
ENDSEC
  0
SECTION
  2
CLASSES
  0
CLASS
  1
ACDBDICTIONARYWDFLT
  2
AcDbDictionaryWithDefault
  3
ObjectDBX Classes
 90
        0
280
     0
281
     0
  0
CLASS
  1
ACDBPLACEHOLDER
  2
AcDbPlaceHolder
  3
ObjectDBX Classes
 90
        0
280
     0
281
     0
  0
CLASS
  1
LAYOUT
  2
AcDbLayout
  3
ObjectDBX Classes
 90
        0
280
     0
281
     0
  0
CLASS
  1
DICTIONARYVAR
  2
AcDbDictionaryVar
  3
ObjectDBX Classes
 90
        0
280
     0
281
     0
  0
CLASS
  1
TABLESTYLE
  2
AcDbTableStyle
  3
ObjectDBX Classes
 90
     4095
280
     0
281
     0
  0
CLASS
  1
MATERIAL
  2
AcDbMaterial
  3
ObjectDBX Classes
 90
     1153
280
     0
281
     0
  0
CLASS
  1
VISUALSTYLE
  2
AcDbVisualStyle
  3
ObjectDBX Classes
 90
     4095
280
     0
281
     0
  0
CLASS
  1
SCALE
  2
AcDbScale
  3
ObjectDBX Classes
 90
     1153
280
     0
281
     0
  0
CLASS
  1
MLEADERSTYLE
  2
AcDbMLeaderStyle
  3
ACDB_MLEADERSTYLE_CLASS
 90
     4095
280
     0
281
     0
  0
CLASS
  1
CELLSTYLEMAP
  2
AcDbCellStyleMap
  3
ObjectDBX Classes
 90
     1152
280
     0
281
     0
  0
CLASS
  1
EXACXREFPANELOBJECT
  2
ExAcXREFPanelObject
  3
EXAC_ESW
 90
    33793
280
     0
281
     0
  0
CLASS
  1
NPOCOLLECTION
  2
AcDbImpNonPersistentObjectsCollection
  3
ObjectDBX Classes
 90
    33921
280
     0
281
     0
  0
CLASS
  1
LAYER_INDEX
  2
AcDbLayerIndex
  3
ObjectDBX Classes
 90
    32768
280
     0
281
     0
  0
CLASS
  1
SPATIAL_INDEX
  2
AcDbSpatialIndex
  3
ObjectDBX Classes
 90
    32768
280
     0
281
     0
  0
CLASS
  1
IDBUFFER
  2
AcDbIdBuffer
  3
ObjectDBX Classes
 90
    32768
280
     0
281
     0
  0
CLASS
  1
ACDBSECTIONVIEWSTYLE
  2
AcDbSectionViewStyle
  3
ObjectDBX Classes
 90
     1025
280
     0
281
     0
  0
CLASS
  1
ACDBDETAILVIEWSTYLE
  2
AcDbDetailViewStyle
  3
ObjectDBX Classes
 90
     1025
280
     0
281
     0
  0
CLASS
  1
XRECORD
  2
AcDbXrecord
  3
ObjectDBX Classes
 90
        0
280
     0
281
     0
  0
ENDSEC
  0
SECTION
  2
TABLES
  0
TABLE
  2
VPORT
  5
8
102
{ACAD_XDICTIONARY
360
19E3E
102
}
330
0
100
AcDbSymbolTable
 70
     1
  0
VPORT
  5
EA
330
8
100
AcDbSymbolTableRecord
100
AcDbViewportTableRecord
  2
*Active
 70
     0
 10
0.0
 20
0.0
 11
1.0
 21
1.0
 12
44.57565386148128
 22
9.009338908024744
 13
0.0
 23
0.0
 14
10.0
 24
10.0
 15
10.0
 25
10.0
 16
0.0
 26
0.0
 36
1.0
 17
0.0
 27
0.0
 37
0.0
 40
692.18497000629
 41
0.9846153846153844
 42
50.0
 43
0.0
 44
0.0
 50
0.0
 51
0.0
 71
     0
 72
  1000
 73
     1
 74
     3
 75
     0
 76
     1
 77
     0
 78
     0
281
     0
 65
     1
110
0.0
120
0.0
130
0.0
111
1.0
121
0.0
131
0.0
112
0.0
122
1.0
132
0.0
 79
     0
146
0.0
1001
ACAD_NAV_VCDISPLAY
1070
     3
  0
ENDTAB
  0
TABLE
  2
LTYPE
  5
5
330
0
100
AcDbSymbolTable
 70
     1
  0
LTYPE
  5
14
330
5
100
AcDbSymbolTableRecord
100
AcDbLinetypeTableRecord
  2
ByBlock
 70
     0
  3

 72
    65
 73
     0
 40
0.0
  0
LTYPE
  5
15
330
5
100
AcDbSymbolTableRecord
100
AcDbLinetypeTableRecord
  2
ByLayer
 70
     0
  3

 72
    65
 73
     0
 40
0.0
  0
LTYPE
  5
16
330
5
100
AcDbSymbolTableRecord
100
AcDbLinetypeTableRecord
  2
Continuous
 70
     0
  3
Solid line
 72
    65
 73
     0
 40
0.0
  0
ENDTAB
  0
TABLE
  2
LAYER
  5
2
102
{ACAD_XDICTIONARY
360
1FF
102
}
330
0
100
AcDbSymbolTable
 70
     1
  0
LAYER
  5
10
102
{ACAD_XDICTIONARY
360
13C
102
}
330
2
100
AcDbSymbolTableRecord
100
AcDbLayerTableRecord
  2
0
 70
     0
 62
     7
  6
Continuous
370
    -3
390
F
  0
ENDTAB
  0
TABLE
  2
STYLE
  5
3
330
0
100
AcDbSymbolTable
 70
     1
  0
STYLE
  5
11
330
3
100
AcDbSymbolTableRecord
100
AcDbTextStyleTableRecord
  2
Standard
 70
     0
 40
0.0
 41
1.0
 50
0.0
 71
     0
 42
2.5
  3
arial.ttf
  4

1001
ACAD
1000
Arial
1071
       34
  0
ENDTAB
  0
TABLE
  2
VIEW
  5
6
330
0
100
AcDbSymbolTable
 70
     0
  0
ENDTAB
  0
TABLE
  2
UCS
  5
7
330
0
100
AcDbSymbolTable
 70
     0
  0
ENDTAB
  0
TABLE
  2
APPID
  5
9
330
0
100
AcDbSymbolTable
 70
     8
  0
APPID
  5
12
330
9
100
AcDbSymbolTableRecord
100
AcDbRegAppTableRecord
  2
ACAD
 70
     0
  0
APPID
  5
9E
330
9
100
AcDbSymbolTableRecord
100
AcDbRegAppTableRecord
  2
ACAD_PSEXT
 70
     0
  0
APPID
  5
133
330
9
100
AcDbSymbolTableRecord
100
AcDbRegAppTableRecord
  2
AcadAnnoPO
 70
     0
  0
APPID
  5
134
330
9
100
AcDbSymbolTableRecord
100
AcDbRegAppTableRecord
  2
AcadAnnotative
 70
     0
  0
APPID
  5
135
330
9
100
AcDbSymbolTableRecord
100
AcDbRegAppTableRecord
  2
ACAD_DSTYLE_DIMJAG
 70
     0
  0
APPID
  5
136
330
9
100
AcDbSymbolTableRecord
100
AcDbRegAppTableRecord
  2
ACAD_DSTYLE_DIMTALN
 70
     0
  0
APPID
  5
165
330
9
100
AcDbSymbolTableRecord
100
AcDbRegAppTableRecord
  2
ACAD_MLEADERVER
 70
     0
  0
APPID
  5
217
330
9
100
AcDbSymbolTableRecord
100
AcDbRegAppTableRecord
  2
ACAD_NAV_VCDISPLAY
 70
     0
  0
ENDTAB
  0
TABLE
  2
DIMSTYLE
  5
A
330
0
100
AcDbSymbolTable
 70
     1
100
AcDbDimStyleTable
 71
     0
  0
DIMSTYLE
105
27
330
A
100
AcDbSymbolTableRecord
100
AcDbDimStyleTableRecord
  2
ISO-25
 70
     0
 41
2.5
 42
0.625
 43
3.75
 44
1.25
 73
     0
 74
     0
 77
     1
 78
     8
140
2.5
141
2.5
143
0.03937007874016
147
0.625
171
     3
172
     1
271
     2
272
     2
274
     3
278
    44
283
     0
284
     8
340
11
  0
ENDTAB
  0
TABLE
  2
BLOCK_RECORD
  5
1
330
0
100
AcDbSymbolTable
 70
     7
  0
BLOCK_RECORD
  5
1F
102
{ACAD_XDICTIONARY
360
1CE
102
}
330
1
100
AcDbSymbolTableRecord
100
AcDbBlockTableRecord
  2
*Model_Space
340
22
  0
BLOCK_RECORD
  5
D2
102
{ACAD_XDICTIONARY
360
19DF1
102
}
330
1
100
AcDbSymbolTableRecord
100
AcDbBlockTableRecord
  2
*Paper_Space
340
D3
  0
BLOCK_RECORD
  5
D6
102
{ACAD_XDICTIONARY
360
19DF3
102
}
330
1
100
AcDbSymbolTableRecord
100
AcDbBlockTableRecord
  2
*Paper_Space0
340
D7
  0
BLOCK_RECORD
  5
19C4B
330
1
100
AcDbSymbolTableRecord
100
AcDbBlockTableRecord
  2
SAEX500_120_15-Front
340
0
102
{BLKREFS
331
19DE7
102
}
  0
BLOCK_RECORD
  5
19CA3
330
1
100
AcDbSymbolTableRecord
100
AcDbBlockTableRecord
  2
SAEX500_120_15-Left
340
0
102
{BLKREFS
331
19DE8
102
}
  0
BLOCK_RECORD
  5
19CC5
330
1
100
AcDbSymbolTableRecord
100
AcDbBlockTableRecord
  2
SAEX500_120_15-Right
340
0
102
{BLKREFS
331
19DE9
102
}
  0
BLOCK_RECORD
  5
19CE5
330
1
100
AcDbSymbolTableRecord
100
AcDbBlockTableRecord
  2
SAEX500_120_15-Top
340
0
102
{BLKREFS
331
19DEA
102
}
  0
BLOCK_RECORD
  5
19D1B
330
1
100
AcDbSymbolTableRecord
100
AcDbBlockTableRecord
  2
SAEX500_120_15-Bottom
340
0
102
{BLKREFS
331
19DEB
102
}
  0
BLOCK_RECORD
  5
19D40
330
1
100
AcDbSymbolTableRecord
100
AcDbBlockTableRecord
  2
SAEX500_120_15-ISO
340
0
102
{BLKREFS
331
19DEC
102
}
  0
ENDTAB
  0
ENDSEC
  0
SECTION
  2
BLOCKS
  0
BLOCK
  5
20
330
1F
100
AcDbEntity
  8
0
100
AcDbBlockBegin
  2
*Model_Space
 70
     0
 10
0.0
 20
0.0
 30
0.0
  3
*Model_Space
  1

  0
ENDBLK
  5
21
330
1F
100
AcDbEntity
  8
0
100
AcDbBlockEnd
  0
BLOCK
  5
D4
330
D2
100
AcDbEntity
 67
     1
  8
0
100
AcDbBlockBegin
  2
*Paper_Space
 70
     0
 10
0.0
 20
0.0
 30
0.0
  3
*Paper_Space
  1

  0
ENDBLK
  5
D5
330
D2
100
AcDbEntity
 67
     1
  8
0
100
AcDbBlockEnd
  0
BLOCK
  5
D8
330
D6
100
AcDbEntity
 67
     1
  8
0
100
AcDbBlockBegin
  2
*Paper_Space0
 70
     0
 10
0.0
 20
0.0
 30
0.0
  3
*Paper_Space0
  1

  0
ENDBLK
  5
D9
330
D6
100
AcDbEntity
 67
     1
  8
0
100
AcDbBlockEnd
  0
BLOCK
  5
19C4C
330
19C4B
100
AcDbEntity
  8
0
100
AcDbBlockBegin
  2
SAEX500_120_15-Front
 70
     0
 10
0.0
 20
0.0
 30
0.0
  3
SAEX500_120_15-Front
  1

  0
LINE
  5
19C4E
330
19C4B
100
AcDbEntity
  8
0
100
AcDbLine
 10
61.49999999999998
 20
2.385542168674685
 30
0.0
 11
63.0
 21
2.385542168674685
 31
0.0
  0
SPLINE
  5
19C4F
330
19C4B
100
AcDbEntity
  8
0
100
AcDbSpline
210
0.0
220
0.0
230
1.0
 70
     8
 71
     3
 72
    11
 73
     7
 74
     0
 42
0.000000001
 43
0.0000000001
 40
0.0
 40
0.0
 40
0.0
 40
0.0
 40
0.7156815740727316
 40
0.7156815740727316
 40
0.7156815740727316
 40
1.0
 40
1.0
 40
1.0
 40
1.0
 10
61.49999999999998
 20
1.499999999999994
 30
0.0
 10
61.49996167010915
 20
1.502828257334826
 30
0.0
 10
61.92263071587642
 20
1.678718499357484
 30
0.0
 10
62.41053348228686
 20
1.97717792626495
 30
0.0
 10
62.60436234637507
 20
2.095746738898461
 30
0.0
 10
62.80755595788431
 20
2.233988786402802
 30
0.0
 10
63.00000000000003
 20
2.385542168674647
 30
0.0
  0
SPLINE
  5
19C50
330
19C4B
100
AcDbEntity
  8
0
100
AcDbSpline
210
0.0
220
0.0
230
1.0
 70
     8
 71
     3
 72
     8
 73
     4
 74
     0
 42
0.000000001
 43
0.0000000001
 40
0.0
 40
0.0
 40
0.0
 40
0.0
 40
0.0034880710656336
 40
0.0034880710656336
 40
0.0034880710656336
 40
0.0034880710656336
 10
63.00007096406985
 20
2.385450847665737
 30
0.0
 10
62.99458566897649
 20
2.381184508819241
 30
0.0
 10
62.98894400265002
 20
2.376808665994939
 30
0.0
 10
62.98348281408499
 20
2.372584366740404
 30
0.0
  0
SPLINE
  5
19C51
330
19C4B
100
AcDbEntity
  8
0
100
AcDbSpline
210
0.0
220
0.0
230
1.0
 70
     8
 71
     3
 72
    12
 73
     8
 74
     0
 42
0.000000001
 43
0.0000000001
 40
0.0017742785868443
 40
0.0017742785868443
 40
0.0017742785868443
 40
0.0017742785868443
 40
0.0033421420776573
 40
0.0033421420776573
 40
0.0068209434763967
 40
0.0068209434763967
 40
0.0078276202021987
 40
0.0078276202021987
 40
0.0078276202021987
 40
0.0078276202021987
 10
62.98726895665989
 20
2.375514827064719
 30
0.0
 10
62.98332523521222
 20
2.372421647065674
 30
0.0
 10
62.97927161488164
 20
2.369250321019943
 30
0.0
 10
62.96615717713397
 20
2.359022042174207
 30
0.0
 10
62.95691192222626
 20
2.35186026154514
 30
0.0
 10
62.94505932021227
 20
2.342759974389042
 30
0.0
 10
62.942397824405
 20
2.34072171105884
 30
0.0
 10
62.93973585190856
 20
2.338688534184544
 30
0.0
  0
SPLINE
  5
19C52
330
19C4B
100
AcDbEntity
  8
0
100
AcDbSpline
210
0.0
220
0.0
230
1.0
 70
     8
 71
     3
 72
    11
 73
     7
 74
     0
 42
0.000000001
 43
0.0000000001
 40
0.0
 40
0.0
 40
0.0
 40
0.0
 40
0.536793241059498
 40
0.536793241059498
 40
0.536793241059498
 40
1.0
 40
1.0
 40
1.0
 40
1.0
 10
-62.99999999999998
 20
2.385542168674645
 30
0.0
 10
-62.63474915836689
 20
2.097881699279038
 30
0.0
 10
-62.23337000051267
 20
1.862777767073925
 30
0.0
 10
-61.93484155601805
 20
1.708177794765768
 30
0.0
 10
-61.67723698381262
 20
1.574771211695145
 30
0.0
 10
-61.50253888124957
 20
1.501869424897083
 30
0.0
 10
-61.49999999999986
 20
1.49999999999993
 30
0.0
  0
LINE
  5
19C53
330
19C4B
100
AcDbEntity
  8
0
100
AcDbLine
 10
-63.00000000000001
 20
2.385542168674632
 30
0.0
 11
-61.50000000000002
 21
2.385542168674632
 31
0.0
  0
SPLINE
  5
19C54
330
19C4B
100
AcDbEntity
  8
0
100
AcDbSpline
210
0.0
220
0.0
230
1.0
 70
     8
 71
     3
 72
     8
 73
     4
 74
     0
 42
0.000000001
 43
0.0000000001
 40
0.0166127403933624
 40
0.0166127403933624
 40
0.0166127403933624
 40
0.0166127403933624
 40
0.0199829052262639
 40
0.0199829052262639
 40
0.0199829052262639
 40
0.0199829052262639
 10
-62.98413782707958
 20
2.37309493872554
 30
0.0
 10
-62.98938822457884
 20
2.377156709403064
 30
0.0
 10
-62.99480021670209
 20
2.381354227547905
 30
0.0
 10
-63.00006980912593
 20
2.385452316421841
 30
0.0
  0
SPLINE
  5
19C55
330
19C4B
100
AcDbEntity
  8
0
100
AcDbSpline
210
0.0
220
0.0
230
1.0
 70
     8
 71
     3
 72
    12
 73
     8
 74
     0
 42
0.000000001
 43
0.0000000001
 40
0.0992269483030302
 40
0.0992269483030302
 40
0.0992269483030302
 40
0.0992269483030302
 40
0.1019394960360957
 40
0.1019394960360957
 40
0.1041772220237152
 40
0.1041772220237152
 40
0.104795705496072
 40
0.104795705496072
 40
0.104795705496072
 40
0.104795705496072
 10
-62.94392442113527
 20
2.341892165809128
 30
0.0
 10
-62.9511075487589
 20
2.34739378283118
 30
0.0
 10
-62.9582902302826
 20
2.352934140576917
 30
0.0
 10
-62.97129636684068
 20
2.363025961617199
 30
0.0
 10
-62.97716538139869
 20
2.36760237715223
 30
0.0
 10
-62.98446646233418
 20
2.373317656585239
 30
0.0
 10
-62.98605008290127
 20
2.374558766437577
 30
0.0
 10
-62.98761873356863
 20
2.375789364614147
 30
0.0
  0
ARC
  5
19C56
330
19C4B
100
AcDbEntity
  8
0
100
AcDbCircle
 10
-58.49999999999997
 20
1.5
 30
0.0
 40
3.0
100
AcDbArc
 50
225.0000000000001
 51
270.0
  0
SPLINE
  5
19C57
330
19C4B
100
AcDbEntity
  8
0
100
AcDbSpline
210
0.0
220
0.0
230
1.0
 70
     8
 71
     3
 72
    10
 73
     6
 74
     0
 42
0.000000001
 43
0.0000000001
 40
0.0
 40
0.0
 40
0.0
 40
0.0
 40
0.1513979278476804
 40
0.1513979278476804
 40
0.3027958586666122
 40
0.3027958586666122
 40
0.3027958586666122
 40
0.3027958586666122
 10
-60.62132034355959
 20
-0.6213203435596597
 30
0.0
 10
-60.89988814690912
 20
-0.3427525402101417
 30
0.0
 10
-61.12087725825694
 20
-0.0120203631171975
 30
0.0
 10
-61.42239993097753
 20
0.7159197548440146
 30
0.0
 10
-61.49999999999998
 20
1.106045626731155
 30
0.0
 10
-61.49999999999998
 20
1.500000000000019
 30
0.0
  0
LINE
  5
19C58
330
19C4B
100
AcDbEntity
  8
0
100
AcDbLine
 10
-61.49999999999997
 20
1.500000000000003
 30
0.0
 11
-60.40990237662732
 21
1.500000000000012
 31
0.0
  0
LINE
  5
19C59
330
19C4B
100
AcDbEntity
  8
0
100
AcDbLine
 10
-60.40990237662732
 20
1.500000000000012
 30
0.0
 11
-59.99999999999996
 21
1.500000000000003
 31
0.0
  0
ARC
  5
19C5A
330
19C4B
100
AcDbEntity
  8
0
100
AcDbCircle
 10
-58.49999999999997
 20
1.5
 30
0.0
 40
1.5
100
AcDbArc
 50
225.0000000000005
 51
270.0
  0
SPLINE
  5
19C5B
330
19C4B
100
AcDbEntity
  8
0
100
AcDbSpline
210
0.0
220
0.0
230
1.0
 70
     8
 71
     3
 72
    10
 73
     6
 74
     0
 42
0.000000001
 43
0.0000000001
 40
0.0
 40
0.0
 40
0.0
 40
0.0
 40
0.111557812097958
 40
0.111557812097958
 40
0.2231156247134791
 40
0.2231156247134791
 40
0.2231156247134791
 40
0.2231156247134791
 10
-59.99999999999999
 20
1.500000000000021
 30
0.0
 10
-59.99999999999999
 20
1.30302292818258
 30
0.0
 10
-59.96120000822291
 20
1.107959983028275
 30
0.0
 10
-59.81043859000039
 20
0.7439897215410321
 30
0.0
 10
-59.69994399564639
 20
0.5786236520867795
 30
0.0
 10
-59.56066017177978
 20
0.4393398282201805
 30
0.0
  0
LINE
  5
19C5C
330
19C4B
100
AcDbEntity
  8
0
100
AcDbLine
 10
-59.56066017177978
 20
0.4393398282201751
 30
0.0
 11
-60.62132034355961
 21
-0.6213203435596448
 31
0.0
  0
SPLINE
  5
19C5D
330
19C4B
100
AcDbEntity
  8
0
100
AcDbSpline
210
0.0
220
0.0
230
1.0
 70
     8
 71
     3
 72
    10
 73
     6
 74
     0
 42
0.000000001
 43
0.0000000001
 40
0.0
 40
0.0
 40
0.0
 40
0.0
 40
0.1513979278477102
 40
0.1513979278477102
 40
0.3027958586666469
 40
0.3027958586666469
 40
0.3027958586666469
 40
0.3027958586666469
 10
61.50000000000002
 20
1.500000000000021
 30
0.0
 10
61.50000000000002
 20
1.106045634462634
 30
0.0
 10
61.42239993402342
 20
0.7159197700811666
 30
0.0
 10
61.12087726687757
 20
-0.012020350189056
 30
0.0
 10
60.89988815237621
 20
-0.3427525347431219
 30
0.0
 10
60.62132034355965
 20
-0.6213203435596756
 30
0.0
  0
ARC
  5
19C5E
330
19C4B
100
AcDbEntity
  8
0
100
AcDbCircle
 10
58.50000000000003
 20
1.5
 30
0.0
 40
3.0
100
AcDbArc
 50
269.9999999999995
 51
314.9999999999991
  0
LINE
  5
19C5F
330
19C4B
100
AcDbEntity
  8
0
100
AcDbLine
 10
59.56066017177983
 20
0.4393398282201609
 30
0.0
 11
60.62132034355965
 21
-0.6213203435596768
 31
0.0
  0
ARC
  5
19C60
330
19C4B
100
AcDbEntity
  8
0
100
AcDbCircle
 10
58.50000000000003
 20
1.5
 30
0.0
 40
1.5
100
AcDbArc
 50
269.999999999999
 51
314.9999999999989
  0
LINE
  5
19C61
330
19C4B
100
AcDbEntity
  8
0
100
AcDbLine
 10
60.40990237662736
 20
1.500000000000003
 30
0.0
 11
61.50000000000002
 21
1.500000000000003
 31
0.0
  0
LINE
  5
19C62
330
19C4B
100
AcDbEntity
  8
0
100
AcDbLine
 10
60.00000000000003
 20
1.500000000000003
 30
0.0
 11
60.40990237662736
 21
1.500000000000003
 31
0.0
  0
SPLINE
  5
19C63
330
19C4B
100
AcDbEntity
  8
0
100
AcDbSpline
210
0.0
220
0.0
230
1.0
 70
     8
 71
     3
 72
    10
 73
     6
 74
     0
 42
0.000000001
 43
0.0000000001
 40
0.0
 40
0.0
 40
0.0
 40
0.0
 40
0.1115578120979383
 40
0.1115578120979383
 40
0.2231156247134196
 40
0.2231156247134196
 40
0.2231156247134196
 40
0.2231156247134196
 10
59.56066017177982
 20
0.4393398282201599
 30
0.0
 10
59.69994399500016
 20
0.5786236514404992
 30
0.0
 10
59.81043858898146
 20
0.7439897200128538
 30
0.0
 10
59.96120000786294
 20
1.107959981227279
 30
0.0
 10
60.00000000000003
 20
1.30302292726875
 30
0.0
 10
60.00000000000003
 20
1.500000000000009
 30
0.0
  0
LINE
  5
19C64
330
19C4B
100
AcDbEntity
  8
0
100
AcDbLine
 10
61.49999999999999
 20
31.80722891566249
 30
0.0
 11
61.49999999999995
 21
190.0
 31
0.0
  0
LINE
  5
19C65
330
19C4B
100
AcDbEntity
  8
0
100
AcDbLine
 10
61.50000000000002
 20
1.500000000000003
 30
0.0
 11
61.49999999999999
 21
31.80722891566249
 31
0.0
  0
LINE
  5
19C66
330
19C4B
100
AcDbEntity
  8
0
100
AcDbLine
 10
60.0
 20
31.80722891566249
 30
0.0
 11
60.00000000000003
 21
1.500000000000003
 31
0.0
  0
LINE
  5
19C67
330
19C4B
100
AcDbEntity
  8
0
100
AcDbLine
 10
59.99999999999996
 20
190.0
 30
0.0
 11
60.0
 21
31.80722891566248
 31
0.0
  0
LINE
  5
19C68
330
19C4B
100
AcDbEntity
  8
0
100
AcDbLine
 10
60.0
 20
31.80722891566249
 30
0.0
 11
61.49999999999999
 21
31.80722891566249
 31
0.0
  0
LINE
  5
19C69
330
19C4B
100
AcDbEntity
  8
0
100
AcDbLine
 10
62.99999999999997
 20
189.9999999999999
 30
0.0
 11
101.5000000000001
 21
189.9999999999998
 31
0.0
  0
LINE
  5
19C6A
330
19C4B
100
AcDbEntity
  8
0
100
AcDbLine
 10
101.5000000000001
 20
32.9999999999999
 30
0.0
 11
63.00000000000001
 21
2.385542168674659
 31
0.0
  0
LINE
  5
19C6B
330
19C4B
100
AcDbEntity
  8
0
100
AcDbLine
 10
101.5000000000001
 20
189.9999999999998
 30
0.0
 11
101.5000000000001
 21
32.9999999999999
 31
0.0
  0
LINE
  5
19C6C
330
19C4B
100
AcDbEntity
  8
0
100
AcDbLine
 10
59.99999999999996
 20
190.0
 30
0.0
 11
61.49999999999995
 21
190.0
 31
0.0
  0
LINE
  5
19C6D
330
19C4B
100
AcDbEntity
  8
0
100
AcDbLine
 10
-63.00000000000003
 20
2.385542168674654
 30
0.0
 11
-101.5
 21
33.00000000000007
 31
0.0
  0
LINE
  5
19C6E
330
19C4B
100
AcDbEntity
  8
0
100
AcDbLine
 10
-101.4999999999999
 20
190.0
 30
0.0
 11
-62.99999999999997
 21
190.0
 31
0.0
  0
LINE
  5
19C6F
330
19C4B
100
AcDbEntity
  8
0
100
AcDbLine
 10
-101.5
 20
33.00000000000007
 30
0.0
 11
-101.4999999999999
 21
190.0
 31
0.0
  0
LINE
  5
19C70
330
19C4B
100
AcDbEntity
  8
0
100
AcDbLine
 10
-59.99999999999996
 20
1.500000000000003
 30
0.0
 11
-59.99999999999999
 21
31.8072289156627
 31
0.0
  0
LINE
  5
19C71
330
19C4B
100
AcDbEntity
  8
0
100
AcDbLine
 10
-59.99999999999999
 20
31.8072289156627
 30
0.0
 11
-61.49999999999998
 21
31.8072289156627
 31
0.0
  0
LINE
  5
19C72
330
19C4B
100
AcDbEntity
  8
0
100
AcDbLine
 10
-61.49999999999998
 20
31.8072289156627
 30
0.0
 11
-61.49999999999997
 21
1.500000000000003
 31
0.0
  0
LINE
  5
19C73
330
19C4B
100
AcDbEntity
  8
0
100
AcDbLine
 10
-61.49999999999995
 20
190.0
 30
0.0
 11
-61.49999999999998
 21
31.80722891566269
 31
0.0
  0
LINE
  5
19C74
330
19C4B
100
AcDbEntity
  8
0
100
AcDbLine
 10
-59.99999999999999
 20
31.8072289156627
 30
0.0
 11
-59.99999999999994
 21
190.0
 31
0.0
  0
LINE
  5
19C75
330
19C4B
100
AcDbEntity
  8
0
100
AcDbLine
 10
-59.99999999999994
 20
190.0
 30
0.0
 11
-61.49999999999995
 21
190.0
 31
0.0
  0
LINE
  5
19C76
330
19C4B
100
AcDbEntity
  8
0
100
AcDbLine
 10
58.50000000000002
 20
0.0
 30
0.0
 11
-58.49999999999997
 21
0.0
 31
0.0
  0
LINE
  5
19C77
330
19C4B
100
AcDbEntity
  8
0
100
AcDbLine
 10
-58.49999999999997
 20
-1.5
 30
0.0
 11
58.50000000000002
 21
-1.5
 31
0.0
  0
CIRCLE
  5
19C78
330
19C4B
100
AcDbEntity
  8
0
100
AcDbCircle
 10
71.00000000000012
 20
44.99999999999983
 30
0.0
 40
2.5
  0
CIRCLE
  5
19C79
330
19C4B
100
AcDbEntity
  8
0
100
AcDbCircle
 10
71.00000000000012
 20
84.99999999999984
 30
0.0
 40
2.5
  0
CIRCLE
  5
19C7A
330
19C4B
100
AcDbEntity
  8
0
100
AcDbCircle
 10
71.00000000000012
 20
124.9999999999998
 30
0.0
 40
2.5
  0
CIRCLE
  5
19C7B
330
19C4B
100
AcDbEntity
  8
0
100
AcDbCircle
 10
71.00000000000012
 20
164.9999999999998
 30
0.0
 40
2.5
  0
CIRCLE
  5
19C7C
330
19C4B
100
AcDbEntity
  8
0
100
AcDbCircle
 10
93.00000000000009
 20
34.99999999999983
 30
0.0
 40
2.5
  0
CIRCLE
  5
19C7D
330
19C4B
100
AcDbEntity
  8
0
100
AcDbCircle
 10
93.00000000000009
 20
74.99999999999983
 30
0.0
 40
2.5
  0
CIRCLE
  5
19C7E
330
19C4B
100
AcDbEntity
  8
0
100
AcDbCircle
 10
93.00000000000009
 20
114.9999999999998
 30
0.0
 40
2.5
  0
CIRCLE
  5
19C7F
330
19C4B
100
AcDbEntity
  8
0
100
AcDbCircle
 10
93.00000000000009
 20
154.9999999999998
 30
0.0
 40
2.5
  0
CIRCLE
  5
19C80
330
19C4B
100
AcDbEntity
  8
0
100
AcDbCircle
 10
93.00000000000009
 20
174.9999999999998
 30
0.0
 40
2.5
  0
CIRCLE
  5
19C81
330
19C4B
100
AcDbEntity
  8
0
100
AcDbCircle
 10
71.00000000000012
 20
184.9999999999998
 30
0.0
 40
2.5
  0
CIRCLE
  5
19C82
330
19C4B
100
AcDbEntity
  8
0
100
AcDbCircle
 10
93.00000000000009
 20
134.9999999999998
 30
0.0
 40
2.5
  0
CIRCLE
  5
19C83
330
19C4B
100
AcDbEntity
  8
0
100
AcDbCircle
 10
93.00000000000009
 20
94.99999999999984
 30
0.0
 40
2.5
  0
CIRCLE
  5
19C84
330
19C4B
100
AcDbEntity
  8
0
100
AcDbCircle
 10
93.00000000000009
 20
54.99999999999983
 30
0.0
 40
2.5
  0
ARC
  5
19C85
330
19C4B
100
AcDbEntity
  8
0
100
AcDbCircle
 10
85.49999999999998
 20
40.0
 30
0.0
 40
2.5
100
AcDbArc
 50
312.177418600906
 51
47.82258139910008
  0
CIRCLE
  5
19C86
330
19C4B
100
AcDbEntity
  8
0
100
AcDbCircle
 10
71.00000000000012
 20
144.9999999999998
 30
0.0
 40
2.5
  0
CIRCLE
  5
19C87
330
19C4B
100
AcDbEntity
  8
0
100
AcDbCircle
 10
71.00000000000012
 20
104.9999999999998
 30
0.0
 40
2.5
  0
CIRCLE
  5
19C88
330
19C4B
100
AcDbEntity
  8
0
100
AcDbCircle
 10
71.00000000000012
 20
64.99999999999983
 30
0.0
 40
2.5
  0
CIRCLE
  5
19C89
330
19C4B
100
AcDbEntity
  8
0
100
AcDbCircle
 10
71.00000000000012
 20
24.99999999999983
 30
0.0
 40
2.5
  0
CIRCLE
  5
19C8A
330
19C4B
100
AcDbEntity
  8
0
100
AcDbCircle
 10
-93.00000000000006
 20
34.99999999999989
 30
0.0
 40
2.5
  0
CIRCLE
  5
19C8B
330
19C4B
100
AcDbEntity
  8
0
100
AcDbCircle
 10
-70.99999999999997
 20
144.9999999999998
 30
0.0
 40
2.5
  0
CIRCLE
  5
19C8C
330
19C4B
100
AcDbEntity
  8
0
100
AcDbCircle
 10
-71.00000000000005
 20
44.99999999999988
 30
0.0
 40
2.5
  0
CIRCLE
  5
19C8D
330
19C4B
100
AcDbEntity
  8
0
100
AcDbCircle
 10
-93.00000000000002
 20
74.99999999999989
 30
0.0
 40
2.5
  0
CIRCLE
  5
19C8E
330
19C4B
100
AcDbEntity
  8
0
100
AcDbCircle
 10
-93.0
 20
94.99999999999989
 30
0.0
 40
2.5
  0
CIRCLE
  5
19C8F
330
19C4B
100
AcDbEntity
  8
0
100
AcDbCircle
 10
-71.0
 20
104.9999999999998
 30
0.0
 40
2.5
  0
CIRCLE
  5
19C90
330
19C4B
100
AcDbEntity
  8
0
100
AcDbCircle
 10
-70.99999999999998
 20
124.9999999999998
 30
0.0
 40
2.5
  0
CIRCLE
  5
19C91
330
19C4B
100
AcDbEntity
  8
0
100
AcDbCircle
 10
-92.99999999999995
 20
174.9999999999999
 30
0.0
 40
2.5
  0
CIRCLE
  5
19C92
330
19C4B
100
AcDbEntity
  8
0
100
AcDbCircle
 10
-70.99999999999993
 20
184.9999999999998
 30
0.0
 40
2.5
  0
CIRCLE
  5
19C93
330
19C4B
100
AcDbEntity
  8
0
100
AcDbCircle
 10
-70.99999999999996
 20
164.9999999999998
 30
0.0
 40
2.5
  0
CIRCLE
  5
19C94
330
19C4B
100
AcDbEntity
  8
0
100
AcDbCircle
 10
-92.99999999999995
 20
154.9999999999999
 30
0.0
 40
2.5
  0
CIRCLE
  5
19C95
330
19C4B
100
AcDbEntity
  8
0
100
AcDbCircle
 10
-92.99999999999998
 20
134.9999999999999
 30
0.0
 40
2.5
  0
CIRCLE
  5
19C96
330
19C4B
100
AcDbEntity
  8
0
100
AcDbCircle
 10
-92.99999999999998
 20
114.9999999999999
 30
0.0
 40
2.5
  0
CIRCLE
  5
19C97
330
19C4B
100
AcDbEntity
  8
0
100
AcDbCircle
 10
-71.00000000000003
 20
84.99999999999989
 30
0.0
 40
2.5
  0
CIRCLE
  5
19C98
330
19C4B
100
AcDbEntity
  8
0
100
AcDbCircle
 10
-93.00000000000002
 20
54.99999999999989
 30
0.0
 40
2.5
  0
CIRCLE
  5
19C99
330
19C4B
100
AcDbEntity
  8
0
100
AcDbCircle
 10
-71.00000000000004
 20
64.99999999999989
 30
0.0
 40
2.5
  0
CIRCLE
  5
19C9A
330
19C4B
100
AcDbEntity
  8
0
100
AcDbCircle
 10
-71.00000000000007
 20
24.99999999999989
 30
0.0
 40
2.5
  0
ARC
  5
19C9B
330
19C4B
100
AcDbEntity
  8
0
100
AcDbCircle
 10
82.00000000000008
 20
39.99999999999983
 30
0.0
 40
5.5
100
AcDbArc
 50
19.68505482466085
 51
340.3149451753454
  0
CIRCLE
  5
19C9C
330
19C4B
100
AcDbEntity
  8
0
100
AcDbCircle
 10
82.00000000000011
 20
169.9999999999998
 30
0.0
 40
5.5
  0
CIRCLE
  5
19C9D
330
19C4B
100
AcDbEntity
  8
0
100
AcDbCircle
 10
82.00000000000009
 20
109.9999999999998
 30
0.0
 40
5.5
  0
CIRCLE
  5
19C9E
330
19C4B
100
AcDbEntity
  8
0
100
AcDbCircle
 10
-82.0
 20
109.9999999999999
 30
0.0
 40
5.5
  0
CIRCLE
  5
19C9F
330
19C4B
100
AcDbEntity
  8
0
100
AcDbCircle
 10
-82.00000000000004
 20
39.99999999999989
 30
0.0
 40
5.5
  0
LINE
  5
19CA0
330
19C4B
100
AcDbEntity
  8
0
100
AcDbLine
 10
62.99999999999993
 20
189.9999999999999
 30
0.0
 11
61.49999999999993
 21
189.9999999999999
 31
0.0
  0
LINE
  5
19CA1
330
19C4B
100
AcDbEntity
  8
0
100
AcDbLine
 10
-61.49999999999997
 20
190.0
 30
0.0
 11
-63.00000000000007
 21
189.9999999999997
 31
0.0
  0
CIRCLE
  5
19CA2
330
19C4B
100
AcDbEntity
  8
0
100
AcDbCircle
 10
-81.99999999999993
 20
169.9999999999999
 30
0.0
 40
5.5
  0
ENDBLK
  5
19C4D
330
19C4B
100
AcDbEntity
  8
0
100
AcDbBlockEnd
  0
BLOCK
  5
19CA4
330
19CA3
100
AcDbEntity
  8
0
100
AcDbBlockBegin
  2
SAEX500_120_15-Left
 70
     0
 10
0.0
 20
0.0
 30
0.0
  3
SAEX500_120_15-Left
  1

  0
SPLINE
  5
19CA6
330
19CA3
100
AcDbEntity
  8
0
100
AcDbSpline
210
0.0
220
0.0
230
1.0
 70
     8
 71
     3
 72
     8
 73
     4
 74
     0
 42
0.000000001
 43
0.0000000001
 40
-0.9999999999969924
 40
-0.9999999999969924
 40
-0.9999999999969924
 40
-0.9999999999969924
 40
-0.7724964164455367
 40
-0.7724964164455367
 40
-0.7724964164455367
 40
-0.7724964164455367
 10
2.999999999999998
 20
1.500000000000021
 30
0.0
 10
2.62616980413886
 20
1.499839172533344
 30
0.0
 10
2.261379671326072
 20
1.491484328364287
 30
0.0
 10
1.926472156280421
 20
1.490932945383288
 30
0.0
  0
SPLINE
  5
19CA7
330
19CA3
100
AcDbEntity
  8
0
100
AcDbSpline
210
0.0
220
0.0
230
1.0
 70
     8
 71
     3
 72
    11
 73
     7
 74
     0
 42
0.000000001
 43
0.0000000001
 40
-0.3671917713382671
 40
-0.3671917713382671
 40
-0.3671917713382671
 40
-0.3671917713382671
 40
-0.2017006993181206
 40
-0.2017006993181206
 40
-0.2017006993181206
 40
-0.0197494968788092
 40
-0.0197494968788092
 40
-0.0197494968788092
 40
-0.0197494968788092
 10
0.4895707392013592
 20
1.652174327355201
 30
0.0
 10
0.3498578393751307
 20
1.708950777525502
 30
0.0
 10
0.236593876952853
 20
1.78512222787762
 30
0.0
 10
0.1543869885215217
 20
1.887041060303389
 30
0.0
 10
0.0640036100329581
 20
1.999096978998639
 30
0.0
 10
0.0125826797529203
 20
2.14422771793972
 30
0.0
 10
0.0020001541782537
 20
2.325304311196734
 30
0.0
  0
SPLINE
  5
19CA8
330
19CA3
100
AcDbEntity
  8
0
100
AcDbSpline
210
0.0
220
0.0
230
1.0
 70
     8
 71
     3
 72
    11
 73
     7
 74
     0
 42
0.000000001
 43
0.0000000001
 40
-1.0
 40
-1.0
 40
-1.0
 40
-1.0
 40
-0.3713347234322656
 40
-0.3713347234322656
 40
-0.3713347234322656
 40
0.0
 40
0.0
 40
0.0
 40
0.0
 10
3.000000000000027
 20
1.499999999999992
 30
0.0
 10
1.952006848054628
 20
1.499527174097874
 30
0.0
 10
1.036025982830275
 20
1.435800174707968
 30
0.0
 10
0.5002688121185983
 20
1.648495094665805
 30
0.0
 10
0.1838122680269051
 20
1.774127942894987
 30
0.0
 10
0.0000017877106641
 20
1.999158876052625
 30
0.0
 10
0.0000000000007174
 20
2.385542168679556
 30
0.0
  0
SPLINE
  5
19CA9
330
19CA3
100
AcDbEntity
  8
0
100
AcDbSpline
210
0.0
220
0.0
230
1.0
 70
     8
 71
     3
 72
    11
 73
     7
 74
     0
 42
0.000000001
 43
0.0000000001
 40
0.0
 40
0.0
 40
0.0
 40
0.0
 40
0.536793241059498
 40
0.536793241059498
 40
0.536793241059498
 40
1.0
 40
1.0
 40
1.0
 40
1.0
 10
1.500000000000051
 20
2.385542168674645
 30
0.0
 10
1.502506008770378
 20
2.097881699279038
 30
0.0
 10
1.672493528515348
 20
1.862777767073925
 30
0.0
 10
1.972063525234306
 20
1.708177794765768
 30
0.0
 10
2.230566868126854
 20
1.574771211695145
 30
0.0
 10
2.575483018175249
 20
1.501869424897083
 30
0.0
 10
2.999999999999996
 20
1.49999999999993
 30
0.0
  0
LINE
  5
19CAA
330
19CA3
100
AcDbEntity
  8
0
100
AcDbLine
 10
0.0
 20
2.38554216867465
 30
0.0
 11
1.500000000000066
 21
2.38554216867465
 31
0.0
  0
LINE
  5
19CAB
330
19CA3
100
AcDbEntity
  8
0
100
AcDbLine
 10
1.500000000000021
 20
2.385542168674632
 30
0.0
 11
3.000000000000029
 21
2.385542168674632
 31
0.0
  0
LINE
  5
19CAC
330
19CA3
100
AcDbEntity
  8
0
100
AcDbLine
 10
3.000000000000047
 20
1.500000000000003
 30
0.0
 11
3.000000000000047
 21
-1.5
 31
0.0
  0
LINE
  5
19CAD
330
19CA3
100
AcDbEntity
  8
0
100
AcDbLine
 10
87.00000000000002
 20
-1.5
 30
0.0
 11
3.000000000000024
 21
-1.5
 31
0.0
  0
LINE
  5
19CAE
330
19CA3
100
AcDbEntity
  8
0
100
AcDbLine
 10
86.99999999999981
 20
-0.621320343559646
 30
0.0
 11
87.00000000000002
 21
-1.5
 31
0.0
  0
SPLINE
  5
19CAF
330
19CA3
100
AcDbEntity
  8
0
100
AcDbSpline
210
0.0
220
0.0
230
1.0
 70
     8
 71
     3
 72
    10
 73
     6
 74
     0
 42
0.000000001
 43
0.0000000001
 40
0.0
 40
0.0
 40
0.0
 40
0.0
 40
0.1513979278476804
 40
0.1513979278476804
 40
0.3027958586666122
 40
0.3027958586666122
 40
0.3027958586666122
 40
0.3027958586666122
 10
87.00000000000002
 20
-0.6213203435596597
 30
0.0
 10
86.68459322974161
 20
-0.3427525402101417
 30
0.0
 10
86.37222031254887
 20
-0.0120203631171975
 30
0.0
 10
85.74141606329105
 20
0.7159197548440146
 30
0.0
 10
85.42904314008495
 20
1.106045626731155
 30
0.0
 10
85.11363636363638
 20
1.500000000000019
 30
0.0
  0
SPLINE
  5
19CB0
330
19CA3
100
AcDbEntity
  8
0
100
AcDbSpline
210
0.0
220
0.0
230
1.0
 70
     8
 71
     3
 72
    10
 73
     6
 74
     0
 42
0.000000001
 43
0.0000000001
 40
0.0
 40
0.0
 40
0.0
 40
0.0
 40
0.111557812097958
 40
0.111557812097958
 40
0.2231156247134791
 40
0.2231156247134791
 40
0.2231156247134791
 40
0.2231156247134791
 10
85.11363636363638
 20
1.500000000000021
 30
0.0
 10
85.42903995739669
 20
1.30302292818258
 30
0.0
 10
85.7414158804803
 20
1.107959983028275
 30
0.0
 10
86.37222048027128
 20
0.7439897215410321
 30
0.0
 10
86.68459640477657
 20
0.5786236520867795
 30
0.0
 10
87.00000000000002
 20
0.4393398282201805
 30
0.0
  0
LINE
  5
19CB1
330
19CA3
100
AcDbEntity
  8
0
100
AcDbLine
 10
87.00000000000002
 20
0.4393398282201751
 30
0.0
 11
87.00000000000002
 21
-0.6213203435596448
 31
0.0
  0
LINE
  5
19CB2
330
19CA3
100
AcDbEntity
  8
0
100
AcDbLine
 10
0.0
 20
33.00000000000007
 30
0.0
 11
0.0
 21
2.385542168674654
 31
0.0
  0
LINE
  5
19CB3
330
19CA3
100
AcDbEntity
  8
0
100
AcDbLine
 10
0.0
 20
190.0
 30
0.0
 11
0.0
 21
33.00000000000008
 31
0.0
  0
LINE
  5
19CB4
330
19CA3
100
AcDbEntity
  8
0
100
AcDbLine
 10
1.500000000000066
 20
2.385542168674654
 30
0.0
 11
1.500000000000081
 21
33.00000000000007
 31
0.0
  0
LINE
  5
19CB5
330
19CA3
100
AcDbEntity
  8
0
100
AcDbLine
 10
0.0
 20
33.00000000000007
 30
0.0
 11
1.500000000000081
 21
33.00000000000007
 31
0.0
  0
LINE
  5
19CB6
330
19CA3
100
AcDbEntity
  8
0
100
AcDbLine
 10
1.500000000000081
 20
33.00000000000007
 30
0.0
 11
1.500000000000009
 21
190.0
 31
0.0
  0
LINE
  5
19CB7
330
19CA3
100
AcDbEntity
  8
0
100
AcDbLine
 10
0.0
 20
190.0
 30
0.0
 11
1.500000000000009
 21
190.0
 31
0.0
  0
LINE
  5
19CB8
330
19CA3
100
AcDbEntity
  8
0
100
AcDbLine
 10
47.00000000000005
 20
31.8072289156627
 30
0.0
 11
85.11363636363638
 21
1.500000000000003
 31
0.0
  0
LINE
  5
19CB9
330
19CA3
100
AcDbEntity
  8
0
100
AcDbLine
 10
47.00000000000001
 20
190.0
 30
0.0
 11
47.00000000000005
 21
31.80722891566269
 31
0.0
  0
LINE
  5
19CBA
330
19CA3
100
AcDbEntity
  8
0
100
AcDbLine
 10
2.999999999999978
 20
190.0
 30
0.0
 11
47.00000000000001
 21
190.0
 31
0.0
  0
CIRCLE
  5
19CBB
330
19CA3
100
AcDbEntity
  8
0
100
AcDbCircle
 10
39.50000000000004
 20
45.0
 30
0.0
 40
2.5
  0
CIRCLE
  5
19CBC
330
19CA3
100
AcDbEntity
  8
0
100
AcDbCircle
 10
39.50000000000003
 20
85.0
 30
0.0
 40
2.5
  0
CIRCLE
  5
19CBD
330
19CA3
100
AcDbEntity
  8
0
100
AcDbCircle
 10
39.50000000000002
 20
125.0
 30
0.0
 40
2.5
  0
CIRCLE
  5
19CBE
330
19CA3
100
AcDbEntity
  8
0
100
AcDbCircle
 10
39.50000000000002
 20
165.0
 30
0.0
 40
2.5
  0
CIRCLE
  5
19CBF
330
19CA3
100
AcDbEntity
  8
0
100
AcDbCircle
 10
39.50000000000001
 20
185.0
 30
0.0
 40
2.5
  0
CIRCLE
  5
19CC0
330
19CA3
100
AcDbEntity
  8
0
100
AcDbCircle
 10
39.50000000000002
 20
145.0
 30
0.0
 40
2.5
  0
CIRCLE
  5
19CC1
330
19CA3
100
AcDbEntity
  8
0
100
AcDbCircle
 10
39.50000000000002
 20
105.0
 30
0.0
 40
2.5
  0
CIRCLE
  5
19CC2
330
19CA3
100
AcDbEntity
  8
0
100
AcDbCircle
 10
39.50000000000003
 20
65.00000000000001
 30
0.0
 40
2.5
  0
CIRCLE
  5
19CC3
330
19CA3
100
AcDbEntity
  8
0
100
AcDbCircle
 10
39.50000000000004
 20
25.00000000000001
 30
0.0
 40
2.5
  0
LINE
  5
19CC4
330
19CA3
100
AcDbEntity
  8
0
100
AcDbLine
 10
3.000000000000019
 20
190.0
 30
0.0
 11
1.499999999999935
 21
189.9999999999997
 31
0.0
  0
ENDBLK
  5
19CA5
330
19CA3
100
AcDbEntity
  8
0
100
AcDbBlockEnd
  0
BLOCK
  5
19CC6
330
19CC5
100
AcDbEntity
  8
0
100
AcDbBlockBegin
  2
SAEX500_120_15-Right
 70
     0
 10
0.0
 20
0.0
 30
0.0
  3
SAEX500_120_15-Right
  1

  0
LINE
  5
19CC8
330
19CC5
100
AcDbEntity
  8
0
100
AcDbLine
 10
-3.000000000000002
 20
2.385542168674685
 30
0.0
 11
-1.500000000000025
 21
2.385542168674685
 31
0.0
  0
SPLINE
  5
19CC9
330
19CC5
100
AcDbEntity
  8
0
100
AcDbSpline
210
0.0
220
0.0
230
1.0
 70
     8
 71
     3
 72
    11
 73
     7
 74
     0
 42
0.000000001
 43
0.0000000001
 40
0.0
 40
0.0
 40
0.0
 40
0.0
 40
0.7156815740727316
 40
0.7156815740727316
 40
0.7156815740727316
 40
1.0
 40
1.0
 40
1.0
 40
1.0
 10
-2.999999999999982
 20
1.499999999999994
 30
0.0
 10
-2.356144137436603
 20
1.502828257334826
 30
0.0
 10
-1.865751304847494
 20
1.678718499357484
 30
0.0
 10
-1.638764559835208
 20
1.97717792626495
 30
0.0
 10
-1.548589660290165
 20
2.095746738898461
 30
0.0
 10
-1.500008124671508
 20
2.233988786402802
 30
0.0
 10
-1.500000000000055
 20
2.385542168674647
 30
0.0
  0
SPLINE
  5
19CCA
330
19CC5
100
AcDbEntity
  8
0
100
AcDbSpline
210
0.0
220
0.0
230
1.0
 70
     8
 71
     3
 72
    14
 73
    10
 74
     0
 42
0.000000001
 43
0.0000000001
 40
-0.9999999999969924
 40
-0.9999999999969924
 40
-0.9999999999969924
 40
-0.9999999999969924
 40
-0.6736354574168109
 40
-0.6736354574168109
 40
-0.6736354574168109
 40
-0.2017006993181206
 40
-0.2017006993181206
 40
-0.2017006993181206
 40
-0.0000000000000023
 40
-0.0000000000000023
 40
-0.0000000000000023
 40
-0.0000000000000023
 10
-2.999999999999998
 20
1.500000000000021
 30
0.0
 10
-2.463723080883753
 20
1.499769285468948
 30
0.0
 10
-1.946049929737751
 20
1.482675902540535
 30
0.0
 10
-1.508511710821117
 20
1.495947432146643
 30
0.0
 10
-0.8758158552269929
 20
1.51513853686881
 30
0.0
 10
-0.3888182936807716
 20
1.59639674372841
 30
0.0
 10
-0.1543869885215217
 20
1.887041060303389
 30
0.0
 10
-0.0541931431197136
 20
2.011259844573885
 30
0.0
 10
-0.0018789718460115
 20
2.176123190159949
 30
0.0
 10
-0.0000000000000235
 20
2.385542168674658
 30
0.0
  0
LINE
  5
19CCB
330
19CC5
100
AcDbEntity
  8
0
100
AcDbLine
 10
-1.500000000000054
 20
2.385542168674694
 30
0.0
 11
0.0
 21
2.385542168674694
 31
0.0
  0
LINE
  5
19CCC
330
19CC5
100
AcDbEntity
  8
0
100
AcDbLine
 10
-2.999999999999984
 20
-1.5
 30
0.0
 11
-2.999999999999984
 21
1.500000000000012
 31
0.0
  0
SPLINE
  5
19CCD
330
19CC5
100
AcDbEntity
  8
0
100
AcDbSpline
210
0.0
220
0.0
230
1.0
 70
     8
 71
     3
 72
    10
 73
     6
 74
     0
 42
0.000000001
 43
0.0000000001
 40
0.0
 40
0.0
 40
0.0
 40
0.0
 40
0.1513979278477102
 40
0.1513979278477102
 40
0.3027958586666469
 40
0.3027958586666469
 40
0.3027958586666469
 40
0.3027958586666469
 10
-85.11363636363631
 20
1.500000000000021
 30
0.0
 10
-85.42904313389486
 20
1.106045634462634
 30
0.0
 10
-85.7414160510874
 20
0.7159197700811666
 30
0.0
 10
-86.37222030034534
 20
-0.012020350189056
 30
0.0
 10
-86.68459322355145
 20
-0.3427525347431219
 30
0.0
 10
-87.0
 20
-0.6213203435596756
 30
0.0
  0
LINE
  5
19CCE
330
19CC5
100
AcDbEntity
  8
0
100
AcDbLine
 10
-87.0
 20
-1.5
 30
0.0
 11
-87.0
 21
-0.6213203435596747
 31
0.0
  0
LINE
  5
19CCF
330
19CC5
100
AcDbEntity
  8
0
100
AcDbLine
 10
-3.000000000000002
 20
-1.5
 30
0.0
 11
-86.99999999999997
 21
-1.5
 31
0.0
  0
LINE
  5
19CD0
330
19CC5
100
AcDbEntity
  8
0
100
AcDbLine
 10
-87.00000000000001
 20
0.4393398282201609
 30
0.0
 11
-87.00000000000001
 21
-0.6213203435596768
 31
0.0
  0
SPLINE
  5
19CD1
330
19CC5
100
AcDbEntity
  8
0
100
AcDbSpline
210
0.0
220
0.0
230
1.0
 70
     8
 71
     3
 72
    10
 73
     6
 74
     0
 42
0.000000001
 43
0.0000000001
 40
0.0
 40
0.0
 40
0.0
 40
0.0
 40
0.1115578120979383
 40
0.1115578120979383
 40
0.2231156247134196
 40
0.2231156247134196
 40
0.2231156247134196
 40
0.2231156247134196
 10
-87.0
 20
0.4393398282201599
 30
0.0
 10
-86.6845964062397
 20
0.5786236514404992
 30
0.0
 10
-86.37222048315599
 20
0.7439897200128538
 30
0.0
 10
-85.74141588336519
 20
1.107959981227279
 30
0.0
 10
-85.42903995885987
 20
1.30302292726875
 30
0.0
 10
-85.11363636363631
 20
1.500000000000009
 30
0.0
  0
LINE
  5
19CD2
330
19CC5
100
AcDbEntity
  8
0
100
AcDbLine
 10
-47.00000000000003
 20
190.0
 30
0.0
 11
-3.000000000000104
 21
189.9999999999999
 31
0.0
  0
LINE
  5
19CD3
330
19CC5
100
AcDbEntity
  8
0
100
AcDbLine
 10
-47.00000000000001
 20
31.80722891566249
 30
0.0
 11
-47.00000000000003
 21
190.0
 31
0.0
  0
LINE
  5
19CD4
330
19CC5
100
AcDbEntity
  8
0
100
AcDbLine
 10
-85.11363636363631
 20
1.500000000000003
 30
0.0
 11
-47.00000000000001
 21
31.80722891566249
 31
0.0
  0
LINE
  5
19CD5
330
19CC5
100
AcDbEntity
  8
0
100
AcDbLine
 10
0.0
 20
189.9999999999998
 30
0.0
 11
-1.500000000000128
 21
189.9999999999998
 31
0.0
  0
LINE
  5
19CD6
330
19CC5
100
AcDbEntity
  8
0
100
AcDbLine
 10
0.0
 20
32.9999999999999
 30
0.0
 11
0.0
 21
189.9999999999998
 31
0.0
  0
LINE
  5
19CD7
330
19CC5
100
AcDbEntity
  8
0
100
AcDbLine
 10
0.0
 20
2.38554216867466
 30
0.0
 11
0.0
 21
32.9999999999999
 31
0.0
  0
LINE
  5
19CD8
330
19CC5
100
AcDbEntity
  8
0
100
AcDbLine
 10
-1.500000000000056
 20
32.9999999999999
 30
0.0
 11
-1.500000000000055
 21
2.385542168674659
 31
0.0
  0
LINE
  5
19CD9
330
19CC5
100
AcDbEntity
  8
0
100
AcDbLine
 10
-1.500000000000128
 20
189.9999999999998
 30
0.0
 11
-1.500000000000056
 21
32.9999999999999
 31
0.0
  0
LINE
  5
19CDA
330
19CC5
100
AcDbEntity
  8
0
100
AcDbLine
 10
0.0
 20
32.9999999999999
 30
0.0
 11
-1.500000000000056
 21
32.9999999999999
 31
0.0
  0
CIRCLE
  5
19CDB
330
19CC5
100
AcDbEntity
  8
0
100
AcDbCircle
 10
-39.50000000000003
 20
15.0
 30
0.0
 40
2.5
  0
CIRCLE
  5
19CDC
330
19CC5
100
AcDbEntity
  8
0
100
AcDbCircle
 10
-39.50000000000004
 20
55.0
 30
0.0
 40
2.5
  0
CIRCLE
  5
19CDD
330
19CC5
100
AcDbEntity
  8
0
100
AcDbCircle
 10
-39.50000000000004
 20
95.0
 30
0.0
 40
2.5
  0
CIRCLE
  5
19CDE
330
19CC5
100
AcDbEntity
  8
0
100
AcDbCircle
 10
-39.50000000000004
 20
135.0
 30
0.0
 40
2.5
  0
CIRCLE
  5
19CDF
330
19CC5
100
AcDbEntity
  8
0
100
AcDbCircle
 10
-39.50000000000004
 20
175.0
 30
0.0
 40
2.5
  0
CIRCLE
  5
19CE0
330
19CC5
100
AcDbEntity
  8
0
100
AcDbCircle
 10
-39.50000000000004
 20
155.0
 30
0.0
 40
2.5
  0
CIRCLE
  5
19CE1
330
19CC5
100
AcDbEntity
  8
0
100
AcDbCircle
 10
-39.50000000000004
 20
115.0
 30
0.0
 40
2.5
  0
CIRCLE
  5
19CE2
330
19CC5
100
AcDbEntity
  8
0
100
AcDbCircle
 10
-39.50000000000004
 20
74.99999999999999
 30
0.0
 40
2.5
  0
CIRCLE
  5
19CE3
330
19CC5
100
AcDbEntity
  8
0
100
AcDbCircle
 10
-39.50000000000004
 20
35.0
 30
0.0
 40
2.5
  0
LINE
  5
19CE4
330
19CC5
100
AcDbEntity
  8
0
100
AcDbLine
 10
-1.50000000000011
 20
189.9999999999999
 30
0.0
 11
-3.000000000000111
 21
189.9999999999999
 31
0.0
  0
ENDBLK
  5
19CC7
330
19CC5
100
AcDbEntity
  8
0
100
AcDbBlockEnd
  0
BLOCK
  5
19CE6
330
19CE5
100
AcDbEntity
  8
0
100
AcDbBlockBegin
  2
SAEX500_120_15-Top
 70
     0
 10
0.0
 20
0.0
 30
0.0
  3
SAEX500_120_15-Top
  1

  0
SPLINE
  5
19CE8
330
19CE5
100
AcDbEntity
  8
0
100
AcDbSpline
210
0.0
220
0.0
230
1.0
 70
     8
 71
     3
 72
    11
 73
     7
 74
     0
 42
0.000000001
 43
0.0000000001
 40
0.0386087269486382
 40
0.0386087269486382
 40
0.0386087269486382
 40
0.0386087269486382
 40
0.7156815740727316
 40
0.7156815740727316
 40
0.7156815740727316
 40
0.9963824615773397
 40
0.9963824615773397
 40
0.9963824615773397
 40
0.9963824615773397
 10
61.50362823452674
 20
-2.897155231260113
 30
0.0
 10
61.54575479745696
 20
-2.304000473830685
 30
0.0
 10
61.94895150625059
 20
-1.853506097514199
 30
0.0
 10
62.41053348228686
 20
-1.638764559835209
 30
0.0
 10
62.6018961560078
 20
-1.549737004725546
 30
0.0
 10
62.80238678761628
 20
-1.50125111691908
 30
0.0
 10
62.99264910916712
 20
-1.500023886192332
 30
0.0
  0
SPLINE
  5
19CE9
330
19CE5
100
AcDbEntity
  8
0
100
AcDbSpline
210
0.0
220
0.0
230
1.0
 70
     8
 71
     3
 72
    28
 73
    24
 74
     0
 42
0.000000001
 43
0.0000000001
 40
0.0577932745082836
 40
0.0577932745082836
 40
0.0577932745082836
 40
0.0577932745082836
 40
0.0585446881666357
 40
0.0585446881666357
 40
0.0628698187049676
 40
0.0628698187049676
 40
0.0655637161959013
 40
0.0655637161959013
 40
0.0663448253311451
 40
0.0663448253311451
 40
0.0669382690250311
 40
0.0669382690250311
 40
0.0678459304198694
 40
0.0678459304198694
 40
0.0688152246713257
 40
0.0688152246713257
 40
0.0704472508843011
 40
0.0704472508843011
 40
0.0742619933770845
 40
0.0742619933770845
 40
0.0857034640787781
 40
0.0857034640787781
 40
0.0876355973179715
 40
0.0876355973179715
 40
0.0876355973179715
 40
0.0876355973179715
 10
61.50387976274561
 20
-2.892184251252233
 30
0.0
 10
61.50372463620299
 20
-2.894684551340174
 30
0.0
 10
61.50357448215792
 20
-2.897185414871913
 30
0.0
 10
61.50259369116355
 20
-2.914072965915592
 30
0.0
 10
61.50191795805405
 20
-2.928533079361019
 30
0.0
 10
61.50106268603271
 20
-2.95179558462955
 30
0.0
 10
61.50078717295443
 20
-2.960889085975379
 30
0.0
 10
61.50051728346261
 20
-2.97166059365333
 30
0.0
 10
61.50046199163111
 20
-2.974021262993184
 30
0.0
 10
61.50037754679198
 20
-2.977836400353353
 30
0.0
 10
61.50034501691735
 20
-2.979383876550895
 30
0.0
 10
61.50027425381694
 20
-2.98287923694561
 30
0.0
 10
61.5002415208125
 20
-2.984627379211108
 30
0.0
 10
61.50018962663978
 20
-2.987493652603216
 30
0.0
 10
61.50017056655961
 20
-2.988612813296778
 30
0.0
 10
61.50012972856284
 20
-2.991061712769236
 30
0.0
 10
61.50011431983813
 20
-2.99205644776623
 30
0.0
 10
61.50007294441085
 20
-2.994763788113228
 30
0.0
 10
61.5000601804628
 20
-2.995705960615392
 30
0.0
 10
61.50001749873831
 20
-2.998851966238633
 30
0.0
 10
61.5000717006472
 20
-2.994380365114393
 30
0.0
 10
61.50002623661257
 20
-2.99845465463918
 30
0.0
 10
61.50001832375713
 20
-2.99919542219357
 30
0.0
 10
61.50001037090562
 20
-3.000000104243683
 30
0.0
  0
SPLINE
  5
19CEA
330
19CE5
100
AcDbEntity
  8
0
100
AcDbSpline
210
0.0
220
0.0
230
1.0
 70
     8
 71
     3
 72
    10
 73
     6
 74
     0
 42
0.000000001
 43
0.0000000001
 40
0.0064176545188431
 40
0.0064176545188431
 40
0.0064176545188431
 40
0.0064176545188431
 40
0.0070290570732987
 40
0.0070290570732987
 40
0.0095244253503239
 40
0.0095244253503239
 40
0.0095244253503239
 40
0.0095244253503239
 10
61.50005293673931
 20
-2.993496818804904
 30
0.0
 10
61.50005293674332
 20
-2.993496818356137
 30
0.0
 10
61.50005230277966
 20
-2.993567377778916
 30
0.0
 10
61.50004568123693
 20
-2.994339183334348
 30
0.0
 10
61.50002739088798
 20
-2.996398536583951
 30
0.0
 10
61.50000862896314
 20
-3.000000057316704
 30
0.0
  0
SPLINE
  5
19CEB
330
19CE5
100
AcDbEntity
  8
0
100
AcDbSpline
210
0.0
220
0.0
230
1.0
 70
     8
 71
     3
 72
    10
 73
     6
 74
     0
 42
0.000000001
 43
0.0000000001
 40
0.0
 40
0.0
 40
0.0
 40
0.0
 40
0.0049432656322863
 40
0.0049432656322863
 40
0.0049893721764257
 40
0.0049893721764257
 40
0.0049893721764257
 40
0.0049893721764257
 10
59.9999288165004
 20
-2.99999967882003
 30
0.0
 10
59.99999287578662
 20
-2.985405795851376
 30
0.0
 10
60.00011938574767
 20
-2.970093975333047
 30
0.0
 10
60.00033629849689
 20
-2.955110227793886
 30
0.0
 10
60.00033831063142
 20
-2.954971778583391
 30
0.0
 10
60.00034033040822
 20
-2.954833346299891
 30
0.0
  0
SPLINE
  5
19CEC
330
19CE5
100
AcDbEntity
  8
0
100
AcDbSpline
210
0.0
220
0.0
230
1.0
 70
     8
 71
     3
 72
     8
 73
     4
 74
     0
 42
0.000000001
 43
0.0000000001
 40
0.0
 40
0.0
 40
0.0
 40
0.0
 40
0.0011201463849601
 40
0.0011201463849601
 40
0.0011201463849601
 40
0.0011201463849601
 10
59.99997108889112
 20
-2.999999891140869
 30
0.0
 10
59.99998290884848
 20
-2.996792183338456
 30
0.0
 10
59.99999781538335
 20
-2.993462116283968
 30
0.0
 10
60.00001651168876
 20
-2.990046615670714
 30
0.0
  0
SPLINE
  5
19CED
330
19CE5
100
AcDbEntity
  8
0
100
AcDbSpline
210
0.0
220
0.0
230
1.0
 70
     8
 71
     3
 72
    32
 73
    28
 74
     0
 42
0.000000001
 43
0.0000000001
 40
0.0048416696347688
 40
0.0048416696347688
 40
0.0048416696347688
 40
0.0048416696347688
 40
0.0070932677269423
 40
0.0070932677269423
 40
0.011203277898956
 40
0.011203277898956
 40
0.0160540903936107
 40
0.0160540903936107
 40
0.0204785883730529
 40
0.0204785883730529
 40
0.0271037636747418
 40
0.0271037636747418
 40
0.0317688101408117
 40
0.0317688101408117
 40
0.0362724995608592
 40
0.0362724995608592
 40
0.0413581558905032
 40
0.0413581558905032
 40
0.0459179318269351
 40
0.0459179318269351
 40
0.0534138962477069
 40
0.0534138962477069
 40
0.068219790311538
 40
0.068219790311538
 40
0.0998416293484198
 40
0.0998416293484198
 40
0.1415004791825795
 40
0.1415004791825795
 40
0.1415004791825795
 40
0.1415004791825795
 10
60.00034264683846
 20
-2.954659470402185
 30
0.0
 10
60.00043908570406
 20
-2.947432573966259
 30
0.0
 10
60.0005554757513
 20
-2.940223871556645
 30
0.0
 10
60.00094026369625
 20
-2.920181470446491
 30
0.0
 10
60.00126200027037
 20
-2.907485016457961
 30
0.0
 10
60.00201052290941
 20
-2.882945693724802
 30
0.0
 10
60.00243453940612
 20
-2.87171853820915
 30
0.0
 10
60.00317168430374
 20
-2.853774710445184
 30
0.0
 10
60.0035189792832
 20
-2.846095176763749
 30
0.0
 10
60.00438918020103
 20
-2.827995141073058
 30
0.0
 10
60.00492827784267
 20
-2.817710436223156
 30
0.0
 10
60.00610055907777
 20
-2.797503879353369
 30
0.0
 10
60.00665932485937
 20
-2.788394503362701
 30
0.0
 10
60.00802686600628
 20
-2.767956217185924
 30
0.0
 10
60.00884260980669
 20
-2.756493703137142
 30
0.0
 10
60.01097284554067
 20
-2.729337576205253
 30
0.0
 10
60.01237251946754
 20
-2.712972535572607
 30
0.0
 10
60.01535875290106
 20
-2.681592385834466
 30
0.0
 10
60.0169294737053
 20
-2.666367955227384
 30
0.0
 10
60.02138962516411
 20
-2.626430864667002
 30
0.0
 10
60.02450808563452
 20
-2.601607529561162
 30
0.0
 10
60.03465092383942
 20
-2.528858832593554
 30
0.0
 10
60.04258475184003
 20
-2.4814653430816
 30
0.0
 10
60.07068381993342
 20
-2.336051616889774
 30
0.0
 10
60.09453365675529
 20
-2.240961741527566
 30
0.0
 10
60.15940339398014
 20
-2.02540589714869
 30
0.0
 10
60.20392568865091
 20
-1.904987074619058
 30
0.0
 10
60.25684340260685
 20
-1.785466861419277
 30
0.0
  0
SPLINE
  5
19CEE
330
19CE5
100
AcDbEntity
  8
0
100
AcDbSpline
210
0.0
220
0.0
230
1.0
 70
     8
 71
     3
 72
    11
 73
     7
 74
     0
 42
0.000000001
 43
0.0000000001
 40
0.0036181099829631
 40
0.0036181099829631
 40
0.0036181099829631
 40
0.0036181099829631
 40
0.536793241059498
 40
0.536793241059498
 40
0.536793241059498
 40
0.961467399425649
 40
0.961467399425649
 40
0.961467399425649
 40
0.961467399425649
 10
-62.9926094943573
 20
-1.500073488030428
 30
0.0
 10
-62.62934305515144
 20
-1.504803405801734
 30
0.0
 10
-62.23135785009309
 20
-1.674512699236621
 30
0.0
 10
-61.93484155601805
 20
-1.972063525234306
 30
0.0
 10
-61.69866623521134
 20
-2.20906285104041
 30
0.0
 10
-61.53217768131874
 20
-2.518696184501634
 30
0.0
 10
-61.50415625600486
 20
-2.895714050151055
 30
0.0
  0
SPLINE
  5
19CEF
330
19CE5
100
AcDbEntity
  8
0
100
AcDbSpline
210
0.0
220
0.0
230
1.0
 70
     8
 71
     3
 72
    30
 73
    26
 74
     0
 42
0.000000001
 43
0.0000000001
 40
0.0
 40
0.0
 40
0.0
 40
0.0
 40
0.0438285145297999
 40
0.0438285145297999
 40
0.0787929310644346
 40
0.0787929310644346
 40
0.0908908322668179
 40
0.0908908322668179
 40
0.0969797717795281
 40
0.0969797717795281
 40
0.1022773209565649
 40
0.1022773209565649
 40
0.1044757427420531
 40
0.1044757427420531
 40
0.108919034476342
 40
0.108919034476342
 40
0.1133120428554335
 40
0.1133120428554335
 40
0.1216570839903334
 40
0.1216570839903334
 40
0.1260537946809365
 40
0.1260537946809365
 40
0.1307525545436224
 40
0.1307525545436224
 40
0.1354992425099501
 40
0.1354992425099501
 40
0.1354992425099501
 40
0.1354992425099501
 10
-60.24752893829537
 20
-1.806726268959416
 30
0.0
 10
-60.19319515058918
 20
-1.932055285539142
 30
0.0
 10
-60.14814559673344
 20
-2.057781378713232
 30
0.0
 10
-60.08176602612493
 20
-2.289477182585985
 30
0.0
 10
-60.05713589538256
 20
-2.395778500808518
 30
0.0
 10
-60.03223449757644
 20
-2.545738284163185
 30
0.0
 10
-60.02655083851454
 20
-2.585107504850763
 30
0.0
 10
-60.01927271471038
 20
-2.645004472624736
 30
0.0
 10
-60.01703127260284
 20
-2.665342599997742
 30
0.0
 10
-60.01330065448649
 20
-2.702968555551041
 30
0.0
 10
-60.01171308401002
 20
-2.720819637769901
 30
0.0
 10
-60.0099163778519
 20
-2.743013108963274
 30
0.0
 10
-60.00943787580151
 20
-2.749200740657118
 30
0.0
 10
-60.00816019476489
 20
-2.766317674389213
 30
0.0
 10
-60.00751266770177
 20
-2.775849158478441
 30
0.0
 10
-60.00649850796264
 20
-2.791423985940469
 30
0.0
 10
-60.0061228058994
 20
-2.797591800631957
 30
0.0
 10
-60.005169477202
 20
-2.813734384648247
 30
0.0
 10
-60.00464973265206
 20
-2.822923687855263
 30
0.0
 10
-60.00352107796746
 20
-2.84612605928593
 30
0.0
 10
-60.00307726322485
 20
-2.855832914940432
 30
0.0
 10
-60.00215401755198
 20
-2.87915588134041
 30
0.0
 10
-60.00167811463413
 20
-2.893068121878499
 30
0.0
 10
-60.00089981089913
 20
-2.921983818755726
 30
0.0
 10
-60.00059219303058
 20
-2.937165774177422
 30
0.0
 10
-60.00037844716619
 20
-2.952349818729196
 30
0.0
  0
SPLINE
  5
19CF0
330
19CE5
100
AcDbEntity
  8
0
100
AcDbSpline
210
0.0
220
0.0
230
1.0
 70
     8
 71
     3
 72
     8
 73
     4
 74
     0
 42
0.000000001
 43
0.0000000001
 40
0.1395603720390069
 40
0.1395603720390069
 40
0.1395603720390069
 40
0.1395603720390069
 40
0.1405892479832866
 40
0.1405892479832866
 40
0.1405892479832866
 40
0.1405892479832866
 10
-60.00001372377693
 20
-2.990925724629041
 30
0.0
 10
-59.99999693402472
 20
-2.994033007990627
 30
0.0
 10
-59.99998329410708
 20
-2.997066792565117
 30
0.0
 10
-59.99997249957203
 20
-2.99999989832181
 30
0.0
  0
SPLINE
  5
19CF1
330
19CE5
100
AcDbEntity
  8
0
100
AcDbSpline
210
0.0
220
0.0
230
1.0
 70
     8
 71
     3
 72
    10
 73
     6
 74
     0
 42
0.000000001
 43
0.0000000001
 40
0.0515398873669307
 40
0.0515398873669307
 40
0.0515398873669307
 40
0.0515398873669307
 40
0.0519706460102846
 40
0.0519706460102846
 40
0.0572893855699273
 40
0.0572893855699273
 40
0.0572893855699273
 40
0.0572893855699273
 10
-60.00044014105964
 20
-2.948132635791393
 30
0.0
 10
-60.00041920812055
 20
-2.949409689739886
 30
0.0
 10
-60.00039890151327
 20
-2.950691397813065
 30
0.0
 10
-60.00013649191441
 20
-2.967839619194252
 30
0.0
 10
-59.99999613568284
 20
-2.984333693914564
 30
0.0
 10
-59.99992804981217
 20
-2.999999685068241
 30
0.0
  0
SPLINE
  5
19CF2
330
19CE5
100
AcDbEntity
  8
0
100
AcDbSpline
210
0.0
220
0.0
230
1.0
 70
     8
 71
     3
 72
     8
 73
     4
 74
     0
 42
0.000000001
 43
0.0000000001
 40
0.0162670129260134
 40
0.0162670129260134
 40
0.0162670129260134
 40
0.0162670129260134
 40
0.0165884735470227
 40
0.0165884735470227
 40
0.0165884735470227
 40
0.0165884735470227
 10
-60.00000095703288
 20
-2.997603711944437
 30
0.0
 10
-59.99999646302967
 20
-2.998401695689774
 30
0.0
 10
-59.99999214888351
 20
-2.999200574075503
 30
0.0
 10
-59.99998801749838
 20
-2.999999928300835
 30
0.0
  0
SPLINE
  5
19CF3
330
19CE5
100
AcDbEntity
  8
0
100
AcDbSpline
210
0.0
220
0.0
230
1.0
 70
     8
 71
     3
 72
    10
 73
     6
 74
     0
 42
0.000000001
 43
0.0000000001
 40
0.0
 40
0.0
 40
0.0
 40
0.0
 40
0.002629500427655
 40
0.002629500427655
 40
0.0031588910878465
 40
0.0031588910878465
 40
0.0031588910878465
 40
0.0031588910878465
 10
-61.50000753489802
 20
-3.000000050246429
 30
0.0
 10
-61.50002559932364
 20
-2.996588277556711
 30
0.0
 10
-61.50004442090736
 20
-2.994443714003714
 30
0.0
 10
-61.50005070629368
 20
-2.993718748598297
 30
0.0
 10
-61.50005124806409
 20
-2.993658537069886
 30
0.0
 10
-61.50005124808998
 20
-2.993658534181196
 30
0.0
  0
SPLINE
  5
19CF4
330
19CE5
100
AcDbEntity
  8
0
100
AcDbSpline
210
0.0
220
0.0
230
1.0
 70
     8
 71
     3
 72
    24
 73
    20
 74
     0
 42
0.000000001
 43
0.0000000001
 40
0.0
 40
0.0
 40
0.0
 40
0.0
 40
0.0114963084230402
 40
0.0114963084230402
 40
0.0163901951030988
 40
0.0163901951030988
 40
0.0200812140015081
 40
0.0200812140015081
 40
0.0208547528762362
 40
0.0208547528762362
 40
0.0220234409677812
 40
0.0220234409677812
 40
0.0231755253642718
 40
0.0231755253642718
 40
0.024865788262093
 40
0.024865788262093
 40
0.0289711915294942
 40
0.0289711915294942
 40
0.0300610882896911
 40
0.0300610882896911
 40
0.0300610882896911
 40
0.0300610882896911
 10
-61.50001023517739
 20
-3.000000100888139
 30
0.0
 10
-61.50005654580778
 20
-2.995219463815605
 30
0.0
 10
-61.50001388906101
 20
-2.999197075136564
 30
0.0
 10
-61.50004432945928
 20
-2.996813021332384
 30
0.0
 10
-61.50005767129805
 20
-2.995790190063778
 30
0.0
 10
-61.50009865053618
 20
-2.992972348593097
 30
0.0
 10
-61.50010934182922
 20
-2.991918644423587
 30
0.0
 10
-61.50022346408761
 20
-2.985476086527189
 30
0.0
 10
-61.50024835890239
 20
-2.984110149755969
 30
0.0
 10
-61.50032836635204
 20
-2.979983678960062
 30
0.0
 10
-61.50039489729433
 20
-2.976767398491388
 30
0.0
 10
-61.50055354434041
 20
-2.969919216560593
 30
0.0
 10
-61.50064619770185
 20
-2.966247364976728
 30
0.0
 10
-61.50089985914726
 20
-2.95711011890827
 30
0.0
 10
-61.5010742342822
 20
-2.951533004634065
 30
0.0
 10
-61.50174692646615
 20
-2.932401327724956
 30
0.0
 10
-61.50235574673448
 20
-2.918706709449592
 30
0.0
 10
-61.50330786543711
 20
-2.901421721288716
 30
0.0
 10
-61.50351807946464
 20
-2.897790208177673
 30
0.0
 10
-61.50373891686744
 20
-2.894156856136087
 30
0.0
  0
SPLINE
  5
19CF5
330
19CE5
100
AcDbEntity
  8
0
100
AcDbSpline
210
0.0
220
0.0
230
1.0
 70
     8
 71
     3
 72
    10
 73
     6
 74
     0
 42
0.000000001
 43
0.0000000001
 40
0.0
 40
0.0
 40
0.0
 40
0.0
 40
0.1513979278476804
 40
0.1513979278476804
 40
0.3027958586666122
 40
0.3027958586666122
 40
0.3027958586666122
 40
0.3027958586666122
 10
-60.62132034355959
 20
-87.00000000000002
 30
0.0
 10
-60.89988814690912
 20
-86.68459322974161
 30
0.0
 10
-61.12087725825694
 20
-86.37222031254887
 30
0.0
 10
-61.42239993097753
 20
-85.74141606329105
 30
0.0
 10
-61.49999999999998
 20
-85.42904314008495
 30
0.0
 10
-61.49999999999998
 20
-85.11363636363638
 30
0.0
  0
LINE
  5
19CF6
330
19CE5
100
AcDbEntity
  8
0
100
AcDbLine
 10
-61.49999999999997
 20
-85.11363636363638
 30
0.0
 11
-60.40990237662732
 21
-85.11363636363638
 31
0.0
  0
LINE
  5
19CF7
330
19CE5
100
AcDbEntity
  8
0
100
AcDbLine
 10
-60.40990237662732
 20
-85.11363636363638
 30
0.0
 11
-59.99999999999996
 21
-85.11363636363638
 31
0.0
  0
LINE
  5
19CF8
330
19CE5
100
AcDbEntity
  8
0
100
AcDbLine
 10
-59.56066017177978
 20
-86.99999999999992
 30
0.0
 11
-58.49999999999997
 21
-87.00000000000002
 31
0.0
  0
LINE
  5
19CF9
330
19CE5
100
AcDbEntity
  8
0
100
AcDbLine
 10
-58.50000000000002
 20
-3.000000000000028
 30
0.0
 11
-59.99998801749838
 21
-3.000000000000029
 31
0.0
  0
SPLINE
  5
19CFA
330
19CE5
100
AcDbEntity
  8
0
100
AcDbSpline
210
0.0
220
0.0
230
1.0
 70
     8
 71
     3
 72
    10
 73
     6
 74
     0
 42
0.000000001
 43
0.0000000001
 40
0.0
 40
0.0
 40
0.0
 40
0.0
 40
0.111557812097958
 40
0.111557812097958
 40
0.2231156247134791
 40
0.2231156247134791
 40
0.2231156247134791
 40
0.2231156247134791
 10
-59.99999999999999
 20
-85.11363636363638
 30
0.0
 10
-59.99999999999999
 20
-85.42903995739669
 30
0.0
 10
-59.96120000822291
 20
-85.7414158804803
 30
0.0
 10
-59.81043859000039
 20
-86.37222048027128
 30
0.0
 10
-59.69994399564639
 20
-86.68459640477657
 30
0.0
 10
-59.56066017177978
 20
-87.00000000000002
 30
0.0
  0
LINE
  5
19CFB
330
19CE5
100
AcDbEntity
  8
0
100
AcDbLine
 10
-59.56066017177978
 20
-87.00000000000002
 30
0.0
 11
-60.62132034355961
 21
-87.00000000000002
 31
0.0
  0
SPLINE
  5
19CFC
330
19CE5
100
AcDbEntity
  8
0
100
AcDbSpline
210
0.0
220
0.0
230
1.0
 70
     8
 71
     3
 72
    10
 73
     6
 74
     0
 42
0.000000001
 43
0.0000000001
 40
0.0
 40
0.0
 40
0.0
 40
0.0
 40
0.1513979278477102
 40
0.1513979278477102
 40
0.3027958586666469
 40
0.3027958586666469
 40
0.3027958586666469
 40
0.3027958586666469
 10
61.50000000000002
 20
-85.11363636363631
 30
0.0
 10
61.50000000000002
 20
-85.42904313389486
 30
0.0
 10
61.42239993402342
 20
-85.7414160510874
 30
0.0
 10
61.12087726687757
 20
-86.37222030034534
 30
0.0
 10
60.89988815237621
 20
-86.68459322355145
 30
0.0
 10
60.62132034355965
 20
-87.0
 30
0.0
  0
LINE
  5
19CFD
330
19CE5
100
AcDbEntity
  8
0
100
AcDbLine
 10
59.99998820734136
 20
-3.000000000000001
 30
0.0
 11
58.49999999999997
 21
-3.000000000000003
 31
0.0
  0
LINE
  5
19CFE
330
19CE5
100
AcDbEntity
  8
0
100
AcDbLine
 10
59.56066017177983
 20
-87.00000000000001
 30
0.0
 11
60.62132034355965
 21
-87.00000000000001
 31
0.0
  0
LINE
  5
19CFF
330
19CE5
100
AcDbEntity
  8
0
100
AcDbLine
 10
58.50000000000001
 20
-87.0
 30
0.0
 11
59.56066017177983
 21
-87.0
 31
0.0
  0
LINE
  5
19D00
330
19CE5
100
AcDbEntity
  8
0
100
AcDbLine
 10
60.40990237662736
 20
-85.11363636363629
 30
0.0
 11
61.50000000000002
 21
-85.11363636363631
 31
0.0
  0
LINE
  5
19D01
330
19CE5
100
AcDbEntity
  8
0
100
AcDbLine
 10
60.00000000000003
 20
-85.11363636363631
 30
0.0
 11
60.40990237662736
 21
-85.11363636363629
 31
0.0
  0
SPLINE
  5
19D02
330
19CE5
100
AcDbEntity
  8
0
100
AcDbSpline
210
0.0
220
0.0
230
1.0
 70
     8
 71
     3
 72
    10
 73
     6
 74
     0
 42
0.000000001
 43
0.0000000001
 40
0.0
 40
0.0
 40
0.0
 40
0.0
 40
0.1115578120979383
 40
0.1115578120979383
 40
0.2231156247134196
 40
0.2231156247134196
 40
0.2231156247134196
 40
0.2231156247134196
 10
59.56066017177982
 20
-87.0
 30
0.0
 10
59.69994399500016
 20
-86.6845964062397
 30
0.0
 10
59.81043858898146
 20
-86.37222048315599
 30
0.0
 10
59.96120000786294
 20
-85.74141588336519
 30
0.0
 10
60.00000000000003
 20
-85.42903995885987
 30
0.0
 10
60.00000000000003
 20
-85.11363636363631
 30
0.0
  0
ARC
  5
19D03
330
19CE5
100
AcDbEntity
  8
0
100
AcDbCircle
 10
62.99999999999993
 20
-3.000000000000111
 30
0.0
 40
3.0
100
AcDbArc
 50
90.0
 51
180.0
  0
ARC
  5
19D04
330
19CE5
100
AcDbEntity
  8
0
100
AcDbCircle
 10
62.99999999999993
 20
-3.000000000000111
 30
0.0
 40
1.5
100
AcDbArc
 50
90.0
 51
180.0
  0
ARC
  5
19D05
330
19CE5
100
AcDbEntity
  8
0
100
AcDbCircle
 10
-62.99999999999997
 20
-2.999999999999935
 30
0.0
 40
3.0
100
AcDbArc
 50
0.0
 51
90.00000000000225
  0
ARC
  5
19D06
330
19CE5
100
AcDbEntity
  8
0
100
AcDbCircle
 10
-62.99999999999997
 20
-2.999999999999935
 30
0.0
 40
1.5
100
AcDbArc
 50
0.0
 51
90.00000000000406
  0
LINE
  5
19D07
330
19CE5
100
AcDbEntity
  8
0
100
AcDbLine
 10
61.49999999999995
 20
-47.00000000000003
 30
0.0
 11
61.49999999999993
 21
-3.000000000000104
 31
0.0
  0
LINE
  5
19D08
330
19CE5
100
AcDbEntity
  8
0
100
AcDbLine
 10
61.50000000000002
 20
-85.11363636363631
 30
0.0
 11
61.49999999999999
 21
-47.00000000000001
 31
0.0
  0
LINE
  5
19D09
330
19CE5
100
AcDbEntity
  8
0
100
AcDbLine
 10
60.0
 20
-47.00000000000001
 30
0.0
 11
60.00000000000003
 21
-85.11363636363631
 31
0.0
  0
LINE
  5
19D0A
330
19CE5
100
AcDbEntity
  8
0
100
AcDbLine
 10
59.99999999999993
 20
-3.000000000000111
 30
0.0
 11
59.99999999999996
 21
-47.00000000000004
 31
0.0
  0
LINE
  5
19D0B
330
19CE5
100
AcDbEntity
  8
0
100
AcDbLine
 10
62.99999999999997
 20
-1.500000000000141
 30
0.0
 11
101.5000000000001
 21
-1.500000000000129
 31
0.0
  0
LINE
  5
19D0C
330
19CE5
100
AcDbEntity
  8
0
100
AcDbLine
 10
101.5000000000001
 20
0.0
 30
0.0
 11
101.5000000000001
 21
-1.500000000000129
 31
0.0
  0
LINE
  5
19D0D
330
19CE5
100
AcDbEntity
  8
0
100
AcDbLine
 10
101.5000000000001
 20
0.0
 30
0.0
 11
62.99999999999997
 21
0.0
 31
0.0
  0
LINE
  5
19D0E
330
19CE5
100
AcDbEntity
  8
0
100
AcDbLine
 10
59.99999999999996
 20
-47.00000000000004
 30
0.0
 11
61.49999999999995
 21
-47.00000000000003
 31
0.0
  0
LINE
  5
19D0F
330
19CE5
100
AcDbEntity
  8
0
100
AcDbLine
 10
-58.50000000000001
 20
-3.000000000000028
 30
0.0
 11
58.49999999999997
 21
-3.000000000000003
 31
0.0
  0
LINE
  5
19D10
330
19CE5
100
AcDbEntity
  8
0
100
AcDbLine
 10
-62.99999999999997
 20
0.0
 30
0.0
 11
-101.4999999999999
 21
0.0
 31
0.0
  0
LINE
  5
19D11
330
19CE5
100
AcDbEntity
  8
0
100
AcDbLine
 10
-101.4999999999999
 20
-1.500000000000009
 30
0.0
 11
-62.99999999999997
 21
-1.499999999999979
 31
0.0
  0
LINE
  5
19D12
330
19CE5
100
AcDbEntity
  8
0
100
AcDbLine
 10
-101.4999999999999
 20
0.0
 30
0.0
 11
-101.4999999999999
 21
-1.500000000000009
 31
0.0
  0
LINE
  5
19D13
330
19CE5
100
AcDbEntity
  8
0
100
AcDbLine
 10
-59.99999999999996
 20
-85.11363636363638
 30
0.0
 11
-59.99999999999999
 21
-47.00000000000004
 31
0.0
  0
LINE
  5
19D14
330
19CE5
100
AcDbEntity
  8
0
100
AcDbLine
 10
-61.49999999999998
 20
-47.00000000000005
 30
0.0
 11
-61.49999999999997
 21
-85.11363636363638
 31
0.0
  0
LINE
  5
19D15
330
19CE5
100
AcDbEntity
  8
0
100
AcDbLine
 10
-59.99999999999994
 20
-47.00000000000001
 30
0.0
 11
-61.49999999999995
 21
-47.00000000000001
 31
0.0
  0
LINE
  5
19D16
330
19CE5
100
AcDbEntity
  8
0
100
AcDbLine
 10
-61.49999999999997
 20
-2.999999999999978
 30
0.0
 11
-61.49999999999995
 21
-47.00000000000001
 31
0.0
  0
LINE
  5
19D17
330
19CE5
100
AcDbEntity
  8
0
100
AcDbLine
 10
-59.99999999999994
 20
-47.00000000000001
 30
0.0
 11
-59.99999999999997
 21
-2.999999999999971
 31
0.0
  0
LINE
  5
19D18
330
19CE5
100
AcDbEntity
  8
0
100
AcDbLine
 10
58.50000000000002
 20
-87.0
 30
0.0
 11
-58.49999999999997
 21
-87.00000000000002
 31
0.0
  0
CIRCLE
  5
19D19
330
19CE5
100
AcDbEntity
  8
0
100
AcDbCircle
 10
0.0000000000000057
 20
-69.00000000000002
 30
0.0
 40
2.5
  0
CIRCLE
  5
19D1A
330
19CE5
100
AcDbEntity
  8
0
100
AcDbCircle
 10
0.0000000000000013
 20
-49.00000000000002
 30
0.0
 40
2.5
  0
ENDBLK
  5
19CE7
330
19CE5
100
AcDbEntity
  8
0
100
AcDbBlockEnd
  0
BLOCK
  5
19D1C
330
19D1B
100
AcDbEntity
  8
0
100
AcDbBlockBegin
  2
SAEX500_120_15-Bottom
 70
     0
 10
0.0
 20
0.0
 30
0.0
  3
SAEX500_120_15-Bottom
  1

  0
SPLINE
  5
19D1E
330
19D1B
100
AcDbEntity
  8
0
100
AcDbSpline
210
0.0
220
0.0
230
1.0
 70
     8
 71
     3
 72
    11
 73
     7
 74
     0
 42
0.000000001
 43
0.0000000001
 40
0.0
 40
0.0
 40
0.0
 40
0.0
 40
0.7156815740727316
 40
0.7156815740727316
 40
0.7156815740727316
 40
1.0
 40
1.0
 40
1.0
 40
1.0
 10
61.49999999999998
 20
2.999999999999982
 30
0.0
 10
61.49996167010915
 20
2.356144137436603
 30
0.0
 10
61.92263071587642
 20
1.865751304847494
 30
0.0
 10
62.41053348228686
 20
1.638764559835209
 30
0.0
 10
62.60436234637507
 20
1.548589660290165
 30
0.0
 10
62.80755595788431
 20
1.500008124671509
 30
0.0
 10
63.00000000000003
 20
1.500000000000055
 30
0.0
  0
SPLINE
  5
19D1F
330
19D1B
100
AcDbEntity
  8
0
100
AcDbSpline
210
0.0
220
0.0
230
1.0
 70
     8
 71
     3
 72
    14
 73
    10
 74
     0
 42
0.000000001
 43
0.0000000001
 40
-0.9999999999969924
 40
-0.9999999999969924
 40
-0.9999999999969924
 40
-0.9999999999969924
 40
-0.6736354574168109
 40
-0.6736354574168109
 40
-0.6736354574168109
 40
-0.2017006993181206
 40
-0.2017006993181206
 40
-0.2017006993181206
 40
-0.0000000000000023
 40
-0.0000000000000023
 40
-0.0000000000000023
 40
-0.0000000000000023
 10
60.0
 20
2.999999999999999
 30
0.0
 10
60.00340223718972
 20
2.463723080883753
 30
0.0
 10
60.17988321087426
 20
1.946049929737752
 30
0.0
 10
60.46683902429745
 20
1.508511710821118
 30
0.0
 10
60.88178735576215
 20
0.8758158552269934
 30
0.0
 10
61.52376991569469
 20
0.3888182936807719
 30
0.0
 10
62.17538838417453
 20
0.1543869885215221
 30
0.0
 10
62.45388429600459
 20
0.0541931431197139
 30
0.0
 10
62.7343473419578
 20
0.0018789718460118
 30
0.0
 10
63.0
 20
0.0000000000000239
 30
0.0
  0
LINE
  5
19D20
330
19D1B
100
AcDbEntity
  8
0
100
AcDbLine
 10
63.0
 20
1.500000000000055
 30
0.0
 11
63.0
 21
0.0
 31
0.0
  0
ARC
  5
19D21
330
19D1B
100
AcDbEntity
  8
0
100
AcDbCircle
 10
62.99999999999998
 20
3.000000000000025
 30
0.0
 40
3.0
100
AcDbArc
 50
203.8813771332946
 51
270.0000000000005
  0
SPLINE
  5
19D22
330
19D1B
100
AcDbEntity
  8
0
100
AcDbSpline
210
0.0
220
0.0
230
1.0
 70
     8
 71
     3
 72
    10
 73
     6
 74
     0
 42
0.000000001
 43
0.0000000001
 40
0.0
 40
0.0
 40
0.0
 40
0.0
 40
0.0031619772311303
 40
0.0031619772311303
 40
0.003179037411798
 40
0.003179037411798
 40
0.003179037411798
 40
0.003179037411798
 10
61.50001402496744
 20
3.000000086443215
 30
0.0
 10
61.50003531290495
 20
2.996429690892297
 30
0.0
 10
61.50005492920915
 20
2.994453413541021
 30
0.0
 10
61.50005511556189
 20
2.994433116692939
 30
0.0
 10
61.50005511606211
 20
2.994433062248795
 30
0.0
 10
61.50005511606213
 20
2.994433062248792
 30
0.0
  0
SPLINE
  5
19D23
330
19D1B
100
AcDbEntity
  8
0
100
AcDbSpline
210
0.0
220
0.0
230
1.0
 70
     8
 71
     3
 72
    24
 73
    20
 74
     0
 42
0.000000001
 43
0.0000000001
 40
0.0
 40
0.0
 40
0.0
 40
0.0
 40
0.0117346684484247
 40
0.0117346684484247
 40
0.0167456263814207
 40
0.0167456263814207
 40
0.0186264099422935
 40
0.0186264099422935
 40
0.0197739386373918
 40
0.0197739386373918
 40
0.0206456671604236
 40
0.0206456671604236
 40
0.0218384332738898
 40
0.0218384332738898
 40
0.0230131447316511
 40
0.0230131447316511
 40
0.0248894593535073
 40
0.0248894593535073
 40
0.0279477908682608
 40
0.0279477908682608
 40
0.0279477908682608
 40
0.0279477908682608
 10
61.50001037090561
 20
3.000000104243683
 30
0.0
 10
61.5000586719616
 20
2.995112927268773
 30
0.0
 10
61.50001497783711
 20
2.999120922144955
 30
0.0
 10
61.5000477666323
 20
2.996608387251038
 30
0.0
 10
61.50005998424763
 20
2.995654614223625
 30
0.0
 10
61.50010501805564
 20
2.992656202967337
 30
0.0
 10
61.50012021356812
 20
2.991655561250685
 30
0.0
 10
61.50016333234002
 20
2.989037451045981
 30
0.0
 10
61.50018423174367
 20
2.987792963868568
 30
0.0
 10
61.50023980719372
 20
2.984721036171543
 30
0.0
 10
61.50027075719909
 20
2.983065138197715
 30
0.0
 10
61.50036588119669
 20
2.97833744368619
 30
0.0
 10
61.50044039652361
 20
2.974888301754581
 30
0.0
 10
61.50061423912301
 20
2.967703523945282
 30
0.0
 10
61.50071434378992
 20
2.96391135122078
 30
0.0
 10
61.50100166519131
 20
2.954004572668363
 30
0.0
 10
61.50120704844572
 20
2.94777689643124
 30
0.0
 10
61.50181863488608
 20
2.931413382262477
 30
0.0
 10
61.50227185830681
 20
2.921214196745707
 30
0.0
 10
61.50280419147076
 20
2.911022127590719
 30
0.0
  0
SPLINE
  5
19D24
330
19D1B
100
AcDbEntity
  8
0
100
AcDbSpline
210
0.0
220
0.0
230
1.0
 70
     8
 71
     3
 72
    28
 73
    24
 74
     0
 42
0.000000001
 43
0.0000000001
 40
0.0
 40
0.0
 40
0.0
 40
0.0
 40
0.044111971184398
 40
0.044111971184398
 40
0.0802176355779617
 40
0.0802176355779617
 40
0.0925063365347663
 40
0.0925063365347663
 40
0.0981496359031952
 40
0.0981496359031952
 40
0.1032765127339979
 40
0.1032765127339979
 40
0.1086876289961574
 40
0.1086876289961574
 40
0.1132127807498294
 40
0.1132127807498294
 40
0.1208442219623941
 40
0.1208442219623941
 40
0.1293052628674989
 40
0.1293052628674989
 40
0.1329277718551769
 40
0.1329277718551769
 40
0.136614390788319
 40
0.136614390788319
 40
0.136614390788319
 40
0.136614390788319
 10
60.25684340260737
 20
1.785466861418137
 30
0.0
 10
60.20080957828299
 20
1.912025137068815
 30
0.0
 10
60.15418858498137
 20
2.039508697602641
 30
0.0
 10
60.08488343180665
 20
2.276202743190556
 30
0.0
 10
60.05897886195542
 20
2.385976972984536
 30
0.0
 10
60.03300682901246
 20
2.540392432164724
 30
0.0
 10
60.02715068834068
 20
2.580456468456451
 30
0.0
 10
60.01987760003602
 20
2.639615644048749
 30
0.0
 10
60.01775887757464
 20
2.658458232440002
 30
0.0
 10
60.0141278103219
 20
2.69399158011161
 30
0.0
 10
60.01255367782235
 20
2.711016705875775
 30
0.0
 10
60.00984040811906
 20
2.743167580997985
 30
0.0
 10
60.00870835940876
 20
2.758323863889953
 30
0.0
 10
60.0070886370853
 20
2.781732497993436
 30
0.0
 10
60.00649600606617
 20
2.791081453563508
 30
0.0
 10
60.0051295518051
 20
2.81386269751557
 30
0.0
 10
60.00450187554957
 20
2.82570417923879
 30
0.0
 10
60.00323257807362
 20
2.851996371431359
 30
0.0
 10
60.00255915970573
 20
2.866936996286441
 30
0.0
 10
60.00153341344511
 20
2.898151047428788
 30
0.0
 10
60.00122805788717
 20
2.908797953740917
 30
0.0
 10
60.00071085153493
 20
2.931166836457358
 30
0.0
 10
60.00049788739986
 20
2.94298714297658
 30
0.0
 10
60.00034033040835
 20
2.954833346292277
 30
0.0
  0
SPLINE
  5
19D25
330
19D1B
100
AcDbEntity
  8
0
100
AcDbSpline
210
0.0
220
0.0
230
1.0
 70
     8
 71
     3
 72
    24
 73
    20
 74
     0
 42
0.000000001
 43
0.0000000001
 40
0.020293280049962
 40
0.020293280049962
 40
0.020293280049962
 40
0.020293280049962
 40
0.0211166741933626
 40
0.0211166741933626
 40
0.0254783039981969
 40
0.0254783039981969
 40
0.0326472936044517
 40
0.0326472936044517
 40
0.0378361251004683
 40
0.0378361251004683
 40
0.0427803616365161
 40
0.0427803616365161
 40
0.045126135282268
 40
0.045126135282268
 40
0.0484473113717078
 40
0.0484473113717078
 40
0.05222758793403
 40
0.05222758793403
 40
0.0562169072994524
 40
0.0562169072994524
 40
0.0562169072994524
 40
0.0562169072994524
 10
60.00338786222251
 20
2.852674401779541
 30
0.0
 10
60.00338786222238
 20
2.852674401782418
 30
0.0
 10
60.00338456780774
 20
2.85274998446853
 30
0.0
 10
60.00334523808437
 20
2.853652514158948
 30
0.0
 10
60.00322658958971
 20
2.856365490349239
 30
0.0
 10
60.00283501168952
 20
2.865720937133491
 30
0.0
 10
60.00258948854434
 20
2.872068375243073
 30
0.0
 10
60.00248783444079
 20
2.87472380504251
 30
0.0
 10
60.00247291279429
 20
2.875102149162821
 30
0.0
 10
60.00228330521296
 20
2.880106929705337
 30
0.0
 10
60.00211382959619
 20
2.884489257927698
 30
0.0
 10
60.00172853228171
 20
2.895798987936308
 30
0.0
 10
60.00158380324734
 20
2.9002185002323
 30
0.0
 10
60.001215005706
 20
2.912548171420527
 30
0.0
 10
60.00098242503439
 20
2.921250115973163
 30
0.0
 10
60.00055127308847
 20
2.941043700288592
 30
0.0
 10
60.00035886028492
 20
2.952430811292511
 30
0.0
 10
60.00007188528994
 20
2.975977201441929
 30
0.0
 10
59.99998051369212
 20
2.988222108227296
 30
0.0
 10
59.99992881650041
 20
2.99999967882003
 30
0.0
  0
ARC
  5
19D26
330
19D1B
100
AcDbEntity
  8
0
100
AcDbCircle
 10
-63.00000000000001
 20
3.000000000000021
 30
0.0
 40
3.0
100
AcDbArc
 50
270.0
 51
336.5619095666899
  0
SPLINE
  5
19D27
330
19D1B
100
AcDbEntity
  8
0
100
AcDbSpline
210
0.0
220
0.0
230
1.0
 70
     8
 71
     3
 72
    11
 73
     7
 74
     0
 42
0.000000001
 43
0.0000000001
 40
-1.0
 40
-1.0
 40
-1.0
 40
-1.0
 40
-0.3713347234322656
 40
-0.3713347234322656
 40
-0.3713347234322656
 40
0.0
 40
0.0
 40
0.0
 40
0.0
 10
-60.0
 20
3.000000000000027
 30
0.0
 10
-60.00000001476554
 20
1.952006848054628
 30
0.0
 10
-60.66480358695546
 20
1.036025982830274
 30
0.0
 10
-61.48594969921973
 20
0.5002688121185979
 30
0.0
 10
-61.97097738543117
 20
0.1838122680269047
 30
0.0
 10
-62.50984231317731
 20
0.0000017877106638
 30
0.0
 10
-63.00000000000621
 20
0.000000000000717
 30
0.0
  0
SPLINE
  5
19D28
330
19D1B
100
AcDbEntity
  8
0
100
AcDbSpline
210
0.0
220
0.0
230
1.0
 70
     8
 71
     3
 72
    11
 73
     7
 74
     0
 42
0.000000001
 43
0.0000000001
 40
0.0
 40
0.0
 40
0.0
 40
0.0
 40
0.536793241059498
 40
0.536793241059498
 40
0.536793241059498
 40
1.0
 40
1.0
 40
1.0
 40
1.0
 10
-62.99999999999998
 20
1.500000000000051
 30
0.0
 10
-62.63474915836689
 20
1.502506008770378
 30
0.0
 10
-62.23337000051267
 20
1.672493528515347
 30
0.0
 10
-61.93484155601805
 20
1.972063525234306
 30
0.0
 10
-61.67723698381262
 20
2.230566868126854
 30
0.0
 10
-61.50253888124957
 20
2.575483018175249
 30
0.0
 10
-61.49999999999986
 20
2.999999999999996
 30
0.0
  0
LINE
  5
19D29
330
19D1B
100
AcDbEntity
  8
0
100
AcDbLine
 10
-63.00000000000001
 20
0.0
 30
0.0
 11
-63.00000000000001
 21
1.500000000000065
 31
0.0
  0
SPLINE
  5
19D2A
330
19D1B
100
AcDbEntity
  8
0
100
AcDbSpline
210
0.0
220
0.0
230
1.0
 70
     8
 71
     3
 72
    32
 73
    28
 74
     0
 42
0.000000001
 43
0.0000000001
 40
0.0055371381826946
 40
0.0055371381826946
 40
0.0055371381826946
 40
0.0055371381826946
 40
0.0065484305715093
 40
0.0065484305715093
 40
0.0122482968314589
 40
0.0122482968314589
 40
0.0161711885252644
 40
0.0161711885252644
 40
0.0206755236738438
 40
0.0206755236738438
 40
0.0260569240986488
 40
0.0260569240986488
 40
0.0325974028973958
 40
0.0325974028973958
 40
0.037078958425886
 40
0.037078958425886
 40
0.040998542934732
 40
0.040998542934732
 40
0.044544711856421
 40
0.044544711856421
 40
0.0503626488832014
 40
0.0503626488832014
 40
0.0621359470581209
 40
0.0621359470581209
 40
0.0873041561396192
 40
0.0873041561396192
 40
0.1406103870797605
 40
0.1406103870797605
 40
0.1406103870797605
 40
0.1406103870797605
 10
-60.00044014105943
 20
2.948132635803732
 30
0.0
 10
-60.00048920936743
 20
2.944901370702952
 30
0.0
 10
-60.00054238872481
 20
2.941673969627198
 30
0.0
 10
-60.0009228981332
 20
2.920318559739735
 30
0.0
 10
-60.00139313355177
 20
2.902253798088517
 30
0.0
 10
-60.00232060094598
 20
2.87467165845892
 30
0.0
 10
-60.00273612938214
 20
2.864164882895405
 30
0.0
 10
-60.00357168576336
 20
2.844889140387277
 30
0.0
 10
-60.00398882949951
 20
2.836364817237413
 30
0.0
 10
-60.00478551252505
 20
2.820840360011908
 30
0.0
 10
-60.00514471739022
 20
2.81436096139965
 30
0.0
 10
-60.00598737867061
 20
2.799752118597746
 30
0.0
 10
-60.00650232533175
 20
2.79111402809651
 30
0.0
 10
-60.00791028293122
 20
2.770022675533814
 30
0.0
 10
-60.00864688134264
 20
2.759496618661458
 30
0.0
 10
-60.01043879141526
 20
2.736310982895683
 30
0.0
 10
-60.01146326112561
 20
2.723898087569518
 30
0.0
 10
-60.01362578035649
 20
2.699830952097441
 30
0.0
 10
-60.01475782363012
 20
2.688030195028869
 30
0.0
 10
-60.01793694108415
 20
2.657013709420435
 30
0.0
 10
-60.02012741857637
 20
2.637655041145892
 30
0.0
 10
-60.02729558734763
 20
2.579809269778917
 30
0.0
 10
-60.03288524175346
 20
2.541564675619398
 30
0.0
 10
-60.05255142091908
 20
2.423965941029996
 30
0.0
 10
-60.06914803632227
 20
2.346466366526648
 30
0.0
 10
-60.12900843775164
 20
2.111664713299296
 30
0.0
 10
-60.18144571675886
 20
1.959157113876019
 30
0.0
 10
-60.24752893829615
 20
1.806726268957572
 30
0.0
  0
SPLINE
  5
19D2B
330
19D1B
100
AcDbEntity
  8
0
100
AcDbSpline
210
0.0
220
0.0
230
1.0
 70
     8
 71
     3
 72
    24
 73
    20
 74
     0
 42
0.000000001
 43
0.0000000001
 40
0.0
 40
0.0
 40
0.0
 40
0.0
 40
0.0051059673650741
 40
0.0051059673650741
 40
0.0099775056661645
 40
0.0099775056661645
 40
0.012530596461313
 40
0.012530596461313
 40
0.0159170453976353
 40
0.0159170453976353
 40
0.0196604560196336
 40
0.0196604560196336
 40
0.0261281031795473
 40
0.0261281031795473
 40
0.0334855687192814
 40
0.0334855687192814
 40
0.0365371473904492
 40
0.0365371473904492
 40
0.0367059583060943
 40
0.0367059583060943
 40
0.0367059583060943
 40
0.0367059583060943
 10
-59.99992804981219
 20
2.999999685068243
 30
0.0
 10
-59.99999341195856
 20
2.984960400162709
 30
0.0
 10
-60.00012487633759
 20
2.96916096453065
 30
0.0
 10
-60.0005658888096
 20
2.939307157888207
 30
0.0
 10
-60.00087771059077
 20
2.924972062183692
 30
0.0
 10
-60.00136607694146
 20
2.907055566458343
 30
0.0
 10
-60.00153578824336
 20
2.901523135573138
 30
0.0
 10
-60.00188140487435
 20
2.890886074369214
 30
0.0
 10
-60.00204165725936
 20
2.886431015342084
 30
0.0
 10
-60.0022807359943
 20
2.879870561855256
 30
0.0
 10
-60.00235318152333
 20
2.877971337363003
 30
0.0
 10
-60.00247590200867
 20
2.87472323730786
 30
0.0
 10
-60.00248560133393
 20
2.874402324281026
 30
0.0
 10
-60.00287046609738
 20
2.86455595823091
 30
0.0
 10
-60.00327191308763
 20
2.854998049758903
 30
0.0
 10
-60.00356114097065
 20
2.8484967183296
 30
0.0
 10
-60.0036144239877
 20
2.847324869189629
 30
0.0
 10
-60.00362001849406
 20
2.847200999929972
 30
0.0
 10
-60.00362016659644
 20
2.847197719803135
 30
0.0
 10
-60.00362016659786
 20
2.847197719771561
 30
0.0
  0
SPLINE
  5
19D2C
330
19D1B
100
AcDbEntity
  8
0
100
AcDbSpline
210
0.0
220
0.0
230
1.0
 70
     8
 71
     3
 72
     8
 73
     4
 74
     0
 42
0.000000001
 43
0.0000000001
 40
0.0034809650847148
 40
0.0034809650847148
 40
0.0034809650847148
 40
0.0034809650847148
 40
0.0066509016537884
 40
0.0066509016537884
 40
0.0066509016537884
 40
0.0066509016537884
 10
-61.50005478766574
 20
2.994358393828528
 30
0.0
 10
-61.50005478766574
 20
2.994358393828282
 30
0.0
 10
-61.50003511074804
 20
2.996361372853145
 30
0.0
 10
-61.50001389665826
 20
3.000000083837176
 30
0.0
  0
SPLINE
  5
19D2D
330
19D1B
100
AcDbEntity
  8
0
100
AcDbSpline
210
0.0
220
0.0
230
1.0
 70
     8
 71
     3
 72
    22
 73
    18
 74
     0
 42
0.000000001
 43
0.0000000001
 40
0.0617999673338857
 40
0.0617999673338857
 40
0.0617999673338857
 40
0.0617999673338857
 40
0.0676043678475126
 40
0.0676043678475126
 40
0.0688972716680514
 40
0.0688972716680514
 40
0.070048009400835
 40
0.070048009400835
 40
0.0709794603970966
 40
0.0709794603970966
 40
0.0725861099188491
 40
0.0725861099188491
 40
0.0763058023365619
 40
0.0763058023365619
 40
0.0874708010175019
 40
0.0874708010175019
 40
0.0902082224695996
 40
0.0902082224695996
 40
0.0902082224695996
 40
0.0902082224695996
 10
-61.50280578601199
 20
2.91068456181879
 30
0.0
 10
-61.50179358946076
 20
2.930075739034919
 30
0.0
 10
-61.50105882268248
 20
2.950049405250874
 30
0.0
 10
-61.50049724634086
 20
2.972211269891103
 30
0.0
 10
-61.50040838945117
 20
2.976164454068133
 30
0.0
 10
-61.50028191058659
 20
2.982292013326288
 30
0.0
 10
-61.50023861282786
 20
2.984631365016888
 30
0.0
 10
-61.50018343928889
 20
2.987728421401245
 30
0.0
 10
-61.50016582997891
 20
2.988775943643937
 30
0.0
 10
-61.5001276399585
 20
2.991093055968296
 30
0.0
 10
-61.50011345332848
 20
2.992018027982405
 30
0.0
 10
-61.50007598452924
 20
2.994487220961223
 30
0.0
 10
-61.50006416917591
 20
2.995353255442767
 30
0.0
 10
-61.50001919992867
 20
2.998670566806498
 30
0.0
 10
-61.5000689933502
 20
2.994625446423968
 30
0.0
 10
-61.50003213783353
 20
2.997863559102864
 30
0.0
 10
-61.50002126234447
 20
2.998861768649354
 30
0.0
 10
-61.50001023517742
 20
3.00000010088814
 30
0.0
  0
LINE
  5
19D2E
330
19D1B
100
AcDbEntity
  8
0
100
AcDbLine
 10
-61.50000000000002
 20
3.000000000000047
 30
0.0
 11
-58.50000000000002
 21
3.000000000000046
 31
0.0
  0
LINE
  5
19D2F
330
19D1B
100
AcDbEntity
  8
0
100
AcDbLine
 10
-60.62132034355961
 20
86.99999999999981
 30
0.0
 11
-58.49999999999997
 21
87.00000000000002
 31
0.0
  0
SPLINE
  5
19D30
330
19D1B
100
AcDbEntity
  8
0
100
AcDbSpline
210
0.0
220
0.0
230
1.0
 70
     8
 71
     3
 72
    10
 73
     6
 74
     0
 42
0.000000001
 43
0.0000000001
 40
0.0
 40
0.0
 40
0.0
 40
0.0
 40
0.1513979278476804
 40
0.1513979278476804
 40
0.3027958586666122
 40
0.3027958586666122
 40
0.3027958586666122
 40
0.3027958586666122
 10
-60.62132034355959
 20
87.00000000000002
 30
0.0
 10
-60.89988814690912
 20
86.68459322974161
 30
0.0
 10
-61.12087725825694
 20
86.37222031254887
 30
0.0
 10
-61.42239993097753
 20
85.74141606329105
 30
0.0
 10
-61.49999999999998
 20
85.42904314008495
 30
0.0
 10
-61.49999999999998
 20
85.11363636363638
 30
0.0
  0
LINE
  5
19D31
330
19D1B
100
AcDbEntity
  8
0
100
AcDbLine
 10
-61.50000000000002
 20
3.000000000000028
 30
0.0
 11
-61.49999999999997
 21
85.11363636363638
 31
0.0
  0
LINE
  5
19D32
330
19D1B
100
AcDbEntity
  8
0
100
AcDbLine
 10
58.49999999999997
 20
2.999999999999985
 30
0.0
 11
61.49999999999998
 21
2.999999999999984
 31
0.0
  0
LINE
  5
19D33
330
19D1B
100
AcDbEntity
  8
0
100
AcDbLine
 10
61.50000000000002
 20
85.11363636363631
 30
0.0
 11
61.49999999999998
 21
2.999999999999989
 31
0.0
  0
SPLINE
  5
19D34
330
19D1B
100
AcDbEntity
  8
0
100
AcDbSpline
210
0.0
220
0.0
230
1.0
 70
     8
 71
     3
 72
    10
 73
     6
 74
     0
 42
0.000000001
 43
0.0000000001
 40
0.0
 40
0.0
 40
0.0
 40
0.0
 40
0.1513979278477102
 40
0.1513979278477102
 40
0.3027958586666469
 40
0.3027958586666469
 40
0.3027958586666469
 40
0.3027958586666469
 10
61.50000000000002
 20
85.11363636363631
 30
0.0
 10
61.50000000000002
 20
85.42904313389486
 30
0.0
 10
61.42239993402342
 20
85.7414160510874
 30
0.0
 10
61.12087726687757
 20
86.37222030034534
 30
0.0
 10
60.89988815237621
 20
86.68459322355145
 30
0.0
 10
60.62132034355965
 20
87.0
 30
0.0
  0
LINE
  5
19D35
330
19D1B
100
AcDbEntity
  8
0
100
AcDbLine
 10
58.50000000000001
 20
87.0
 30
0.0
 11
60.62132034355965
 21
87.0
 31
0.0
  0
LINE
  5
19D36
330
19D1B
100
AcDbEntity
  8
0
100
AcDbLine
 10
63.00000000000001
 20
0.0
 30
0.0
 11
101.5000000000001
 21
0.0
 31
0.0
  0
LINE
  5
19D37
330
19D1B
100
AcDbEntity
  8
0
100
AcDbLine
 10
101.5000000000001
 20
1.500000000000057
 30
0.0
 11
63.00000000000001
 21
1.500000000000055
 31
0.0
  0
LINE
  5
19D38
330
19D1B
100
AcDbEntity
  8
0
100
AcDbLine
 10
101.5000000000001
 20
0.0
 30
0.0
 11
101.5000000000001
 21
1.500000000000057
 31
0.0
  0
LINE
  5
19D39
330
19D1B
100
AcDbEntity
  8
0
100
AcDbLine
 10
-58.50000000000001
 20
3.000000000000028
 30
0.0
 11
58.49999999999997
 21
3.000000000000003
 31
0.0
  0
LINE
  5
19D3A
330
19D1B
100
AcDbEntity
  8
0
100
AcDbLine
 10
-101.5
 20
0.0
 30
0.0
 11
-63.00000000000003
 21
0.0
 31
0.0
  0
LINE
  5
19D3B
330
19D1B
100
AcDbEntity
  8
0
100
AcDbLine
 10
-63.00000000000003
 20
1.500000000000065
 30
0.0
 11
-101.5
 21
1.500000000000081
 31
0.0
  0
LINE
  5
19D3C
330
19D1B
100
AcDbEntity
  8
0
100
AcDbLine
 10
-101.5
 20
0.0
 30
0.0
 11
-101.5
 21
1.500000000000081
 31
0.0
  0
LINE
  5
19D3D
330
19D1B
100
AcDbEntity
  8
0
100
AcDbLine
 10
-58.49999999999997
 20
87.00000000000002
 30
0.0
 11
58.50000000000002
 21
87.0
 31
0.0
  0
CIRCLE
  5
19D3E
330
19D1B
100
AcDbEntity
  8
0
100
AcDbCircle
 10
0.0000000000000057
 20
69.00000000000002
 30
0.0
 40
2.5
  0
CIRCLE
  5
19D3F
330
19D1B
100
AcDbEntity
  8
0
100
AcDbCircle
 10
0.0000000000000013
 20
49.00000000000002
 30
0.0
 40
2.5
  0
ENDBLK
  5
19D1D
330
19D1B
100
AcDbEntity
  8
0
100
AcDbBlockEnd
  0
BLOCK
  5
19D41
330
19D40
100
AcDbEntity
  8
0
100
AcDbBlockBegin
  2
SAEX500_120_15-ISO
 70
     0
 10
0.0
 20
0.0
 30
0.0
  3
SAEX500_120_15-ISO
  1

  0
ELLIPSE
  5
19D43
330
19D40
100
AcDbEntity
  8
0
100
AcDbEllipse
 10
72.97057467906497
 20
-84.31671939262317
 30
0.0
 11
1.5
 21
-0.0000000000000892
 31
0.0
210
0.0
220
0.0
230
1.0
 40
0.5773502691896259
 41
0.785398163397657
 42
2.35619449019256
  0
LINE
  5
19D44
330
19D40
100
AcDbEntity
  8
0
100
AcDbLine
 10
71.90991450728512
 20
-84.42738910991758
 30
0.0
 11
71.90991450728512
 21
-83.70434695692743
 31
0.0
  0
SPLINE
  5
19D45
330
19D40
100
AcDbEntity
  8
0
100
AcDbSpline
210
0.0
220
0.0
230
1.0
 70
     8
 71
     3
 72
    11
 73
     7
 74
     0
 42
0.000000001
 43
0.0000000001
 40
0.0
 40
0.0
 40
0.0
 40
0.0
 40
0.7156815740727316
 40
0.7156815740727316
 40
0.7156815740727316
 40
1.0
 40
1.0
 40
1.0
 40
1.0
 10
71.90991450728517
 20
-84.42738910991756
 30
0.0
 10
72.36516225048473
 20
-84.16221114416465
 30
0.0
 10
73.01079449631345
 20
-83.99094924274084
 30
0.0
 10
73.5162977176396
 20
-83.8537766608157
 30
0.0
 10
73.71711870478717
 20
-83.79928218452031
 30
0.0
 10
73.89515061865553
 20
-83.74952814105997
 30
0.0
 10
74.0312348508448
 20
-83.70434695692743
 30
0.0
  0
ELLIPSE
  5
19D46
330
19D40
100
AcDbEntity
  8
0
100
AcDbEllipse
 10
-16.12487975044002
 20
-32.87743479417648
 30
0.0
 11
3.0
 21
-0.0000000000000004
 31
0.0
210
0.0
220
0.0
230
1.0
 40
0.577350269189626
 41
5.497787143782136
 42
6.283185307179581
  0
LINE
  5
19D47
330
19D40
100
AcDbEntity
  8
0
100
AcDbLine
 10
-14.00355940688037
 20
-34.10217966556807
 30
0.0
 11
-14.00355940688037
 21
-34.82522181855823
 31
0.0
  0
SPLINE
  5
19D48
330
19D40
100
AcDbEntity
  8
0
100
AcDbSpline
210
0.0
220
0.0
230
1.0
 70
     8
 71
     3
 72
     8
 73
     4
 74
     0
 42
0.000000001
 43
0.0000000001
 40
-1.0
 40
-1.0
 40
-1.0
 40
-1.0
 40
-0.6020957040082792
 40
-0.6020957040082792
 40
-0.6020957040082792
 40
-0.6020957040082792
 10
-14.00355940688035
 20
-34.82522181855824
 30
0.0
 10
-13.53452727536813
 20
-34.55467033491414
 30
0.0
 10
-13.29121058634684
 20
-34.21767248233054
 30
0.0
 10
-13.22694849981398
 20
-33.82223203871742
 30
0.0
  0
SPLINE
  5
19D49
330
19D40
100
AcDbEntity
  8
0
100
AcDbSpline
210
0.0
220
0.0
230
1.0
 70
     8
 71
     3
 72
     8
 73
     4
 74
     0
 42
0.000000001
 43
0.0000000001
 40
0.0
 40
0.0
 40
0.0
 40
0.0
 40
0.0935180706631955
 40
0.0935180706631955
 40
0.0935180706631955
 40
0.0935180706631955
 10
-13.12607386693835
 20
-32.92629906180049
 30
0.0
 10
-13.14085874101721
 20
-33.22874924619847
 30
0.0
 10
-13.1793697648766
 20
-33.5294875651991
 30
0.0
 10
-13.22686828800706
 20
-33.8216804816241
 30
0.0
  0
ELLIPSE
  5
19D4A
330
19D40
100
AcDbEntity
  8
0
100
AcDbEllipse
 10
-72.33986885477051
 20
-69.73045065321854
 30
0.0
 11
-1.499999999999628
 21
2.59807621135353
 31
0.0
210
0.0
220
0.0
230
0.9999999999999998
 40
0.5773502691895702
 41
1.570796326795049
 42
2.356194490192631
  0
SPLINE
  5
19D4B
330
19D40
100
AcDbEntity
  8
0
100
AcDbSpline
210
0.0
220
0.0
230
1.0
 70
     8
 71
     3
 72
    10
 73
     6
 74
     0
 42
0.000000001
 43
0.0000000001
 40
0.0
 40
0.0
 40
0.0
 40
0.0
 40
0.1513979278476804
 40
0.1513979278476804
 40
0.3027958586666122
 40
0.3027958586666122
 40
0.3027958586666122
 40
0.3027958586666122
 10
-73.8398688547705
 20
-70.596476057003
 30
0.0
 10
-73.8138197714573
 20
-70.12653729375712
 30
0.0
 10
-73.74920166265372
 20
-69.63875146560792
 30
0.0
 10
-73.51636442696445
 20
-68.66376997612134
 30
0.0
 10
-73.35035494973269
 20
-68.18602772818967
 30
0.0
 10
-73.12732867927369
 20
-67.73560105208827
 30
0.0
  0
LINE
  5
19D4C
330
19D40
100
AcDbEntity
  8
0
100
AcDbLine
 10
-73.12732867927369
 20
-67.73560105208829
 30
0.0
 11
-72.35651325763154
 21
-68.18063154326887
 31
0.0
  0
LINE
  5
19D4D
330
19D40
100
AcDbEntity
  8
0
100
AcDbLine
 10
-72.35651325763154
 20
-68.18063154326887
 30
0.0
 11
-72.06666850749387
 21
-68.34797348778408
 31
0.0
  0
LINE
  5
19D4E
330
19D40
100
AcDbEntity
  8
0
100
AcDbLine
 10
-72.06666850749387
 20
-68.34797348778408
 30
0.0
 11
-14.00355940688037
 21
-34.82522181855822
 31
0.0
  0
ELLIPSE
  5
19D4F
330
19D40
100
AcDbEntity
  8
0
100
AcDbEllipse
 10
-72.33986885477051
 20
-69.73045065321854
 30
0.0
 11
0.7499999999999336
 21
-1.299038105676696
 31
0.0
210
0.0
220
0.0
230
1.0
 40
0.5773502691895679
 41
4.712388980384767
 42
5.49778714378213
  0
LINE
  5
19D50
330
19D40
100
AcDbEntity
  8
0
100
AcDbLine
 10
-12.94289923510056
 20
-36.66233912564561
 30
0.0
 11
-72.33986885477051
 21
-70.95519552461012
 31
0.0
  0
ELLIPSE
  5
19D51
330
19D40
100
AcDbEntity
  8
0
100
AcDbEllipse
 10
-12.94289923510056
 20
-35.43759425425403
 30
0.0
 11
-0.7499999999999229
 21
1.299038105676702
 31
0.0
210
0.0
220
0.0
230
0.9999999999999998
 40
0.5773502691896259
 41
0.7853981633976837
 42
2.35619449019258
  0
SPLINE
  5
19D52
330
19D40
100
AcDbEntity
  8
0
100
AcDbSpline
210
0.0
220
0.0
230
1.0
 70
     8
 71
     3
 72
    10
 73
     6
 74
     0
 42
0.000000001
 43
0.0000000001
 40
0.0
 40
0.0
 40
0.0
 40
0.0
 40
0.111557812097958
 40
0.111557812097958
 40
0.2231156247134791
 40
0.2231156247134791
 40
0.2231156247134791
 40
0.2231156247134791
 10
-72.06666850749389
 20
-68.34797348778406
 30
0.0
 10
-72.28969252745241
 20
-68.63756757140295
 30
0.0
 10
-72.48313992364869
 20
-68.94020276608111
 30
0.0
 10
-72.82258171259812
 20
-69.55645623088345
 30
0.0
 10
-72.96533337014304
 20
-69.86411322760618
 30
0.0
 10
-73.08986885477051
 20
-70.16346335511075
 30
0.0
  0
LINE
  5
19D53
330
19D40
100
AcDbEntity
  8
0
100
AcDbLine
 10
-72.33986885477051
 20
-70.95519552461012
 30
0.0
 11
-72.33986885477051
 21
-72.17994039600171
 31
0.0
  0
LINE
  5
19D54
330
19D40
100
AcDbEntity
  8
0
100
AcDbLine
 10
-73.08986885477051
 20
-70.16346335511077
 30
0.0
 11
-73.8398688547705
 21
-70.59647605700297
 31
0.0
  0
ELLIPSE
  5
19D55
330
19D40
100
AcDbEntity
  8
0
100
AcDbEllipse
 10
69.78859416372554
 20
-83.20264423852599
 30
0.0
 11
1.5
 21
-2.598076211353316
 31
0.0
210
0.0
220
0.0
230
0.9999999999999998
 40
0.577350269189626
 41
0.0
 42
0.7853981633974536
  0
LINE
  5
19D56
330
19D40
100
AcDbEntity
  8
0
100
AcDbLine
 10
13.84680540667168
 20
-117.9501407791434
 30
0.0
 11
71.90991450728517
 21
-84.42738910991756
 31
0.0
  0
SPLINE
  5
19D57
330
19D40
100
AcDbEntity
  8
0
100
AcDbSpline
210
0.0
220
0.0
230
1.0
 70
     8
 71
     3
 72
    10
 73
     6
 74
     0
 42
0.000000001
 43
0.0000000001
 40
0.0
 40
0.0
 40
0.0
 40
0.0
 40
0.1513979278477102
 40
0.1513979278477102
 40
0.3027958586666469
 40
0.3027958586666469
 40
0.3027958586666469
 40
0.3027958586666469
 10
13.84680540667168
 20
-117.9501407791434
 30
0.0
 10
13.62377914058971
 20
-118.400567446405
 30
0.0
 10
13.34802659971125
 20
-118.8149494959602
 30
0.0
 10
12.6887719148394
 20
-119.5437387582594
 30
0.0
 10
12.31162800114898
 20
-119.8510877398303
 30
0.0
 10
11.89162454405554
 20
-120.0935768488438
 30
0.0
  0
ELLIPSE
  5
19D58
330
19D40
100
AcDbEntity
  8
0
100
AcDbEllipse
 10
10.39162454405556
 20
-117.4955006374905
 30
0.0
 11
1.499999999999977
 21
-2.598076211353329
 31
0.0
210
0.0
220
0.0
230
1.0
 40
0.5773502691896234
 41
5.497787143782181
 42
6.283185307179639
  0
LINE
  5
19D59
330
19D40
100
AcDbEntity
  8
0
100
AcDbLine
 10
11.14162454405554
 20
-118.7945387431671
 30
0.0
 11
11.89162454405553
 21
-120.0935768488438
 31
0.0
  0
ELLIPSE
  5
19D5A
330
19D40
100
AcDbEntity
  8
0
100
AcDbEllipse
 10
10.39162454405556
 20
-117.4955006374905
 30
0.0
 11
0.749999999999999
 21
-1.299038105676659
 31
0.0
210
0.0
220
0.0
230
1.0
 40
0.5773502691896251
 41
5.49778714378212
 42
6.283185307179578
  0
LINE
  5
19D5B
330
19D40
100
AcDbEntity
  8
0
100
AcDbLine
 10
10.39162454405555
 20
-119.9449903802737
 30
0.0
 11
10.39162454405555
 21
-118.7202455088821
 31
0.0
  0
LINE
  5
19D5C
330
19D40
100
AcDbEntity
  8
0
100
AcDbLine
 10
13.07598998502954
 20
-117.5051102879628
 30
0.0
 11
13.84680540667168
 21
-117.9501407791434
 31
0.0
  0
LINE
  5
19D5D
330
19D40
100
AcDbEntity
  8
0
100
AcDbLine
 10
12.78614523489186
 20
-117.3377683434476
 30
0.0
 11
13.07598998502954
 21
-117.5051102879628
 31
0.0
  0
SPLINE
  5
19D5E
330
19D40
100
AcDbEntity
  8
0
100
AcDbSpline
210
0.0
220
0.0
230
1.0
 70
     8
 71
     3
 72
    10
 73
     6
 74
     0
 42
0.000000001
 43
0.0000000001
 40
0.0
 40
0.0
 40
0.0
 40
0.0
 40
0.1115578120979383
 40
0.1115578120979383
 40
0.2231156247134196
 40
0.2231156247134196
 40
0.2231156247134196
 40
0.2231156247134196
 10
11.14162454405555
 20
-118.7945387431671
 30
0.0
 10
11.46313709992274
 20
-118.6089133824894
 30
0.0
 10
11.76215171010327
 20
-118.391474845416
 30
0.0
 10
12.31480234185141
 20
-117.8983175636199
 30
0.0
 10
12.56312121389866
 20
-117.62736242841
 30
0.0
 10
12.78614523489186
 20
-117.3377683434476
 30
0.0
  0
LINE
  5
19D5F
330
19D40
100
AcDbEntity
  8
0
100
AcDbLine
 10
10.39162454405555
 20
-118.7202455088821
 30
0.0
 11
12.78614523489187
 21
-117.3377683434476
 31
0.0
  0
LINE
  5
19D60
330
19D40
100
AcDbEntity
  8
0
100
AcDbLine
 10
71.28859416372552
 20
-85.80072044987929
 30
0.0
 11
11.89162454405556
 21
-120.0935768488438
 31
0.0
  0
ELLIPSE
  5
19D61
330
19D40
100
AcDbEntity
  8
0
100
AcDbEllipse
 10
72.9705746790649
 20
68.86984395926289
 30
0.0
 11
3.0
 21
-0.0000000000001842
 31
0.0
210
0.0
220
0.0
230
1.0
 40
0.5773502691896248
 41
0.7853981633976899
 42
2.356194490192585
  0
LINE
  5
19D62
330
19D40
100
AcDbEntity
  8
0
100
AcDbLine
 10
71.90991450728512
 20
-83.70434695692743
 30
0.0
 11
71.90991450728505
 21
69.48221639495869
 31
0.0
  0
LINE
  5
19D63
330
19D40
100
AcDbEntity
  8
0
100
AcDbLine
 10
75.09189502262453
 20
70.09458883065446
 30
0.0
 11
74.0312348508447
 21
69.48221639495866
 31
0.0
  0
LINE
  5
19D64
330
19D40
100
AcDbEntity
  8
0
100
AcDbLine
 10
74.0312348508447
 20
69.48221639495866
 30
0.0
 11
74.03123485084478
 21
-83.70434695692743
 31
0.0
  0
LINE
  5
19D65
330
19D40
100
AcDbEntity
  8
0
100
AcDbLine
 10
71.90991450728505
 20
69.48221639495868
 30
0.0
 11
70.84925433550523
 21
70.09458883065447
 31
0.0
  0
ELLIPSE
  5
19D66
330
19D40
100
AcDbEntity
  8
0
100
AcDbEllipse
 10
72.9705746790649
 20
68.86984395926289
 30
0.0
 11
-1.5
 21
-0.0000000000000751
 31
0.0
210
0.0
220
0.0
230
1.0
 40
0.5773502691896323
 41
3.926990816987007
 42
5.497787143781905
  0
LINE
  5
19D67
330
19D40
100
AcDbEntity
  8
0
100
AcDbLine
 10
-15.06421957866012
 20
119.6967561220139
 30
0.0
 11
-15.06421957866012
 21
120.9215009934055
 31
0.0
  0
LINE
  5
19D68
330
19D40
100
AcDbEntity
  8
0
100
AcDbLine
 10
-15.06421957866012
 20
120.9215009934055
 30
0.0
 11
-14.0035594068803
 21
121.5338734291013
 31
0.0
  0
LINE
  5
19D69
330
19D40
100
AcDbEntity
  8
0
100
AcDbLine
 10
-14.00355940688031
 20
119.0843836863182
 30
0.0
 11
-15.06421957866013
 21
119.696756122014
 31
0.0
  0
ELLIPSE
  5
19D6A
330
19D40
100
AcDbEntity
  8
0
100
AcDbEllipse
 10
-16.12487975043991
 20
120.3091285577098
 30
0.0
 11
3.0
 21
-0.00000000000056
 31
0.0
210
0.0
220
0.0
230
1.0
 40
0.5773502691895042
 41
5.497787143782224
 42
7.068583470577182
  0
LINE
  5
19D6B
330
19D40
100
AcDbEntity
  8
0
100
AcDbLine
 10
-14.00355940688031
 20
119.0843836863182
 30
0.0
 11
-14.00355940688037
 21
-34.10217966556807
 31
0.0
  0
ELLIPSE
  5
19D6C
330
19D40
100
AcDbEntity
  8
0
100
AcDbEllipse
 10
-16.12487975043991
 20
120.3091285577098
 30
0.0
 11
1.5
 21
-0.0000000000002714
 31
0.0
210
0.0
220
0.0
230
1.0
 40
0.5773502691895053
 41
5.497787143782191
 42
7.068583470577207
  0
LINE
  5
19D6D
330
19D40
100
AcDbEntity
  8
0
100
AcDbLine
 10
-13.12487975044001
 20
-32.8774347941765
 30
0.0
 11
-13.12487975043991
 21
120.3091285577094
 31
0.0
  0
LINE
  5
19D6E
330
19D40
100
AcDbEntity
  8
0
100
AcDbLine
 10
40.79721613507703
 20
51.5192916145488
 30
0.0
 11
71.90991450728505
 21
69.48221639495868
 31
0.0
  0
LINE
  5
19D6F
330
19D40
100
AcDbEntity
  8
0
100
AcDbLine
 10
40.79721613507707
 20
-77.64456510329523
 30
0.0
 11
40.79721613507703
 21
51.5192916145488
 31
0.0
  0
LINE
  5
19D70
330
19D40
100
AcDbEntity
  8
0
100
AcDbLine
 10
13.84680540667168
 20
-117.9501407791434
 30
0.0
 11
40.79721613507707
 21
-77.64456510329523
 31
0.0
  0
LINE
  5
19D71
330
19D40
100
AcDbEntity
  8
0
100
AcDbLine
 10
39.73655596329725
 20
-77.03219266759943
 30
0.0
 11
12.78614523489186
 21
-117.3377683434476
 31
0.0
  0
LINE
  5
19D72
330
19D40
100
AcDbEntity
  8
0
100
AcDbLine
 10
39.73655596329721
 20
52.1316640502446
 30
0.0
 11
39.73655596329725
 21
-77.03219266759943
 31
0.0
  0
LINE
  5
19D73
330
19D40
100
AcDbEntity
  8
0
100
AcDbLine
 10
70.84925433550523
 20
70.09458883065447
 30
0.0
 11
39.73655596329721
 21
52.1316640502446
 31
0.0
  0
LINE
  5
19D74
330
19D40
100
AcDbEntity
  8
0
100
AcDbLine
 10
39.73655596329725
 20
-77.03219266759943
 30
0.0
 11
40.79721613507707
 21
-77.64456510329523
 31
0.0
  0
LINE
  5
19D75
330
19D40
100
AcDbEntity
  8
0
100
AcDbLine
 10
74.0312348508447
 20
69.48221639495866
 30
0.0
 11
101.2548459265269
 21
53.76465721209982
 31
0.0
  0
LINE
  5
19D76
330
19D40
100
AcDbEntity
  8
0
100
AcDbLine
 10
102.3155060983067
 20
54.37702964779561
 30
0.0
 11
101.2548459265269
 21
53.76465721209982
 31
0.0
  0
LINE
  5
19D77
330
19D40
100
AcDbEntity
  8
0
100
AcDbLine
 10
102.3155060983067
 20
54.37702964779561
 30
0.0
 11
75.09189502262453
 21
70.09458883065446
 31
0.0
  0
LINE
  5
19D78
330
19D40
100
AcDbEntity
  8
0
100
AcDbLine
 10
102.3155060983067
 20
-73.8129335578573
 30
0.0
 11
102.3155060983067
 21
54.37702964779562
 31
0.0
  0
LINE
  5
19D79
330
19D40
100
AcDbEntity
  8
0
100
AcDbLine
 10
101.2548459265269
 20
-74.42530599355309
 30
0.0
 11
74.03123485084478
 21
-83.70434695692743
 31
0.0
  0
LINE
  5
19D7A
330
19D40
100
AcDbEntity
  8
0
100
AcDbLine
 10
101.2548459265269
 20
53.76465721209982
 30
0.0
 11
101.2548459265269
 21
-74.42530599355309
 31
0.0
  0
LINE
  5
19D7B
330
19D40
100
AcDbEntity
  8
0
100
AcDbLine
 10
102.3155060983067
 20
-73.8129335578573
 30
0.0
 11
101.2548459265269
 21
-74.42530599355309
 31
0.0
  0
LINE
  5
19D7C
330
19D40
100
AcDbEntity
  8
0
100
AcDbLine
 10
39.73655596329721
 20
52.1316640502446
 30
0.0
 11
40.79721613507703
 21
51.5192916145488
 31
0.0
  0
LINE
  5
19D7D
330
19D40
100
AcDbEntity
  8
0
100
AcDbLine
 10
-12.94289923510056
 20
-36.66233912564561
 30
0.0
 11
39.73655596329722
 21
-67.07683676520338
 31
0.0
  0
LINE
  5
19D7E
330
19D40
100
AcDbEntity
  8
0
100
AcDbLine
 10
45.49892393759886
 20
-70.40374146633611
 30
0.0
 11
46.7021100503534
 21
-71.09840129242018
 31
0.0
  0
LINE
  5
19D7F
330
19D40
100
AcDbEntity
  8
0
100
AcDbLine
 10
-14.0035594068803
 20
121.5338734291013
 30
0.0
 11
-41.22717048256237
 21
137.2514326119601
 31
0.0
  0
LINE
  5
19D80
330
19D40
100
AcDbEntity
  8
0
100
AcDbLine
 10
-39.10667205789959
 20
3.69152834436929
 30
0.0
 11
-39.51665783934858
 21
4.304680889862666
 31
0.0
  0
LINE
  5
19D81
330
19D40
100
AcDbEntity
  8
0
100
AcDbLine
 10
-42.2878306543422
 20
136.6390601762643
 30
0.0
 11
-15.06421957866012
 21
120.9215009934055
 31
0.0
  0
LINE
  5
19D82
330
19D40
100
AcDbEntity
  8
0
100
AcDbLine
 10
-42.28783065434225
 20
103.9791969391552
 30
0.0
 11
-42.2878306543422
 21
136.6390601762643
 31
0.0
  0
LINE
  5
19D83
330
19D40
100
AcDbEntity
  8
0
100
AcDbLine
 10
-41.22717048256237
 20
137.2514326119601
 30
0.0
 11
-42.2878306543422
 21
136.6390601762643
 31
0.0
  0
LINE
  5
19D84
330
19D40
100
AcDbEntity
  8
0
100
AcDbLine
 10
-72.06666850749387
 20
-68.34797348778408
 30
0.0
 11
-45.11625777908846
 21
-28.04239781193571
 31
0.0
  0
LINE
  5
19D85
330
19D40
100
AcDbEntity
  8
0
100
AcDbLine
 10
-45.11625777908846
 20
-28.04239781193571
 30
0.0
 11
-46.17691795086829
 21
-27.43002537623992
 31
0.0
  0
LINE
  5
19D86
330
19D40
100
AcDbEntity
  8
0
100
AcDbLine
 10
-46.17691795086829
 20
-27.43002537623992
 30
0.0
 11
-73.12732867927369
 21
-67.73560105208829
 31
0.0
  0
LINE
  5
19D87
330
19D40
100
AcDbEntity
  8
0
100
AcDbLine
 10
-46.17691795086823
 20
101.733831341604
 30
0.0
 11
-46.17691795086829
 21
-27.43002537623992
 31
0.0
  0
LINE
  5
19D88
330
19D40
100
AcDbEntity
  8
0
100
AcDbLine
 10
-45.11625777908846
 20
-28.04239781193571
 30
0.0
 11
-45.1162577790884
 21
101.1214589059082
 31
0.0
  0
LINE
  5
19D89
330
19D40
100
AcDbEntity
  8
0
100
AcDbLine
 10
-45.1162577790884
 20
101.1214589059082
 30
0.0
 11
-46.17691795086823
 21
101.733831341604
 31
0.0
  0
LINE
  5
19D8A
330
19D40
100
AcDbEntity
  8
0
100
AcDbLine
 10
-15.06421957866013
 20
119.696756122014
 30
0.0
 11
-46.17691795086823
 21
101.733831341604
 31
0.0
  0
LINE
  5
19D8B
330
19D40
100
AcDbEntity
  8
0
100
AcDbLine
 10
-45.1162577790884
 20
101.1214589059082
 30
0.0
 11
-14.0035594068803
 21
119.0843836863182
 31
0.0
  0
LINE
  5
19D8C
330
19D40
100
AcDbEntity
  8
0
100
AcDbLine
 10
10.39162454405555
 20
-118.7202455088821
 30
0.0
 11
-72.33986885477051
 21
-70.95519552461012
 31
0.0
  0
LINE
  5
19D8D
330
19D40
100
AcDbEntity
  8
0
100
AcDbLine
 10
-72.33986885477051
 20
-72.17994039600171
 30
0.0
 11
10.39162454405556
 21
-119.9449903802737
 31
0.0
  0
ELLIPSE
  5
19D8E
330
19D40
100
AcDbEntity
  8
0
100
AcDbEllipse
 10
46.10051699397615
 20
-88.30574786932428
 30
0.0
 11
1.249999999999998
 21
2.165063509461097
 31
0.0
210
0.0
220
0.0
230
1.0
 40
0.5773502691896257
 41
0.0
 42
6.283185307179586
  0
ELLIPSE
  5
19D8F
330
19D40
100
AcDbEntity
  8
0
100
AcDbEllipse
 10
46.10051699397615
 20
-55.64588463221525
 30
0.0
 11
1.249999999999998
 21
2.165063509461097
 31
0.0
210
0.0
220
0.0
230
1.0
 40
0.5773502691896257
 41
0.0
 42
6.283185307179586
  0
ELLIPSE
  5
19D90
330
19D40
100
AcDbEntity
  8
0
100
AcDbEllipse
 10
46.10051699397614
 20
-22.98602139510621
 30
0.0
 11
1.249999999999998
 21
2.165063509461097
 31
0.0
210
0.0
220
0.0
230
1.0
 40
0.5773502691896257
 41
0.0
 42
6.283185307179586
  0
ELLIPSE
  5
19D91
330
19D40
100
AcDbEntity
  8
0
100
AcDbEllipse
 10
46.10051699397614
 20
9.673841842002834
 30
0.0
 11
1.249999999999998
 21
2.165063509461097
 31
0.0
210
0.0
220
0.0
230
1.0
 40
0.5773502691896257
 41
0.0
 42
6.283185307179586
  0
ELLIPSE
  5
19D92
330
19D40
100
AcDbEntity
  8
0
100
AcDbEllipse
 10
46.10051699397613
 20
42.33370507911188
 30
0.0
 11
1.249999999999998
 21
2.165063509461097
 31
0.0
210
0.0
220
0.0
230
1.0
 40
0.5773502691896257
 41
0.0
 42
6.283185307179586
  0
ELLIPSE
  5
19D93
330
19D40
100
AcDbEntity
  8
0
100
AcDbEllipse
 10
46.10051699397613
 20
26.00377346055736
 30
0.0
 11
1.249999999999998
 21
2.165063509461097
 31
0.0
210
0.0
220
0.0
230
1.0
 40
0.5773502691896257
 41
0.0
 42
6.283185307179586
  0
ELLIPSE
  5
19D94
330
19D40
100
AcDbEntity
  8
0
100
AcDbEllipse
 10
46.10051699397614
 20
-6.656089776551672
 30
0.0
 11
1.249999999999998
 21
2.165063509461097
 31
0.0
210
0.0
220
0.0
230
1.0
 40
0.5773502691896257
 41
0.0
 42
6.283185307179586
  0
ELLIPSE
  5
19D95
330
19D40
100
AcDbEntity
  8
0
100
AcDbEllipse
 10
46.10051699397614
 20
-39.31595301366074
 30
0.0
 11
1.249999999999998
 21
2.165063509461097
 31
0.0
210
0.0
220
0.0
230
1.0
 40
0.5773502691896257
 41
0.0
 42
6.283185307179586
  0
ELLIPSE
  5
19D96
330
19D40
100
AcDbEntity
  8
0
100
AcDbEllipse
 10
46.10051699397615
 20
-71.97581625076978
 30
0.0
 11
1.249999999999998
 21
2.165063509461097
 31
0.0
210
0.0
220
0.0
230
1.0
 40
0.5773502691896257
 41
0.0
 42
6.283185307179586
  0
ELLIPSE
  5
19D97
330
19D40
100
AcDbEntity
  8
0
100
AcDbEllipse
 10
45.03985682219634
 20
-71.36344381507399
 30
0.0
 11
1.24999999999987
 21
2.165063509461171
 31
0.0
210
0.0
220
0.0
230
0.9999999999999998
 40
0.5773502691896255
 41
3.579741684173544
 42
5.845036276595005
  0
ELLIPSE
  5
19D98
330
19D40
100
AcDbEntity
  8
0
100
AcDbEllipse
 10
45.03985682219632
 20
-38.70358057796495
 30
0.0
 11
1.24999999999987
 21
2.165063509461171
 31
0.0
210
0.0
220
0.0
230
1.0
 40
0.5773502691896255
 41
3.579741684173544
 42
5.845036276595003
  0
ELLIPSE
  5
19D99
330
19D40
100
AcDbEntity
  8
0
100
AcDbEllipse
 10
45.03985682219632
 20
-6.043717340855883
 30
0.0
 11
1.24999999999987
 21
2.165063509461172
 31
0.0
210
0.0
220
0.0
230
1.0
 40
0.5773502691896254
 41
3.579741684173544
 42
5.845036276595004
  0
ELLIPSE
  5
19D9A
330
19D40
100
AcDbEntity
  8
0
100
AcDbEllipse
 10
45.03985682219632
 20
26.61614589625315
 30
0.0
 11
1.24999999999987
 21
2.165063509461172
 31
0.0
210
0.0
220
0.0
230
1.0
 40
0.5773502691896254
 41
3.579741684173544
 42
5.845036276595003
  0
ELLIPSE
  5
19D9B
330
19D40
100
AcDbEntity
  8
0
100
AcDbEllipse
 10
45.03985682219632
 20
42.94607751480767
 30
0.0
 11
1.24999999999987
 21
2.165063509461171
 31
0.0
210
0.0
220
0.0
230
0.9999999999999998
 40
0.5773502691896254
 41
3.579741684173539
 42
5.845036276594993
  0
ELLIPSE
  5
19D9C
330
19D40
100
AcDbEntity
  8
0
100
AcDbEllipse
 10
45.03985682219632
 20
10.28621427769862
 30
0.0
 11
1.24999999999987
 21
2.165063509461172
 31
0.0
210
0.0
220
0.0
230
1.0
 40
0.5773502691896254
 41
3.579741684173544
 42
5.845036276595004
  0
ELLIPSE
  5
19D9D
330
19D40
100
AcDbEntity
  8
0
100
AcDbEllipse
 10
45.03985682219632
 20
-22.37364895941042
 30
0.0
 11
1.24999999999987
 21
2.165063509461172
 31
0.0
210
0.0
220
0.0
230
1.0
 40
0.5773502691896254
 41
3.579741684173544
 42
5.84503627659501
  0
ELLIPSE
  5
19D9E
330
19D40
100
AcDbEntity
  8
0
100
AcDbEllipse
 10
45.03985682219634
 20
-55.03351219651946
 30
0.0
 11
1.24999999999987
 21
2.165063509461171
 31
0.0
210
0.0
220
0.0
230
0.9999999999999998
 40
0.5773502691896255
 41
3.579741684173544
 42
5.845036276595005
  0
ELLIPSE
  5
19D9F
330
19D40
100
AcDbEntity
  8
0
100
AcDbEllipse
 10
45.03985682219634
 20
-87.69337543362849
 30
0.0
 11
1.24999999999987
 21
2.165063509461171
 31
0.0
210
0.0
220
0.0
230
1.0
 40
0.5773502691896255
 41
3.579741684173539
 42
5.845036276595005
  0
ELLIPSE
  5
19DA0
330
19D40
100
AcDbEntity
  8
0
100
AcDbEllipse
 10
80.74874927211707
 20
-67.89333334613134
 30
0.0
 11
1.250000000000131
 21
-2.165063509461022
 31
0.0
210
0.0
220
0.0
230
1.0
 40
0.5773502691896257
 41
3.579741684173541
 42
5.845036276594997
  0
ELLIPSE
  5
19DA1
330
19D40
100
AcDbEntity
  8
0
100
AcDbEllipse
 10
80.74874927211704
 20
-35.23347010902231
 30
0.0
 11
1.250000000000131
 21
-2.165063509461022
 31
0.0
210
0.0
220
0.0
230
1.0
 40
0.5773502691896257
 41
3.579741684173541
 42
5.845036276594997
  0
ELLIPSE
  5
19DA2
330
19D40
100
AcDbEntity
  8
0
100
AcDbEllipse
 10
80.74874927211702
 20
-2.573606871913272
 30
0.0
 11
1.250000000000131
 21
-2.165063509461022
 31
0.0
210
0.0
220
0.0
230
1.0
 40
0.5773502691896259
 41
3.579741684173537
 42
5.845036276594997
  0
ELLIPSE
  5
19DA3
330
19D40
100
AcDbEntity
  8
0
100
AcDbEllipse
 10
80.748749272117
 20
30.08625636519575
 30
0.0
 11
1.250000000000131
 21
-2.165063509461022
 31
0.0
210
0.0
220
0.0
230
1.0
 40
0.5773502691896259
 41
3.579741684173537
 42
5.845036276594997
  0
ELLIPSE
  5
19DA4
330
19D40
100
AcDbEntity
  8
0
100
AcDbEllipse
 10
96.30509845822111
 20
-52.37989830850455
 30
0.0
 11
1.250000000000131
 21
-2.16506350946102
 31
0.0
210
0.0
220
0.0
230
1.0
 40
0.5773502691896258
 41
3.579741684173548
 42
5.845036276594996
  0
ELLIPSE
  5
19DA5
330
19D40
100
AcDbEntity
  8
0
100
AcDbEllipse
 10
96.30509845822107
 20
-19.72003507139553
 30
0.0
 11
1.25000000000013
 21
-2.165063509461021
 31
0.0
210
0.0
220
0.0
230
1.0
 40
0.5773502691896258
 41
3.579741684173548
 42
5.845036276594997
  0
ELLIPSE
  5
19DA6
330
19D40
100
AcDbEntity
  8
0
100
AcDbEllipse
 10
96.30509845822105
 20
12.9398281657135
 30
0.0
 11
1.25000000000013
 21
-2.165063509461021
 31
0.0
210
0.0
220
0.0
230
1.0
 40
0.5773502691896258
 41
3.579741684173548
 42
5.845036276594997
  0
ELLIPSE
  5
19DA7
330
19D40
100
AcDbEntity
  8
0
100
AcDbEllipse
 10
80.74874927211702
 20
62.7461196023048
 30
0.0
 11
1.250000000000131
 21
-2.165063509461022
 31
0.0
210
0.0
220
0.0
230
1.0
 40
0.5773502691896259
 41
3.579741684173544
 42
5.845036276594996
  0
ELLIPSE
  5
19DA8
330
19D40
100
AcDbEntity
  8
0
100
AcDbEllipse
 10
96.30509845822105
 20
45.59969140282254
 30
0.0
 11
1.250000000000131
 21
-2.165063509461022
 31
0.0
210
0.0
220
0.0
230
1.0
 40
0.5773502691896259
 41
3.579741684173548
 42
5.845036276595006
  0
ELLIPSE
  5
19DA9
330
19D40
100
AcDbEntity
  8
0
100
AcDbEllipse
 10
96.30509845822105
 20
29.26975978426803
 30
0.0
 11
1.25000000000013
 21
-2.165063509461021
 31
0.0
210
0.0
220
0.0
230
1.0
 40
0.5773502691896258
 41
3.579741684173548
 42
5.845036276595008
  0
ELLIPSE
  5
19DAA
330
19D40
100
AcDbEntity
  8
0
100
AcDbEllipse
 10
96.30509845822107
 20
-3.390103452841017
 30
0.0
 11
1.25000000000013
 21
-2.165063509461021
 31
0.0
210
0.0
220
0.0
230
1.0
 40
0.5773502691896258
 41
3.579741684173546
 42
5.845036276594997
  0
ELLIPSE
  5
19DAB
330
19D40
100
AcDbEntity
  8
0
100
AcDbEllipse
 10
96.30509845822107
 20
-36.04996668995003
 30
0.0
 11
1.250000000000131
 21
-2.16506350946102
 31
0.0
210
0.0
220
0.0
230
1.0
 40
0.5773502691896258
 41
3.579741684173548
 42
5.845036276595007
  0
ELLIPSE
  5
19DAC
330
19D40
100
AcDbEntity
  8
0
100
AcDbEllipse
 10
96.30509845822111
 20
-68.70982992705906
 30
0.0
 11
1.250000000000131
 21
-2.16506350946102
 31
0.0
210
0.0
220
0.0
230
1.0
 40
0.5773502691896257
 41
3.579741684173548
 42
5.845036276595008
  0
ELLIPSE
  5
19DAD
330
19D40
100
AcDbEntity
  8
0
100
AcDbEllipse
 10
80.74874927211702
 20
46.41618798375026
 30
0.0
 11
1.250000000000131
 21
-2.165063509461022
 31
0.0
210
0.0
220
0.0
230
1.0
 40
0.5773502691896259
 41
3.579741684173544
 42
5.845036276594996
  0
ELLIPSE
  5
19DAE
330
19D40
100
AcDbEntity
  8
0
100
AcDbEllipse
 10
80.74874927211702
 20
13.75632474664123
 30
0.0
 11
1.250000000000131
 21
-2.165063509461022
 31
0.0
210
0.0
220
0.0
230
1.0
 40
0.5773502691896259
 41
3.579741684173537
 42
5.845036276594997
  0
ELLIPSE
  5
19DAF
330
19D40
100
AcDbEntity
  8
0
100
AcDbEllipse
 10
80.74874927211704
 20
-18.90353849046779
 30
0.0
 11
1.250000000000131
 21
-2.165063509461022
 31
0.0
210
0.0
220
0.0
230
1.0
 40
0.5773502691896259
 41
3.579741684173537
 42
5.845036276594997
  0
ELLIPSE
  5
19DB0
330
19D40
100
AcDbEntity
  8
0
100
AcDbEllipse
 10
80.74874927211704
 20
-51.56340172757682
 30
0.0
 11
1.250000000000131
 21
-2.165063509461022
 31
0.0
210
0.0
220
0.0
230
1.0
 40
0.5773502691896257
 41
3.579741684173541
 42
5.845036276594997
  0
ELLIPSE
  5
19DB1
330
19D40
100
AcDbEntity
  8
0
100
AcDbEllipse
 10
79.68808910033724
 20
-52.17577416327261
 30
0.0
 11
1.249999999999872
 21
-2.16506350946117
 31
0.0
210
0.0
220
0.0
230
1.0
 40
0.5773502691896258
 41
0.0
 42
6.283185307179586
  0
ELLIPSE
  5
19DB2
330
19D40
100
AcDbEntity
  8
0
100
AcDbEllipse
 10
79.68808910033722
 20
-19.51591092616358
 30
0.0
 11
1.249999999999872
 21
-2.16506350946117
 31
0.0
210
0.0
220
0.0
230
1.0
 40
0.5773502691896258
 41
0.0
 42
6.283185307179586
  0
ELLIPSE
  5
19DB3
330
19D40
100
AcDbEntity
  8
0
100
AcDbEllipse
 10
79.68808910033721
 20
13.14395231094544
 30
0.0
 11
1.249999999999872
 21
-2.16506350946117
 31
0.0
210
0.0
220
0.0
230
1.0
 40
0.5773502691896258
 41
0.0
 42
6.283185307179586
  0
ELLIPSE
  5
19DB4
330
19D40
100
AcDbEntity
  8
0
100
AcDbEllipse
 10
79.68808910033722
 20
45.80381554805447
 30
0.0
 11
1.249999999999872
 21
-2.16506350946117
 31
0.0
210
0.0
220
0.0
230
1.0
 40
0.5773502691896258
 41
0.0
 42
6.283185307179586
  0
ELLIPSE
  5
19DB5
330
19D40
100
AcDbEntity
  8
0
100
AcDbEllipse
 10
95.24443828644127
 20
-69.32220236275485
 30
0.0
 11
1.249999999999872
 21
-2.16506350946117
 31
0.0
210
0.0
220
0.0
230
1.0
 40
0.5773502691896258
 41
0.0
 42
6.283185307179586
  0
ELLIPSE
  5
19DB6
330
19D40
100
AcDbEntity
  8
0
100
AcDbEllipse
 10
95.24443828644127
 20
-36.66233912564582
 30
0.0
 11
1.249999999999872
 21
-2.16506350946117
 31
0.0
210
0.0
220
0.0
230
1.0
 40
0.5773502691896258
 41
0.0
 42
6.283185307179586
  0
ELLIPSE
  5
19DB7
330
19D40
100
AcDbEntity
  8
0
100
AcDbEllipse
 10
95.24443828644125
 20
-4.002475888536807
 30
0.0
 11
1.249999999999872
 21
-2.16506350946117
 31
0.0
210
0.0
220
0.0
230
1.0
 40
0.5773502691896258
 41
0.0
 42
6.283185307179586
  0
ELLIPSE
  5
19DB8
330
19D40
100
AcDbEntity
  8
0
100
AcDbEllipse
 10
95.24443828644123
 20
28.65738734857224
 30
0.0
 11
1.249999999999872
 21
-2.16506350946117
 31
0.0
210
0.0
220
0.0
230
1.0
 40
0.5773502691896258
 41
0.0
 42
6.283185307179586
  0
ELLIPSE
  5
19DB9
330
19D40
100
AcDbEntity
  8
0
100
AcDbEllipse
 10
95.24443828644123
 20
44.98731896712675
 30
0.0
 11
1.249999999999872
 21
-2.16506350946117
 31
0.0
210
0.0
220
0.0
230
1.0
 40
0.5773502691896258
 41
0.0
 42
6.283185307179586
  0
ELLIPSE
  5
19DBA
330
19D40
100
AcDbEntity
  8
0
100
AcDbEllipse
 10
79.68808910033721
 20
62.13374716660901
 30
0.0
 11
1.249999999999872
 21
-2.16506350946117
 31
0.0
210
0.0
220
0.0
230
1.0
 40
0.5773502691896258
 41
0.0
 42
6.283185307179586
  0
ELLIPSE
  5
19DBB
330
19D40
100
AcDbEntity
  8
0
100
AcDbEllipse
 10
95.24443828644125
 20
12.32745573001771
 30
0.0
 11
1.249999999999872
 21
-2.16506350946117
 31
0.0
210
0.0
220
0.0
230
1.0
 40
0.5773502691896258
 41
0.0
 42
6.283185307179586
  0
ELLIPSE
  5
19DBC
330
19D40
100
AcDbEntity
  8
0
100
AcDbEllipse
 10
95.24443828644125
 20
-20.33240750709132
 30
0.0
 11
1.249999999999872
 21
-2.16506350946117
 31
0.0
210
0.0
220
0.0
230
1.0
 40
0.5773502691896258
 41
0.0
 42
6.283185307179586
  0
ELLIPSE
  5
19DBD
330
19D40
100
AcDbEntity
  8
0
100
AcDbEllipse
 10
95.24443828644127
 20
-52.99227074420034
 30
0.0
 11
1.249999999999872
 21
-2.16506350946117
 31
0.0
210
0.0
220
0.0
230
1.0
 40
0.5773502691896258
 41
0.0
 42
6.283185307179586
  0
ELLIPSE
  5
19DBE
330
19D40
100
AcDbEntity
  8
0
100
AcDbEllipse
 10
89.9411374275421
 20
-62.17785727963707
 30
0.0
 11
1.250000000000001
 21
-2.165063509461095
 31
0.0
210
0.0
220
0.0
230
1.0
 40
0.5773502691896258
 41
6.233921968359851
 42
7.903244972794324
  0
ELLIPSE
  5
19DBF
330
19D40
100
AcDbEntity
  8
0
100
AcDbEllipse
 10
79.68808910033721
 20
29.47388392949996
 30
0.0
 11
1.249999999999872
 21
-2.16506350946117
 31
0.0
210
0.0
220
0.0
230
1.0
 40
0.5773502691896258
 41
0.0
 42
6.283185307179586
  0
ELLIPSE
  5
19DC0
330
19D40
100
AcDbEntity
  8
0
100
AcDbEllipse
 10
79.68808910033722
 20
-3.185979307609061
 30
0.0
 11
1.249999999999872
 21
-2.16506350946117
 31
0.0
210
0.0
220
0.0
230
1.0
 40
0.5773502691896258
 41
0.0
 42
6.283185307179586
  0
ELLIPSE
  5
19DC1
330
19D40
100
AcDbEntity
  8
0
100
AcDbEllipse
 10
79.68808910033722
 20
-35.8458425447181
 30
0.0
 11
1.249999999999872
 21
-2.16506350946117
 31
0.0
210
0.0
220
0.0
230
1.0
 40
0.5773502691896258
 41
0.0
 42
6.283185307179586
  0
ELLIPSE
  5
19DC2
330
19D40
100
AcDbEntity
  8
0
100
AcDbEllipse
 10
79.68808910033724
 20
-68.50570578182713
 30
0.0
 11
1.249999999999872
 21
-2.16506350946117
 31
0.0
210
0.0
220
0.0
230
1.0
 40
0.5773502691896258
 41
0.0
 42
6.283185307179586
  0
ELLIPSE
  5
19DC3
330
19D40
100
AcDbEntity
  8
0
100
AcDbEllipse
 10
-18.24620009399963
 20
-88.71399615978814
 30
0.0
 11
-2.5
 21
-0.0000000000001488
 31
0.0
210
0.0
220
0.0
230
1.0
 40
0.577350269189626
 41
3.579741684173548
 42
5.845036276595009
  0
ELLIPSE
  5
19DC4
330
19D40
100
AcDbEntity
  8
0
100
AcDbEllipse
 10
-18.24620009399963
 20
-87.48925128839657
 30
0.0
 11
-2.5
 21
0.0000000000001496
 31
0.0
210
0.0
220
0.0
230
1.0
 40
0.5773502691896259
 41
0.0
 42
6.283185307179586
  0
ELLIPSE
  5
19DC5
330
19D40
100
AcDbEntity
  8
0
100
AcDbEllipse
 10
-4.104064470268689
 20
-80.54903035051086
 30
0.0
 11
-2.5
 21
-0.0000000000001488
 31
0.0
210
0.0
220
0.0
230
1.0
 40
0.577350269189626
 41
3.579741684173548
 42
5.845036276595008
  0
ELLIPSE
  5
19DC6
330
19D40
100
AcDbEntity
  8
0
100
AcDbEllipse
 10
-4.104064470268689
 20
-79.32428547911929
 30
0.0
 11
-2.5
 21
0.0000000000001496
 31
0.0
210
0.0
220
0.0
230
1.0
 40
0.5773502691896259
 41
0.0
 42
6.283185307179586
  0
ELLIPSE
  5
19DC7
330
19D40
100
AcDbEntity
  8
0
100
AcDbEllipse
 10
-35.21676284247674
 20
121.5338734291012
 30
0.0
 11
1.250000000000129
 21
-2.165063509461021
 31
0.0
210
0.0
220
0.0
230
1.0
 40
0.5773502691896266
 41
3.579741684173544
 42
5.845036276595006
  0
ELLIPSE
  5
19DC8
330
19D40
100
AcDbEntity
  8
0
100
AcDbEllipse
 10
-19.66041365637266
 20
120.7173768481734
 30
0.0
 11
1.250000000000129
 21
-2.165063509461021
 31
0.0
210
0.0
220
0.0
230
1.0
 40
0.5773502691896266
 41
3.579741684173544
 42
5.845036276595002
  0
ELLIPSE
  5
19DC9
330
19D40
100
AcDbEntity
  8
0
100
AcDbEllipse
 10
-36.27742301425654
 20
120.9215009934054
 30
0.0
 11
-1.24999999999987
 21
2.16506350946117
 31
0.0
210
0.0
220
0.0
230
0.9999999999999998
 40
0.5773502691896267
 41
0.0
 42
6.283185307179586
  0
ELLIPSE
  5
19DCA
330
19D40
100
AcDbEntity
  8
0
100
AcDbEllipse
 10
-20.72107382815247
 20
120.1050044124776
 30
0.0
 11
-1.24999999999987
 21
2.16506350946117
 31
0.0
210
0.0
220
0.0
230
0.9999999999999998
 40
0.5773502691896267
 41
0.0
 42
6.283185307179586
  0
ELLIPSE
  5
19DCB
330
19D40
100
AcDbEntity
  8
0
100
AcDbEllipse
 10
-36.27742301425656
 20
104.5915693748509
 30
0.0
 11
-1.25
 21
2.165063509461096
 31
0.0
210
0.0
220
0.0
230
1.0
 40
0.5773502691896264
 41
6.141288252575799
 42
6.425082361783379
  0
ELLIPSE
  5
19DCC
330
19D40
100
AcDbEntity
  8
0
100
AcDbEllipse
 10
-40.87361709196915
 20
-13.59631071443736
 30
0.0
 11
1.24999999999987
 21
2.165063509461172
 31
0.0
210
0.0
220
0.0
230
0.9999999999999998
 40
0.5773502691896253
 41
3.579741684173544
 42
5.845036276595002
  0
ELLIPSE
  5
19DCD
330
19D40
100
AcDbEntity
  8
0
100
AcDbEllipse
 10
-39.81295692018934
 20
-14.20868315013315
 30
0.0
 11
-1.249999999999999
 21
-2.165063509461097
 31
0.0
210
0.0
220
0.0
230
0.9999999999999998
 40
0.5773502691896254
 41
0.0
 42
6.283185307179586
  0
ELLIPSE
  5
19DCE
330
19D40
100
AcDbEntity
  8
0
100
AcDbEllipse
 10
-40.87361709196914
 20
19.06355252267168
 30
0.0
 11
1.24999999999987
 21
2.165063509461171
 31
0.0
210
0.0
220
0.0
230
0.9999999999999998
 40
0.5773502691896255
 41
3.579741684173544
 42
5.845036276595006
  0
ELLIPSE
  5
19DCF
330
19D40
100
AcDbEntity
  8
0
100
AcDbEllipse
 10
-39.81295692018933
 20
18.45118008697589
 30
0.0
 11
-1.249999999999999
 21
-2.165063509461097
 31
0.0
210
0.0
220
0.0
230
0.9999999999999998
 40
0.5773502691896254
 41
0.0
 42
6.283185307179586
  0
ELLIPSE
  5
19DD0
330
19D40
100
AcDbEntity
  8
0
100
AcDbEllipse
 10
-40.87361709196914
 20
51.7234157597807
 30
0.0
 11
1.24999999999987
 21
2.165063509461171
 31
0.0
210
0.0
220
0.0
230
0.9999999999999998
 40
0.5773502691896255
 41
3.579741684173542
 42
5.845036276595007
  0
ELLIPSE
  5
19DD1
330
19D40
100
AcDbEntity
  8
0
100
AcDbEllipse
 10
-39.81295692018933
 20
51.11104332408491
 30
0.0
 11
-1.249999999999999
 21
-2.165063509461097
 31
0.0
210
0.0
220
0.0
230
0.9999999999999998
 40
0.5773502691896254
 41
0.0
 42
6.283185307179586
  0
ELLIPSE
  5
19DD2
330
19D40
100
AcDbEntity
  8
0
100
AcDbEllipse
 10
-40.87361709196912
 20
84.38327899688975
 30
0.0
 11
1.24999999999987
 21
2.165063509461171
 31
0.0
210
0.0
220
0.0
230
0.9999999999999998
 40
0.5773502691896253
 41
3.579741684173539
 42
5.845036276595005
  0
ELLIPSE
  5
19DD3
330
19D40
100
AcDbEntity
  8
0
100
AcDbEllipse
 10
-39.81295692018931
 20
83.77090656119396
 30
0.0
 11
-1.249999999999999
 21
-2.165063509461097
 31
0.0
210
0.0
220
0.0
230
0.9999999999999998
 40
0.5773502691896254
 41
0.0
 42
6.283185307179586
  0
ELLIPSE
  5
19DD4
330
19D40
100
AcDbEntity
  8
0
100
AcDbEllipse
 10
-40.87361709196911
 20
100.7132106154442
 30
0.0
 11
1.24999999999987
 21
2.165063509461171
 31
0.0
210
0.0
220
0.0
230
1.0
 40
0.5773502691896254
 41
3.579741684173539
 42
5.845036276595005
  0
ELLIPSE
  5
19DD5
330
19D40
100
AcDbEntity
  8
0
100
AcDbEllipse
 10
-39.8129569201893
 20
100.1008381797485
 30
0.0
 11
-1.249999999999999
 21
-2.165063509461097
 31
0.0
210
0.0
220
0.0
230
0.9999999999999998
 40
0.5773502691896254
 41
0.0
 42
6.283185307179586
  0
ELLIPSE
  5
19DD6
330
19D40
100
AcDbEntity
  8
0
100
AcDbEllipse
 10
-40.87361709196912
 20
68.05334737833522
 30
0.0
 11
1.24999999999987
 21
2.165063509461171
 31
0.0
210
0.0
220
0.0
230
0.9999999999999998
 40
0.5773502691896255
 41
3.579741684173544
 42
5.845036276595006
  0
ELLIPSE
  5
19DD7
330
19D40
100
AcDbEntity
  8
0
100
AcDbEllipse
 10
-39.81295692018932
 20
67.44097494263943
 30
0.0
 11
-1.249999999999999
 21
-2.165063509461097
 31
0.0
210
0.0
220
0.0
230
0.9999999999999998
 40
0.5773502691896254
 41
0.0
 42
6.283185307179586
  0
ELLIPSE
  5
19DD8
330
19D40
100
AcDbEntity
  8
0
100
AcDbEllipse
 10
-40.87361709196914
 20
35.39348414122621
 30
0.0
 11
1.24999999999987
 21
2.165063509461171
 31
0.0
210
0.0
220
0.0
230
0.9999999999999998
 40
0.5773502691896255
 41
3.579741684173544
 42
5.845036276595007
  0
ELLIPSE
  5
19DD9
330
19D40
100
AcDbEntity
  8
0
100
AcDbEllipse
 10
-39.81295692018933
 20
34.78111170553042
 30
0.0
 11
-1.249999999999999
 21
-2.165063509461097
 31
0.0
210
0.0
220
0.0
230
0.9999999999999998
 40
0.5773502691896254
 41
0.0
 42
6.283185307179586
  0
ELLIPSE
  5
19DDA
330
19D40
100
AcDbEntity
  8
0
100
AcDbEllipse
 10
-40.87361709196914
 20
2.733620904117151
 30
0.0
 11
1.249999999999869
 21
2.165063509461171
 31
0.0
210
0.0
220
0.0
230
1.0
 40
0.5773502691896255
 41
3.579741684173544
 42
5.845036276595002
  0
ELLIPSE
  5
19DDB
330
19D40
100
AcDbEntity
  8
0
100
AcDbEllipse
 10
-39.81295692018933
 20
2.121248468421361
 30
0.0
 11
-1.249999999999999
 21
-2.165063509461097
 31
0.0
210
0.0
220
0.0
230
0.9999999999999998
 40
0.5773502691896254
 41
0.0
 42
6.283185307179586
  0
ELLIPSE
  5
19DDC
330
19D40
100
AcDbEntity
  8
0
100
AcDbEllipse
 10
-40.87361709196915
 20
-29.92624233299189
 30
0.0
 11
1.24999999999987
 21
2.165063509461172
 31
0.0
210
0.0
220
0.0
230
0.9999999999999998
 40
0.5773502691896253
 41
3.579741684173544
 42
5.845036276595
  0
ELLIPSE
  5
19DDD
330
19D40
100
AcDbEntity
  8
0
100
AcDbEllipse
 10
-39.81295692018934
 20
-30.53861476868767
 30
0.0
 11
-1.249999999999999
 21
-2.165063509461097
 31
0.0
210
0.0
220
0.0
230
0.9999999999999998
 40
0.5773502691896254
 41
0.0
 42
6.283185307179586
  0
ELLIPSE
  5
19DDE
330
19D40
100
AcDbEntity
  8
0
100
AcDbEllipse
 10
88.52692386516904
 20
-60.13661582731794
 30
0.0
 11
-2.750000000000004
 21
4.763139720814411
 31
0.0
210
0.0
220
0.0
230
1.0
 40
0.5773502691896255
 41
0.1940630974185652
 42
2.947529556171232
  0
ELLIPSE
  5
19DDF
330
19D40
100
AcDbEntity
  8
0
100
AcDbEllipse
 10
88.52692386516904
 20
-2.981855162377149
 30
0.0
 11
-2.750000000000003
 21
4.763139720814412
 31
0.0
210
0.0
220
0.0
230
1.0
 40
0.5773502691896257
 41
0.194063097418565
 42
2.947529556171232
  0
ELLIPSE
  5
19DE0
330
19D40
100
AcDbEntity
  8
0
100
AcDbEllipse
 10
88.52692386516904
 20
46.0079396932864
 30
0.0
 11
-2.750000000000003
 21
4.763139720814412
 31
0.0
210
0.0
220
0.0
230
1.0
 40
0.5773502691896257
 41
0.1940630974185696
 42
2.947529556171232
  0
ELLIPSE
  5
19DE1
330
19D40
100
AcDbEntity
  8
0
100
AcDbEllipse
 10
87.46626369338924
 20
-60.74898826301373
 30
0.0
 11
2.750000000000004
 21
-4.763139720814409
 31
0.0
210
0.0
220
0.0
230
0.9999999999999998
 40
0.5773502691896259
 41
1.128967183523375
 42
6.725014450451214
  0
ELLIPSE
  5
19DE2
330
19D40
100
AcDbEntity
  8
0
100
AcDbEllipse
 10
87.46626369338924
 20
45.39556725759061
 30
0.0
 11
2.749999999999719
 21
-4.763139720814574
 31
0.0
210
0.0
220
0.0
230
1.0
 40
0.5773502691896259
 41
0.0
 42
6.283185307179586
  0
ELLIPSE
  5
19DE3
330
19D40
100
AcDbEntity
  8
0
100
AcDbEllipse
 10
87.46626369338924
 20
-3.594227598072938
 30
0.0
 11
2.749999999999719
 21
-4.763139720814574
 31
0.0
210
0.0
220
0.0
230
1.0
 40
0.5773502691896259
 41
0.0
 42
6.283185307179586
  0
LINE
  5
19DE4
330
19D40
100
AcDbEntity
  8
0
100
AcDbLine
 10
91.25117520546739
 20
-64.30475577564253
 30
0.0
 11
91.12806666739109
 21
-64.37583252324043
 31
0.0
  0
ELLIPSE
  5
19DE5
330
19D40
100
AcDbEntity
  8
0
100
AcDbEllipse
 10
-27.43858824942472
 20
112.9606593293601
 30
0.0
 11
-2.75
 21
4.763139720814412
 31
0.0
210
0.0
220
0.0
230
1.0
 40
0.5773502691896266
 41
0.1940630974185646
 42
1.635123115623779
  0
ELLIPSE
  5
19DE6
330
19D40
100
AcDbEntity
  8
0
100
AcDbEllipse
 10
-28.49924842120451
 20
112.3482868936643
 30
0.0
 11
-2.750000000000002
 21
4.763139720814413
 31
0.0
210
0.0
220
0.0
230
1.0
 40
0.5773502691896264
 41
4.648062191555805
 42
7.918308422803365
  0
ENDBLK
  5
19D42
330
19D40
100
AcDbEntity
  8
0
100
AcDbBlockEnd
  0
ENDSEC
  0
SECTION
  2
ENTITIES
  0
INSERT
  5
19DE7
330
1F
100
AcDbEntity
  8
0
100
AcDbBlockReference
  2
SAEX500_120_15-Front
 10
0.0
 20
0.0
 30
0.0
  0
INSERT
  5
19DE8
330
1F
100
AcDbEntity
  8
0
100
AcDbBlockReference
  2
SAEX500_120_15-Left
 10
158.9500000000001
 20
0.0
 30
0.0
  0
INSERT
  5
19DE9
330
1F
100
AcDbEntity
  8
0
100
AcDbBlockReference
  2
SAEX500_120_15-Right
 10
-158.95
 20
0.0
 30
0.0
  0
INSERT
  5
19DEA
330
1F
100
AcDbEntity
  8
0
100
AcDbBlockReference
  2
SAEX500_120_15-Top
 10
0.0
 20
-58.95000000000008
 30
0.0
  0
INSERT
  5
19DEB
330
1F
100
AcDbEntity
  8
0
100
AcDbBlockReference
  2
SAEX500_120_15-Bottom
 10
0.0
 20
247.4500000000001
 30
0.0
  0
INSERT
  5
19DEC
330
1F
100
AcDbEntity
  8
0
100
AcDbBlockReference
  2
SAEX500_120_15-ISO
 10
232.7898688547706
 20
-196.2014326119601
 30
0.0
  0
MTEXT
  5
19DED
330
1F
100
AcDbEntity
  8
0
100
AcDbMText
 10
0.0
 20
-203.4000000000001
 30
0.0
 40
14.45
 41
0.0
 71
     5
 72
     5
  1
SAEX500/120/1,5
 73
     1
 44
1.0
1001
ACAD
1000
MTEXTBEGIN
1070
    73
1070
     1
1070
    44
1040
1.0
1070
    74
1070
     0
1000
MTEXTEND
  0
ENDSEC
  0
SECTION
  2
OBJECTS
  0
DICTIONARY
  5
C
330
0
100
AcDbDictionary
281
     1
  3
ACAD_CIP_PREVIOUS_PRODUCT_INFO
350
216
  3
ACAD_COLOR
350
6B
  3
ACAD_DETAILVIEWSTYLE
350
21B
  3
ACAD_GROUP
350
D
  3
ACAD_LAYOUT
350
1A
  3
ACAD_MATERIAL
350
6A
  3
ACAD_MLEADERSTYLE
350
12D
  3
ACAD_MLINESTYLE
350
17
  3
ACAD_PLOTSETTINGS
350
19
  3
ACAD_PLOTSTYLENAME
350
E
  3
ACAD_SCALELIST
350
10C
  3
ACAD_SECTIONVIEWSTYLE
350
219
  3
ACAD_TABLESTYLE
350
7E
  3
ACAD_VISUALSTYLE
350
EF
  3
ACDB_RECOMPOSE_DATA
350
19EEE
  3
AcDbVariableDictionary
350
5E
  3
DWGPROPS
350
19EEF
  0
DICTIONARY
  5
19E3E
330
8
100
AcDbDictionary
280
     1
281
     1
  0
DICTIONARY
  5
1FF
330
2
100
AcDbDictionary
280
     1
281
     1
  3
ACAD_LAYERSTATES
360
200
  0
DICTIONARY
  5
13C
330
10
100
AcDbDictionary
280
     1
281
     1
  0
DICTIONARY
  5
1CE
330
1F
100
AcDbDictionary
280
     1
281
     1
  3
ACAD_LAYOUTSELFREF
360
19E46
  0
DICTIONARY
  5
19DF1
330
D2
100
AcDbDictionary
280
     1
281
     1
  3
ACAD_LAYOUTSELFREF
360
19E4F
  0
DICTIONARY
  5
19DF3
330
D6
100
AcDbDictionary
280
     1
281
     1
  3
ACAD_LAYOUTSELFREF
360
19E52
  0
XRECORD
  5
216
102
{ACAD_REACTORS
330
C
102
}
330
C
100
AcDbXrecord
280
     1
300
ACD
300
2021
300

  0
DICTIONARY
  5
6B
102
{ACAD_REACTORS
330
C
102
}
330
C
100
AcDbDictionary
281
     1
  0
DICTIONARY
  5
21B
102
{ACAD_REACTORS
330
C
102
}
330
C
100
AcDbDictionary
281
     1
  3
Metric50
350
21C
  0
DICTIONARY
  5
D
102
{ACAD_REACTORS
330
C
102
}
330
C
100
AcDbDictionary
281
     1
  0
DICTIONARY
  5
1A
102
{ACAD_REACTORS
330
C
102
}
330
C
100
AcDbDictionary
281
     1
  3
Layout1
350
D3
  3
Layout2
350
D7
  3
Model
350
22
  0
DICTIONARY
  5
6A
102
{ACAD_REACTORS
330
C
102
}
330
C
100
AcDbDictionary
281
     1
  3
ByBlock
350
ED
  3
ByLayer
350
EC
  3
Global
350
EE
  0
DICTIONARY
  5
12D
102
{ACAD_REACTORS
330
C
102
}
330
C
100
AcDbDictionary
281
     1
  3
Standard
350
12E
  0
DICTIONARY
  5
17
102
{ACAD_REACTORS
330
C
102
}
330
C
100
AcDbDictionary
281
     1
  3
Standard
350
18
  0
DICTIONARY
  5
19
102
{ACAD_REACTORS
330
C
102
}
330
C
100
AcDbDictionary
281
     1
  0
ACDBDICTIONARYWDFLT
  5
E
102
{ACAD_REACTORS
330
C
102
}
330
C
100
AcDbDictionary
281
     1
  3
Normal
350
F
100
AcDbDictionaryWithDefault
340
F
  0
DICTIONARY
  5
10C
102
{ACAD_REACTORS
330
C
102
}
330
C
100
AcDbDictionary
281
     1
  3
A0
350
10D
  3
A1
350
1BE
  3
A2
350
1BF
  3
A3
350
1C0
  3
A4
350
1C1
  3
A5
350
1C2
  3
A6
350
1C3
  3
A7
350
1C4
  3
A8
350
1C5
  3
A9
350
1C6
  3
B0
350
1C7
  3
B1
350
1C8
  3
B2
350
1C9
  3
B3
350
1CA
  3
B4
350
1CB
  3
B5
350
1CC
  3
B6
350
1CD
  0
DICTIONARY
  5
219
102
{ACAD_REACTORS
330
C
102
}
330
C
100
AcDbDictionary
281
     1
  3
Metric50
350
21A
  0
DICTIONARY
  5
7E
102
{ACAD_REACTORS
330
C
102
}
330
C
100
AcDbDictionary
281
     1
  3
Standard
350
7F
  0
DICTIONARY
  5
EF
102
{ACAD_REACTORS
330
C
102
}
330
C
100
AcDbDictionary
281
     1
  3
2dWireframe
350
F5
  3
Basic
350
F4
  3
Brighten
350
FB
  3
ColorChange
350
FF
  3
Conceptual
350
F8
  3
Dim
350
FA
  3
EdgeColorOff
350
1E6
  3
Facepattern
350
FE
  3
Flat
350
F0
  3
FlatWithEdges
350
F1
  3
Gouraud
350
F2
  3
GouraudWithEdges
350
F3
  3
Hidden
350
F7
  3
JitterOff
350
1E4
  3
Linepattern
350
FD
  3
OverhangOff
350
1E5
  3
Realistic
350
F9
  3
Shaded
350
1F3
  3
Shaded with edges
350
1F2
  3
Shades of Gray
350
1EF
  3
Sketchy
350
1F0
  3
Thicken
350
FC
  3
Wireframe
350
F6
  3
X-Ray
350
1F1
  0
XRECORD
  5
19EEE
102
{ACAD_REACTORS
330
C
102
}
330
C
100
AcDbXrecord
280
     1
 90
        1
330
7F
  0
DICTIONARY
  5
5E
102
{ACAD_REACTORS
330
C
102
}
330
C
100
AcDbDictionary
281
     1
  3
CANNOSCALE
350
146
  3
CENTEREXE
350
259
  3
CENTERLTYPEFILE
350
25A
  3
CMLEADERSTYLE
350
145
  3
CTABLESTYLE
350
84
  3
CVIEWDETAILSTYLE
350
227
  3
CVIEWSECTIONSTYLE
350
228
  3
DIMASSOC
350
5F
  3
HIDETEXT
350
63
  3
INDEXCTL
350
19E9B
  3
LAYEREVAL
350
1AE
  3
LAYERNOTIFY
350
1AF
  3
LIGHTINGUNITS
350
19E99
  3
MSLTSCALE
350
19E98
  3
PSOLHEIGHT
350
19EEB
  3
PSOLWIDTH
350
19EEA
  3
SORTENTS
350
19E9A
  3
XCLIPFRAME
350
19EEC
  0
XRECORD
  5
19EEF
102
{ACAD_REACTORS
330
C
102
}
330
C
100
AcDbXrecord
280
     1
  1
DWGPROPS COOKIE
  2

  3

  4

  6

  7

  8
tronnguyen
  9

300
=
301
=
302
=
303
=
304
=
305
=
306
=
307
=
308
=
309
=
 40
0.0084143518518519
 41
2460312.614849537
 42
2460312.639594908
  1

 90
        0
  0
DICTIONARY
  5
200
102
{ACAD_REACTORS
330
1FF
102
}
330
1FF
100
AcDbDictionary
281
     1
  0
XRECORD
  5
19E46
102
{ACAD_REACTORS
330
1CE
102
}
330
1CE
100
AcDbXrecord
280
     1
340
1F
  0
XRECORD
  5
19E4F
102
{ACAD_REACTORS
330
19DF1
102
}
330
19DF1
100
AcDbXrecord
280
     1
340
D2
  0
XRECORD
  5
19E52
102
{ACAD_REACTORS
330
19DF3
102
}
330
19DF3
100
AcDbXrecord
280
     1
340
D6
  0
ACDBDETAILVIEWSTYLE
  5
21C
102
{ACAD_XDICTIONARY
360
19F2E
102
}
102
{ACAD_REACTORS
330
21B
102
}
330
21B
100
AcDbModelDocViewStyle
 70
     0
  3
Metric50
290
     0
100
AcDbDetailViewStyle
 70
     0
 71
     0
 90
        3
 71
     1
340
11
 40
5.0
340
0
 40
5.0
300

 40
0.0
280
     1
 71
     2
340
16
 90
       25
 71
     3
340
11
 40
5.0
 90
        0
 40
15.0
 90
        1
300
%<\AcVar ViewDetailId>% (%<\AcVar ViewScale \f "%sn">%)
 71
     4
340
16
 90
       25
340
16
 90
       25
280
     0
  0
LAYOUT
  5
D3
102
{ACAD_XDICTIONARY
360
19EF3
102
}
102
{ACAD_REACTORS
330
1A
102
}
330
1A
100
AcDbPlotSettings
  1

  2
C:\Documents and Settings\basas\Application Data\Autodesk\AutoCAD 2005\R16.1\enu\plotters\Default Windows System Printer.pc3
  4

  6

 40
0.0
 41
0.0
 42
0.0
 43
0.0
 44
0.0
 45
0.0
 46
0.0
 47
0.0
 48
0.0
 49
0.0
140
0.0
141
0.0
142
1.0
143
1.0
 70
   688
 72
     0
 73
     0
 74
     5
  7

 75
    16
147
1.0
148
0.0
149
0.0
100
AcDbLayout
  1
Layout1
 70
     1
 71
     1
 10
0.0
 20
0.0
 11
12.0
 21
9.0
 12
0.0
 22
0.0
 32
0.0
 14
0.0
 24
0.0
 34
0.0
 15
0.0
 25
0.0
 35
0.0
146
0.0
 13
0.0
 23
0.0
 33
0.0
 16
1.0
 26
0.0
 36
0.0
 17
0.0
 27
1.0
 37
0.0
 76
     0
330
D2
  0
LAYOUT
  5
D7
102
{ACAD_XDICTIONARY
360
19EF5
102
}
102
{ACAD_REACTORS
330
1A
102
}
330
1A
100
AcDbPlotSettings
  1

  2
C:\Documents and Settings\basas\Application Data\Autodesk\AutoCAD 2005\R16.1\enu\plotters\Default Windows System Printer.pc3
  4

  6

 40
0.0
 41
0.0
 42
0.0
 43
0.0
 44
0.0
 45
0.0
 46
0.0
 47
0.0
 48
0.0
 49
0.0
140
0.0
141
0.0
142
1.0
143
1.0
 70
   688
 72
     0
 73
     0
 74
     5
  7

 75
    16
147
1.0
148
0.0
149
0.0
100
AcDbLayout
  1
Layout2
 70
     1
 71
     2
 10
0.0
 20
0.0
 11
12.0
 21
9.0
 12
0.0
 22
0.0
 32
0.0
 14
0.0
 24
0.0
 34
0.0
 15
0.0
 25
0.0
 35
0.0
146
0.0
 13
0.0
 23
0.0
 33
0.0
 16
1.0
 26
0.0
 36
0.0
 17
0.0
 27
1.0
 37
0.0
 76
     0
330
D6
  0
LAYOUT
  5
22
102
{ACAD_XDICTIONARY
360
19EF0
102
}
102
{ACAD_REACTORS
330
1A
102
}
330
1A
100
AcDbPlotSettings
  1

  2
none_device
  4
ISO_A4_(210.00_x_297.00_MM)
  6

 40
7.5
 41
20.0
 42
7.5
 43
20.0
 44
210.0
 45
297.0
 46
11.54999923706054
 47
-13.65000009536743
 48
0.0
 49
0.0
140
0.0
141
0.0
142
1.0
143
8.704084754739808
 70
 11952
 72
     1
 73
     0
 74
     0
  7

 75
     0
147
0.1148885871608098
148
0.0
149
0.0
100
AcDbLayout
  1
Model
 70
     1
 71
     0
 10
0.0
 20
0.0
 11
12.0
 21
9.0
 12
0.0
 22
0.0
 32
0.0
 14
0.0
 24
0.0
 34
0.0
 15
0.0
 25
0.0
 35
0.0
146
0.0
 13
0.0
 23
0.0
 33
0.0
 16
1.0
 26
0.0
 36
0.0
 17
0.0
 27
1.0
 37
0.0
 76
     0
330
1F
331
EA
1001
ACAD_PSEXT
1000
None
1000
None
1000
Not applicable
1000
The layout will not be plotted unless a new plotter configuration name is selected.
1070
     0
  0
MATERIAL
  5
ED
102
{ACAD_XDICTIONARY
360
1F9
102
}
102
{ACAD_REACTORS
330
6A
102
}
330
6A
100
AcDbMaterial
  1
ByBlock
  0
MATERIAL
  5
EC
102
{ACAD_XDICTIONARY
360
1F7
102
}
102
{ACAD_REACTORS
330
6A
102
}
330
6A
100
AcDbMaterial
  1
ByLayer
  0
MATERIAL
  5
EE
102
{ACAD_XDICTIONARY
360
173
102
}
102
{ACAD_REACTORS
330
6A
102
}
330
6A
100
AcDbMaterial
  1
Global
 43
0.0007999999797903
 43
0.0
 43
0.0
 43
0.0
 43
0.0
 43
0.0007999999797903
 43
0.0
 43
0.0
 43
0.0
 43
0.0
 43
1.0
 43
0.0
 43
0.0
 43
0.0
 43
0.0
 43
1.0
 49
0.0007999999797903
 49
0.0
 49
0.0
 49
0.0
 49
0.0
 49
0.0007999999797903
 49
0.0
 49
0.0
 49
0.0
 49
0.0
 49
1.0
 49
0.0
 49
0.0
 49
0.0
 49
0.0
 49
1.0
142
0.0007999999797903
142
0.0
142
0.0
142
0.0
142
0.0
142
0.0007999999797903
142
0.0
142
0.0
142
0.0
142
0.0
142
1.0
142
0.0
142
0.0
142
0.0
142
0.0
142
1.0
144
0.0007999999797903
144
0.0
144
0.0
144
0.0
144
0.0
144
0.0007999999797903
144
0.0
144
0.0
144
0.0
144
0.0
144
1.0
144
0.0
144
0.0
144
0.0
144
0.0
144
1.0
1001
ACAD
1070
    -1
1070
     3
1070
     0
1000

1071
        0
1070
     0
  0
MLEADERSTYLE
  5
12E
102
{ACAD_XDICTIONARY
360
19F1A
102
}
102
{ACAD_REACTORS
330
12D
102
}
330
12D
100
AcDbMLeaderStyle
170
     2
171
     1
172
     0
 90
        2
 40
0.0
 41
0.0
173
     1
 91
-1056964608
340
14
 92
       -2
290
     1
 42
2.0
291
     1
 43
8.0
  3
Standard
 44
4.0
300

342
11
174
     1
178
     1
175
     1
176
     0
 93
-1056964608
 45
4.0
292
     0
297
     0
 46
4.0
 94
-1056964608
 47
1.0
 49
1.0
140
1.0
293
     1
141
0.0
294
     1
177
     0
142
1.0
295
     0
296
     0
143
3.75
1001
ACAD_MLEADERVER
1070
     2
  0
MLINESTYLE
  5
18
102
{ACAD_REACTORS
330
17
102
}
330
17
100
AcDbMlineStyle
  2
STANDARD
 70
     0
  3

 62
   256
 51
90.0
 52
90.0
 71
     2
 49
0.5
 62
   256
  6
BYLAYER
 49
-0.5
 62
   256
  6
BYLAYER
  0
ACDBPLACEHOLDER
  5
F
102
{ACAD_REACTORS
330
E
102
}
330
E
  0
SCALE
  5
10D
102
{ACAD_REACTORS
330
10C
102
}
330
10C
100
AcDbScale
 70
     0
300
1:1
140
1.0
141
1.0
290
     1
  0
SCALE
  5
1BE
102
{ACAD_REACTORS
330
10C
102
}
330
10C
100
AcDbScale
 70
     0
300
1:2
140
1.0
141
2.0
290
     0
  0
SCALE
  5
1BF
102
{ACAD_REACTORS
330
10C
102
}
330
10C
100
AcDbScale
 70
     0
300
1:4
140
1.0
141
4.0
290
     0
  0
SCALE
  5
1C0
102
{ACAD_REACTORS
330
10C
102
}
330
10C
100
AcDbScale
 70
     0
300
1:5
140
1.0
141
5.0
290
     0
  0
SCALE
  5
1C1
102
{ACAD_REACTORS
330
10C
102
}
330
10C
100
AcDbScale
 70
     0
300
1:8
140
1.0
141
8.0
290
     0
  0
SCALE
  5
1C2
102
{ACAD_REACTORS
330
10C
102
}
330
10C
100
AcDbScale
 70
     0
300
1:10
140
1.0
141
10.0
290
     0
  0
SCALE
  5
1C3
102
{ACAD_REACTORS
330
10C
102
}
330
10C
100
AcDbScale
 70
     0
300
1:16
140
1.0
141
16.0
290
     0
  0
SCALE
  5
1C4
102
{ACAD_REACTORS
330
10C
102
}
330
10C
100
AcDbScale
 70
     0
300
1:20
140
1.0
141
20.0
290
     0
  0
SCALE
  5
1C5
102
{ACAD_REACTORS
330
10C
102
}
330
10C
100
AcDbScale
 70
     0
300
1:30
140
1.0
141
30.0
290
     0
  0
SCALE
  5
1C6
102
{ACAD_REACTORS
330
10C
102
}
330
10C
100
AcDbScale
 70
     0
300
1:40
140
1.0
141
40.0
290
     0
  0
SCALE
  5
1C7
102
{ACAD_REACTORS
330
10C
102
}
330
10C
100
AcDbScale
 70
     0
300
1:50
140
1.0
141
50.0
290
     0
  0
SCALE
  5
1C8
102
{ACAD_REACTORS
330
10C
102
}
330
10C
100
AcDbScale
 70
     0
300
1:100
140
1.0
141
100.0
290
     0
  0
SCALE
  5
1C9
102
{ACAD_REACTORS
330
10C
102
}
330
10C
100
AcDbScale
 70
     0
300
2:1
140
2.0
141
1.0
290
     0
  0
SCALE
  5
1CA
102
{ACAD_REACTORS
330
10C
102
}
330
10C
100
AcDbScale
 70
     0
300
4:1
140
4.0
141
1.0
290
     0
  0
SCALE
  5
1CB
102
{ACAD_REACTORS
330
10C
102
}
330
10C
100
AcDbScale
 70
     0
300
8:1
140
8.0
141
1.0
290
     0
  0
SCALE
  5
1CC
102
{ACAD_REACTORS
330
10C
102
}
330
10C
100
AcDbScale
 70
     0
300
10:1
140
10.0
141
1.0
290
     0
  0
SCALE
  5
1CD
102
{ACAD_REACTORS
330
10C
102
}
330
10C
100
AcDbScale
 70
     0
300
100:1
140
100.0
141
1.0
290
     0
  0
ACDBSECTIONVIEWSTYLE
  5
21A
102
{ACAD_XDICTIONARY
360
19F2C
102
}
102
{ACAD_REACTORS
330
219
102
}
330
219
100
AcDbModelDocViewStyle
 70
     0
  3
Metric50
290
     0
100
AcDbSectionViewStyle
 70
     0
 71
     0
 90
      102
 71
     1
340
11
 40
5.0
340
0
340
0
 40
5.0
300
I, O, Q, S, X, Z
 40
10.0
 90
        0
 40
2.5
 90
        0
 71
     2
340
16
 90
       25
340
16
 90
       50
 40
5.0
 40
2.5
 40
5.0
 71
     3
340
11
 40
5.0
 90
        0
 40
15.0
 90
        1
300
%<\AcVar ViewSectionStartId>%-%<\AcVar ViewSectionEndId>% (%<\AcVar ViewScale \f "%sn">%)
 71
     4
300
ANSI31
 40
1.0
 90
        0
290
     0
290
     0
 90
        6
 40
0.0
 40
1.570796326794896
 40
0.2617993877991494
 40
1.308996938995747
 40
-0.2617993877991494
 40
1.832595714594046
  0
TABLESTYLE
  5
7F
102
{ACAD_XDICTIONARY
360
162
102
}
102
{ACAD_REACTORS
330
7E
102
}
330
7E
100
AcDbTableStyle
  3
Standard
 70
     0
 71
     0
 40
1.5
 41
1.5
280
     0
281
     0
  7
Standard
140
4.5
170
     2
 62
     0
 63
     7
283
     0
274
    -2
284
     1
 64
     0
275
    -2
285
     1
 65
     0
276
    -2
286
     1
 66
     0
277
    -2
287
     1
 67
     0
278
    -2
288
     1
 68
     0
279
    -2
289
     1
 69
     0
  7
Standard
140
6.0
170
     5
 62
     0
 63
     7
283
     0
274
    -2
284
     1
 64
     0
275
    -2
285
     1
 65
     0
276
    -2
286
     1
 66
     0
277
    -2
287
     1
 67
     0
278
    -2
288
     1
 68
     0
279
    -2
289
     1
 69
     0
  7
Standard
140
4.5
170
     5
 62
     0
 63
     7
283
     0
274
    -2
284
     1
 64
     0
275
    -2
285
     1
 65
     0
276
    -2
286
     1
 66
     0
277
    -2
287
     1
 67
     0
278
    -2
288
     1
 68
     0
279
    -2
289
     1
 69
     0
  0
VISUALSTYLE
  5
F5
102
{ACAD_XDICTIONARY
360
19F04
102
}
102
{ACAD_REACTORS
330
EF
102
}
330
EF
100
AcDbVisualStyle
  2
2dWireframe
 70
     4
 71
     0
 72
     2
 73
     1
 90
        0
 40
-0.6
 41
-30.0
 62
     5
 63
     7
 74
     1
 91
        4
 64
     7
 65
   257
 75
     1
175
     1
 42
1.0
 92
        0
 66
   257
 43
1.0
 76
     1
 77
     6
 78
     2
 67
     7
 79
     5
170
     0
171
     0
290
     0
174
     0
 93
        1
 44
0.0
173
     0
291
     0
 45
0.0
1001
ACAD
1000
AcDbSavedByObjectVersion
1070
     0
  0
VISUALSTYLE
  5
F4
102
{ACAD_XDICTIONARY
360
19F02
102
}
102
{ACAD_REACTORS
330
EF
102
}
330
EF
100
AcDbVisualStyle
  2
Basic
 70
     7
 71
     1
 72
     0
 73
     1
 90
        0
 40
-0.6
 41
-30.0
 62
     5
 63
     7
 74
     0
 91
        4
 64
     7
 65
   257
 75
     1
175
     1
 42
1.0
 92
        8
 66
     7
 43
1.0
 76
     1
 77
     6
 78
     2
 67
     7
 79
     5
170
     0
171
     0
290
     0
174
     0
 93
        1
 44
0.0
173
     0
291
     1
 45
0.0
1001
ACAD
1000
AcDbSavedByObjectVersion
1070
     0
  0
VISUALSTYLE
  5
FB
102
{ACAD_XDICTIONARY
360
19F10
102
}
102
{ACAD_REACTORS
330
EF
102
}
330
EF
100
AcDbVisualStyle
  2
Brighten
 70
    12
 71
     2
 72
     2
 73
     1
 90
        0
 40
-0.6
 41
-30.0
 62
     5
 63
     7
 74
     1
 91
        4
 64
     7
 65
   257
 75
     1
175
     1
 42
1.0
 92
        8
 66
     7
 43
1.0
 76
     1
 77
     6
 78
     2
 67
     7
 79
     5
170
     0
171
     0
290
     0
174
     0
 93
        1
 44
50.0
173
     0
291
     1
 45
0.0
1001
ACAD
1000
AcDbSavedByObjectVersion
1070
     0
  0
VISUALSTYLE
  5
FF
102
{ACAD_XDICTIONARY
360
19F18
102
}
102
{ACAD_REACTORS
330
EF
102
}
330
EF
100
AcDbVisualStyle
  2
ColorChange
 70
    16
 71
     2
 72
     2
 73
     3
 90
        0
 40
-0.6
 41
-30.0
 62
     5
 63
     8
 74
     1
 91
        4
 64
     7
 65
   257
 75
     1
175
     1
 42
1.0
 92
        8
 66
     8
 43
1.0
 76
     1
 77
     6
 78
     2
 67
     7
 79
     5
170
     0
171
     0
290
     0
174
     0
 93
        1
 44
0.0
173
     0
291
     1
 45
0.0
1001
ACAD
1000
AcDbSavedByObjectVersion
1070
     0
  0
VISUALSTYLE
  5
F8
102
{ACAD_XDICTIONARY
360
19F0A
102
}
102
{ACAD_REACTORS
330
EF
102
}
330
EF
100
AcDbVisualStyle
  2
Conceptual
 70
     9
 71
     3
 72
     2
 73
     1
 90
        0
 40
-0.6
 41
-30.0
 62
     5
 63
     7
 74
     2
 91
        2
 64
     7
 65
   257
 75
     1
175
     1
 42
40.0
 92
        8
 66
     7
 43
1.0
 76
     1
 77
     6
 78
     2
 67
     7
 79
     3
170
     0
171
     0
290
     0
174
     0
 93
        1
 44
0.0
173
     0
291
     0
 45
0.0
1001
ACAD
1000
AcDbSavedByObjectVersion
1070
     0
  0
VISUALSTYLE
  5
FA
102
{ACAD_XDICTIONARY
360
19F0E
102
}
102
{ACAD_REACTORS
330
EF
102
}
330
EF
100
AcDbVisualStyle
  2
Dim
 70
    11
 71
     2
 72
     2
 73
     1
 90
        0
 40
-0.6
 41
-30.0
 62
     5
 63
     7
 74
     1
 91
        4
 64
     7
 65
   257
 75
     1
175
     1
 42
1.0
 92
        8
 66
     7
 43
1.0
 76
     1
 77
     6
 78
     2
 67
     7
 79
     5
170
     0
171
     0
290
     0
174
     0
 93
        1
 44
-50.0
173
     0
291
     1
 45
0.0
1001
ACAD
1000
AcDbSavedByObjectVersion
1070
     0
  0
VISUALSTYLE
  5
1E6
102
{ACAD_XDICTIONARY
360
19F20
102
}
102
{ACAD_REACTORS
330
EF
102
}
330
EF
100
AcDbVisualStyle
  2
EdgeColorOff
 70
    22
 71
     2
 72
     2
 73
     0
 90
        0
 40
-0.6
 41
-30.0
 62
     5
 63
     7
 74
     1
 91
        4
 64
     7
 65
   257
 75
     1
175
     1
 42
1.0
 92
        8
 66
     7
 43
1.0
 76
     1
 77
     6
 78
     2
 67
     7
 79
     5
170
     0
171
     0
290
     0
174
     0
 93
        1
 44
0.0
173
     0
291
     1
 45
0.0
1001
ACAD
1000
AcDbSavedByObjectVersion
1070
     0
  0
VISUALSTYLE
  5
FE
102
{ACAD_XDICTIONARY
360
19F16
102
}
102
{ACAD_REACTORS
330
EF
102
}
330
EF
100
AcDbVisualStyle
  2
Facepattern
 70
    15
 71
     2
 72
     2
 73
     1
 90
        0
 40
-0.6
 41
-30.0
 62
     5
 63
     7
 74
     1
 91
        4
 64
     7
 65
   257
 75
     1
175
     1
 42
1.0
 92
        8
 66
     7
 43
1.0
 76
     1
 77
     6
 78
     2
 67
     7
 79
     5
170
     0
171
     0
290
     0
174
     0
 93
        1
 44
0.0
173
     0
291
     1
 45
0.0
1001
ACAD
1000
AcDbSavedByObjectVersion
1070
     0
  0
VISUALSTYLE
  5
F0
102
{ACAD_XDICTIONARY
360
19EFA
102
}
102
{ACAD_REACTORS
330
EF
102
}
330
EF
100
AcDbVisualStyle
  2
Flat
 70
     0
 71
     2
 72
     1
 73
     1
 90
        2
 40
-0.6
 41
30.0
 62
     5
 63
     7
 74
     0
 91
        0
 64
     7
 65
   257
 75
     1
175
     1
 42
1.0
 92
        8
 66
     7
 43
1.0
 76
     1
 77
     6
 78
     2
 67
     7
 79
     5
170
     0
171
     0
290
     0
174
     0
 93
       13
 44
0.0
173
     0
291
     1
 45
0.0
1001
ACAD
1000
AcDbSavedByObjectVersion
1070
     0
  0
VISUALSTYLE
  5
F1
102
{ACAD_XDICTIONARY
360
19EFC
102
}
102
{ACAD_REACTORS
330
EF
102
}
330
EF
100
AcDbVisualStyle
  2
FlatWithEdges
 70
     1
 71
     2
 72
     1
 73
     1
 90
        2
 40
-0.6
 41
30.0
 62
     5
 63
     7
 74
     1
 91
        0
 64
     7
 65
   257
 75
     1
175
     1
 42
1.0
 92
        0
 66
   257
 43
1.0
 76
     1
 77
     6
 78
     2
 67
     7
 79
     5
170
     0
171
     0
290
     0
174
     0
 93
       13
 44
0.0
173
     0
291
     1
 45
0.0
1001
ACAD
1000
AcDbSavedByObjectVersion
1070
     0
  0
VISUALSTYLE
  5
F2
102
{ACAD_XDICTIONARY
360
19EFE
102
}
102
{ACAD_REACTORS
330
EF
102
}
330
EF
100
AcDbVisualStyle
  2
Gouraud
 70
     2
 71
     2
 72
     2
 73
     1
 90
        2
 40
-0.6
 41
30.0
 62
     5
 63
     7
 74
     0
 91
        0
 64
     7
 65
   257
 75
     1
175
     1
 42
1.0
 92
        0
 66
     7
 43
1.0
 76
     1
 77
     6
 78
     2
 67
     7
 79
     5
170
     0
171
     0
290
     0
174
     0
 93
       13
 44
0.0
173
     0
291
     1
 45
0.0
1001
ACAD
1000
AcDbSavedByObjectVersion
1070
     0
  0
VISUALSTYLE
  5
F3
102
{ACAD_XDICTIONARY
360
19F00
102
}
102
{ACAD_REACTORS
330
EF
102
}
330
EF
100
AcDbVisualStyle
  2
GouraudWithEdges
 70
     3
 71
     2
 72
     2
 73
     1
 90
        2
 40
-0.6
 41
30.0
 62
     5
 63
     7
 74
     1
 91
        0
 64
     7
 65
   257
 75
     1
175
     1
 42
1.0
 92
        0
 66
   257
 43
1.0
 76
     1
 77
     6
 78
     2
 67
     7
 79
     5
170
     0
171
     0
290
     0
174
     0
 93
       13
 44
0.0
173
     0
291
     1
 45
0.0
1001
ACAD
1000
AcDbSavedByObjectVersion
1070
     0
  0
VISUALSTYLE
  5
F7
102
{ACAD_XDICTIONARY
360
19F08
102
}
102
{ACAD_REACTORS
330
EF
102
}
330
EF
100
AcDbVisualStyle
  2
Hidden
 70
     6
 71
     1
 72
     2
 73
     2
 90
        0
 40
-0.6
 41
-30.0
 62
     5
 63
     7
 74
     2
 91
        2
 64
     7
 65
   257
 75
     2
175
     1
 42
40.0
 92
        0
 66
   257
 43
1.0
 76
     1
 77
     6
 78
     2
 67
     7
 79
     3
170
     0
171
     0
290
     0
174
     0
 93
        1
 44
0.0
173
     0
291
     0
 45
0.0
1001
ACAD
1000
AcDbSavedByObjectVersion
1070
     0
  0
VISUALSTYLE
  5
1E4
102
{ACAD_XDICTIONARY
360
19F1C
102
}
102
{ACAD_REACTORS
330
EF
102
}
330
EF
100
AcDbVisualStyle
  2
JitterOff
 70
    20
 71
     2
 72
     2
 73
     0
 90
        0
 40
-0.6
 41
-30.0
 62
     5
 63
     7
 74
     1
 91
        4
 64
     7
 65
   257
 75
     1
175
     1
 42
1.0
 92
       10
 66
     7
 43
1.0
 76
     1
 77
     6
 78
     2
 67
     7
 79
     5
170
     0
171
     0
290
     0
174
     0
 93
        1
 44
0.0
173
     0
291
     1
 45
0.0
1001
ACAD
1000
AcDbSavedByObjectVersion
1070
     0
  0
VISUALSTYLE
  5
FD
102
{ACAD_XDICTIONARY
360
19F14
102
}
102
{ACAD_REACTORS
330
EF
102
}
330
EF
100
AcDbVisualStyle
  2
Linepattern
 70
    14
 71
     2
 72
     2
 73
     1
 90
        0
 40
-0.6
 41
-30.0
 62
     5
 63
     7
 74
     1
 91
        4
 64
     7
 65
   257
 75
     7
175
     7
 42
1.0
 92
        8
 66
     7
 43
1.0
 76
     1
 77
     6
 78
     2
 67
     7
 79
     5
170
     0
171
     0
290
     0
174
     0
 93
        1
 44
0.0
173
     0
291
     1
 45
0.0
1001
ACAD
1000
AcDbSavedByObjectVersion
1070
     0
  0
VISUALSTYLE
  5
1E5
102
{ACAD_XDICTIONARY
360
19F1E
102
}
102
{ACAD_REACTORS
330
EF
102
}
330
EF
100
AcDbVisualStyle
  2
OverhangOff
 70
    21
 71
     2
 72
     2
 73
     0
 90
        0
 40
-0.6
 41
-30.0
 62
     5
 63
     7
 74
     1
 91
        4
 64
     7
 65
   257
 75
     1
175
     1
 42
1.0
 92
        9
 66
     7
 43
1.0
 76
     1
 77
     6
 78
     2
 67
     7
 79
     5
170
     0
171
     0
290
     0
174
     0
 93
        1
 44
0.0
173
     0
291
     1
 45
0.0
1001
ACAD
1000
AcDbSavedByObjectVersion
1070
     0
  0
VISUALSTYLE
  5
F9
102
{ACAD_XDICTIONARY
360
19F0C
102
}
102
{ACAD_REACTORS
330
EF
102
}
330
EF
100
AcDbVisualStyle
  2
Realistic
 70
     8
 71
     2
 72
     2
 73
     0
 90
        2
 40
-0.6
 41
30.0
 62
     5
 63
     7
 74
     0
 91
        0
 64
     7
 65
   257
 75
     1
175
     1
 42
1.0
 92
        8
 66
   257
 43
1.0
 76
     1
 77
     6
 78
     2
 67
     7
 79
     3
170
     0
171
     0
290
     0
174
     0
 93
       13
 44
0.0
173
     0
291
     0
 45
0.0
1001
ACAD
1000
AcDbSavedByObjectVersion
1070
     0
  0
VISUALSTYLE
  5
1F3
102
{ACAD_XDICTIONARY
360
19F2A
102
}
102
{ACAD_REACTORS
330
EF
102
}
330
EF
100
AcDbVisualStyle
  2
Shaded
 70
    27
 71
     2
 72
     2
 73
     1
 90
        2
 40
-0.6
 41
30.0
 62
     5
 63
     7
 74
     0
 91
        4
 64
     7
 65
   257
 75
     1
175
     1
 42
1.0
 92
        8
 66
   257
 43
1.0
 76
     1
 77
     6
 78
     2
 67
     8
 79
     3
170
     0
171
     0
290
     0
174
     0
 93
        5
 44
0.0
173
     0
291
     0
 45
0.0
1001
ACAD
1000
AcDbSavedByObjectVersion
1070
     0
  0
VISUALSTYLE
  5
1F2
102
{ACAD_XDICTIONARY
360
19F28
102
}
102
{ACAD_REACTORS
330
EF
102
}
330
EF
100
AcDbVisualStyle
  2
Shaded with edges
 70
    26
 71
     2
 72
     2
 73
     1
 90
        2
 40
-0.6
 41
30.0
 62
     5
 63
     7
 74
     1
 91
        2
 64
     7
 65
   257
 75
     2
175
     1
 42
1.0
 92
        8
 66
   257
 43
1.0
 76
     1
 77
     6
 78
     2
 67
     7
 79
     3
170
     0
171
     0
290
     0
174
     0
 93
        5
 44
0.0
173
     0
291
     0
 45
0.0
1001
ACAD
1000
AcDbSavedByObjectVersion
1070
     0
  0
VISUALSTYLE
  5
1EF
102
{ACAD_XDICTIONARY
360
19F22
102
}
102
{ACAD_REACTORS
330
EF
102
}
330
EF
100
AcDbVisualStyle
  2
Shades of Gray
 70
    23
 71
     2
 72
     2
 73
     3
 90
        0
 40
-0.6
 41
-30.0
 62
     5
 63
     7
 74
     2
 91
        2
 64
     7
 65
     7
 75
     1
175
     1
 42
40.0
 92
        8
 66
     7
 43
1.0
 76
     1
 77
     6
 78
     2
 67
     7
 79
     3
170
     0
171
     0
290
     0
174
     0
 93
        1
 44
0.0
173
     0
291
     0
 45
0.0
1001
ACAD
1000
AcDbSavedByObjectVersion
1070
     0
  0
VISUALSTYLE
  5
1F0
102
{ACAD_XDICTIONARY
360
19F24
102
}
102
{ACAD_REACTORS
330
EF
102
}
330
EF
100
AcDbVisualStyle
  2
Sketchy
 70
    24
 71
     1
 72
     2
 73
     2
 90
        0
 40
-0.6
 41
-30.0
 62
     5
 63
     7
 74
     2
 91
        2
 64
     7
 65
     7
 75
     1
175
     1
 42
40.0
 92
       11
 66
     7
 43
1.0
 76
     1
 77
     6
 78
     2
 67
     7
 79
     6
170
     0
171
     0
290
     0
174
     0
 93
        1
 44
0.0
173
     0
291
     0
 45
0.0
1001
ACAD
1000
AcDbSavedByObjectVersion
1070
     0
  0
VISUALSTYLE
  5
FC
102
{ACAD_XDICTIONARY
360
19F12
102
}
102
{ACAD_REACTORS
330
EF
102
}
330
EF
100
AcDbVisualStyle
  2
Thicken
 70
    13
 71
     2
 72
     2
 73
     1
 90
        0
 40
-0.6
 41
-30.0
 62
     5
 63
     7
 74
     1
 91
        4
 64
     7
 65
   257
 75
     1
175
     1
 42
1.0
 92
       12
 66
     7
 43
1.0
 76
     1
 77
     6
 78
     2
 67
     7
 79
     5
170
     0
171
     0
290
     0
174
     0
 93
        1
 44
0.0
173
     0
291
     1
 45
0.0
1001
ACAD
1000
AcDbSavedByObjectVersion
1070
     0
  0
VISUALSTYLE
  5
F6
102
{ACAD_XDICTIONARY
360
19F06
102
}
102
{ACAD_REACTORS
330
EF
102
}
330
EF
100
AcDbVisualStyle
  2
Wireframe
 70
     5
 71
     0
 72
     2
 73
     0
 90
        0
 40
-0.6
 41
-30.0
 62
     5
 63
     7
 74
     1
 91
        4
 64
     7
 65
   257
 75
     1
175
     1
 42
1.0
 92
        0
 66
   257
 43
1.0
 76
     1
 77
     6
 78
     2
 67
     7
 79
     3
170
     0
171
     0
290
     0
174
     0
 93
        1
 44
0.0
173
     0
291
     0
 45
0.0
1001
ACAD
1000
AcDbSavedByObjectVersion
1070
     0
  0
VISUALSTYLE
  5
1F1
102
{ACAD_XDICTIONARY
360
19F26
102
}
102
{ACAD_REACTORS
330
EF
102
}
330
EF
100
AcDbVisualStyle
  2
X-Ray
 70
    25
 71
     2
 72
     2
 73
     1
 90
        1
 40
0.5
 41
-30.0
 62
     5
 63
     7
 74
     1
 91
        0
 64
     7
 65
   257
 75
     1
175
     1
 42
1.0
 92
        8
 66
     7
 43
1.0
 76
     1
 77
     6
 78
     2
 67
     7
 79
     3
170
     0
171
     0
290
     0
174
     0
 93
       13
 44
0.0
173
     0
291
     0
 45
0.0
1001
ACAD
1000
AcDbSavedByObjectVersion
1070
     0
  0
DICTIONARYVAR
  5
146
102
{ACAD_REACTORS
330
5E
102
}
330
5E
100
DictionaryVariables
280
     0
  1
1:1
  0
DICTIONARYVAR
  5
259
102
{ACAD_REACTORS
330
5E
102
}
330
5E
100
DictionaryVariables
280
     0
  1
3.500000
  0
DICTIONARYVAR
  5
25A
102
{ACAD_REACTORS
330
5E
102
}
330
5E
100
DictionaryVariables
280
     0
  1
acadiso.lin
  0
DICTIONARYVAR
  5
145
102
{ACAD_REACTORS
330
5E
102
}
330
5E
100
DictionaryVariables
280
     0
  1
STANDARD
  0
DICTIONARYVAR
  5
84
102
{ACAD_REACTORS
330
5E
102
}
330
5E
100
DictionaryVariables
280
     0
  1
STANDARD
  0
DICTIONARYVAR
  5
227
102
{ACAD_REACTORS
330
5E
102
}
330
5E
100
DictionaryVariables
280
     0
  1
Metric50
  0
DICTIONARYVAR
  5
228
102
{ACAD_REACTORS
330
5E
102
}
330
5E
100
DictionaryVariables
280
     0
  1
Metric50
  0
DICTIONARYVAR
  5
5F
102
{ACAD_REACTORS
330
5E
102
}
330
5E
100
DictionaryVariables
280
     0
  1
2
  0
DICTIONARYVAR
  5
63
102
{ACAD_REACTORS
330
5E
102
}
330
5E
100
DictionaryVariables
280
     0
  1
1
  0
DICTIONARYVAR
  5
19E9B
102
{ACAD_REACTORS
330
5E
102
}
330
5E
100
DictionaryVariables
280
     0
  1
0
  0
DICTIONARYVAR
  5
1AE
102
{ACAD_REACTORS
330
5E
102
}
330
5E
100
DictionaryVariables
280
     0
  1
0
  0
DICTIONARYVAR
  5
1AF
102
{ACAD_REACTORS
330
5E
102
}
330
5E
100
DictionaryVariables
280
     0
  1
0
  0
DICTIONARYVAR
  5
19E99
102
{ACAD_REACTORS
330
5E
102
}
330
5E
100
DictionaryVariables
280
     0
  1
2
  0
DICTIONARYVAR
  5
19E98
102
{ACAD_REACTORS
330
5E
102
}
330
5E
100
DictionaryVariables
280
     0
  1
1
  0
DICTIONARYVAR
  5
19EEB
102
{ACAD_REACTORS
330
5E
102
}
330
5E
100
DictionaryVariables
280
     0
  1
80.000000
  0
DICTIONARYVAR
  5
19EEA
102
{ACAD_REACTORS
330
5E
102
}
330
5E
100
DictionaryVariables
280
     0
  1
5.000000
  0
DICTIONARYVAR
  5
19E9A
102
{ACAD_REACTORS
330
5E
102
}
330
5E
100
DictionaryVariables
280
     0
  1
127
  0
DICTIONARYVAR
  5
19EEC
102
{ACAD_REACTORS
330
5E
102
}
330
5E
100
DictionaryVariables
280
     0
  1
2
  0
DICTIONARY
  5
19F2E
330
21C
100
AcDbDictionary
280
     1
281
     1
  3
ACAD_XREC_ROUNDTRIP
360
19F2F
  0
DICTIONARY
  5
19EF3
330
D3
100
AcDbDictionary
280
     1
281
     1
  3
ACAD_XREC_ROUNDTRIP
360
19EF4
  0
DICTIONARY
  5
19EF5
330
D7
100
AcDbDictionary
280
     1
281
     1
  3
ACAD_XREC_ROUNDTRIP
360
19EF6
  0
DICTIONARY
  5
19EF0
330
22
100
AcDbDictionary
280
     1
281
     1
  3
ACAD_XREC_ROUNDTRIP
360
19EF1
  0
DICTIONARY
  5
1F9
330
ED
100
AcDbDictionary
280
     1
281
     1
  3
ACAD_XREC_ROUNDTRIP
360
19EF8
  3
FBXASSET
360
1FA
  0
DICTIONARY
  5
1F7
330
EC
100
AcDbDictionary
280
     1
281
     1
  3
ACAD_XREC_ROUNDTRIP
360
19EF7
  3
FBXASSET
360
1F8
  0
DICTIONARY
  5
173
330
EE
100
AcDbDictionary
280
     1
281
     1
  3
ACAD_XREC_ROUNDTRIP
360
19EF9
  3
BUMPTILE
360
175
  3
DIFFUSETILE
360
174
  3
FBXASSET
360
1FB
  3
OPACITYTILE
360
176
  3
REFLECTIONTILE
360
177
  0
DICTIONARY
  5
19F1A
330
12E
100
AcDbDictionary
280
     1
281
     1
  3
ACAD_XREC_ROUNDTRIP
360
19F1B
  0
DICTIONARY
  5
19F2C
330
21A
100
AcDbDictionary
280
     1
281
     1
  3
ACAD_XREC_ROUNDTRIP
360
19F2D
  0
DICTIONARY
  5
162
330
7F
100
AcDbDictionary
280
     1
281
     1
  3
ACAD_ROUNDTRIP_2008_TABLESTYLE_CELLSTYLEMAP
360
19EED
  3
ACAD_XREC_ROUNDTRIP
360
19EF2
  0
DICTIONARY
  5
19F04
330
F5
100
AcDbDictionary
280
     1
281
     1
  3
ACAD_XREC_ROUNDTRIP
360
19F05
  0
DICTIONARY
  5
19F02
330
F4
100
AcDbDictionary
280
     1
281
     1
  3
ACAD_XREC_ROUNDTRIP
360
19F03
  0
DICTIONARY
  5
19F10
330
FB
100
AcDbDictionary
280
     1
281
     1
  3
ACAD_XREC_ROUNDTRIP
360
19F11
  0
DICTIONARY
  5
19F18
330
FF
100
AcDbDictionary
280
     1
281
     1
  3
ACAD_XREC_ROUNDTRIP
360
19F19
  0
DICTIONARY
  5
19F0A
330
F8
100
AcDbDictionary
280
     1
281
     1
  3
ACAD_XREC_ROUNDTRIP
360
19F0B
  0
DICTIONARY
  5
19F0E
330
FA
100
AcDbDictionary
280
     1
281
     1
  3
ACAD_XREC_ROUNDTRIP
360
19F0F
  0
DICTIONARY
  5
19F20
330
1E6
100
AcDbDictionary
280
     1
281
     1
  3
ACAD_XREC_ROUNDTRIP
360
19F21
  0
DICTIONARY
  5
19F16
330
FE
100
AcDbDictionary
280
     1
281
     1
  3
ACAD_XREC_ROUNDTRIP
360
19F17
  0
DICTIONARY
  5
19EFA
330
F0
100
AcDbDictionary
280
     1
281
     1
  3
ACAD_XREC_ROUNDTRIP
360
19EFB
  0
DICTIONARY
  5
19EFC
330
F1
100
AcDbDictionary
280
     1
281
     1
  3
ACAD_XREC_ROUNDTRIP
360
19EFD
  0
DICTIONARY
  5
19EFE
330
F2
100
AcDbDictionary
280
     1
281
     1
  3
ACAD_XREC_ROUNDTRIP
360
19EFF
  0
DICTIONARY
  5
19F00
330
F3
100
AcDbDictionary
280
     1
281
     1
  3
ACAD_XREC_ROUNDTRIP
360
19F01
  0
DICTIONARY
  5
19F08
330
F7
100
AcDbDictionary
280
     1
281
     1
  3
ACAD_XREC_ROUNDTRIP
360
19F09
  0
DICTIONARY
  5
19F1C
330
1E4
100
AcDbDictionary
280
     1
281
     1
  3
ACAD_XREC_ROUNDTRIP
360
19F1D
  0
DICTIONARY
  5
19F14
330
FD
100
AcDbDictionary
280
     1
281
     1
  3
ACAD_XREC_ROUNDTRIP
360
19F15
  0
DICTIONARY
  5
19F1E
330
1E5
100
AcDbDictionary
280
     1
281
     1
  3
ACAD_XREC_ROUNDTRIP
360
19F1F
  0
DICTIONARY
  5
19F0C
330
F9
100
AcDbDictionary
280
     1
281
     1
  3
ACAD_XREC_ROUNDTRIP
360
19F0D
  0
DICTIONARY
  5
19F2A
330
1F3
100
AcDbDictionary
280
     1
281
     1
  3
ACAD_XREC_ROUNDTRIP
360
19F2B
  0
DICTIONARY
  5
19F28
330
1F2
100
AcDbDictionary
280
     1
281
     1
  3
ACAD_XREC_ROUNDTRIP
360
19F29
  0
DICTIONARY
  5
19F22
330
1EF
100
AcDbDictionary
280
     1
281
     1
  3
ACAD_XREC_ROUNDTRIP
360
19F23
  0
DICTIONARY
  5
19F24
330
1F0
100
AcDbDictionary
280
     1
281
     1
  3
ACAD_XREC_ROUNDTRIP
360
19F25
  0
DICTIONARY
  5
19F12
330
FC
100
AcDbDictionary
280
     1
281
     1
  3
ACAD_XREC_ROUNDTRIP
360
19F13
  0
DICTIONARY
  5
19F06
330
F6
100
AcDbDictionary
280
     1
281
     1
  3
ACAD_XREC_ROUNDTRIP
360
19F07
  0
DICTIONARY
  5
19F26
330
1F1
100
AcDbDictionary
280
     1
281
     1
  3
ACAD_XREC_ROUNDTRIP
360
19F27
  0
XRECORD
  5
19F2F
102
{ACAD_REACTORS
330
19F2E
102
}
330
19F2E
100
AcDbXrecord
280
     1
102
DISPLAYNAME
  1
Metric50
102
FLAGS
 90
        0
  0
XRECORD
  5
19EF4
102
{ACAD_REACTORS
330
19EF3
102
}
330
19EF3
100
AcDbXrecord
280
     1
102
SHADEPLOT
 70
     0
102
SHADEPLOTRESLEVEL
 70
     2
102
SHADEPLOTCUSTOMDPI
 70
   300
  0
XRECORD
  5
19EF6
102
{ACAD_REACTORS
330
19EF5
102
}
330
19EF5
100
AcDbXrecord
280
     1
102
SHADEPLOT
 70
     0
102
SHADEPLOTRESLEVEL
 70
     2
102
SHADEPLOTCUSTOMDPI
 70
   300
  0
XRECORD
  5
19EF1
102
{ACAD_REACTORS
330
19EF0
102
}
330
19EF0
100
AcDbXrecord
280
     1
102
SHADEPLOT
 70
     0
102
SHADEPLOTRESLEVEL
 70
     2
102
SHADEPLOTCUSTOMDPI
 70
   300
  0
XRECORD
  5
19EF8
102
{ACAD_REACTORS
330
1F9
102
}
330
1F9
100
AcDbXrecord
280
     1
102
MATERIAL
148
0.0
149
0.0
149
0.0
 93
        0
 94
       63
282
     0
 72
     1
 77
     1
171
     1
175
     1
179
     1
273
     0
  0
XRECORD
  5
1FA
102
{ACAD_REACTORS
330
1F9
102
}
330
1F9
100
AcDbXrecord
280
     1
 70
     1
 90
429727718
  1
D62C5603-E3A1-4AEA-B7FB-FE5D8D0755AF
310
504B03040A0000080000CC70623B3DEE336E79000000790000001B0000006175746F6465736B2D64657369676E2D7061636B6167652E786D6C3C3F786D6C2076657273696F6E3D22312E302220656E636F64696E673D227574662D3822203F3E3C666F726D6174733E3C666F726D61743E687474703A2F2F736368656D612E
310
6175746F6465736B2E636F6D2F64657369676E2D7061636B6167652F323030393C2F666F726D61743E3C2F666F726D6174733E504B0304140006080800CC70623BD486FD9CA0000000F4000000130000005B436F6E74656E745F54797065735D2E786D6C7D8EC10E82300C865F65E91D8A1E8C310C0EEA1BF002731658846E
310
D98AC1B77784ABF1D8FE5FBFBF75BBCE937A534CCEB38643598122B6FEE978D0B0485F9C41B54DDD7D022595594E1A469170414C76A4D9A4D207E29CF43ECE46F218070CC6BECC4078ACAA135ACF422C856C0E68EA1BF5669944DDD7BCDE7B1F8E415D77AECB980613C2E4AC91FC167A2B244592486606FC29C8FD7F045B9A
310
EF7053A7E60B504B0304140006080800CC70623B853B8169EB0000007C01000008000000636F72652E786D6C8D90416EC3201045AF62CDB6C206821CC7C244919D9CA01740401C94182C03558F5F9C3852BBEB6A467FFE9B197D7EFC9E1EC5975982F5AE035262288C535E5B377690E21535501C055FBC8FBF6C503839990E
310
5619041F179FE64D52DE45E362569DD7661365082642A11EB9E920A89B99642953CC8E702F67A9EE7234257977194EC9EAE275C4EABCCF5EAD5940D4AC6F0E35A568B8F43562CD7046CD199FD07E60174276A7BE677B5EADB0E0D14EEFFB6A31321A0D82627C4084204C3F096B71DD52F6819B16635EADF63F509AF53FA164
310
5DDCD1EDDD17164090FCC8732078B56691CB33A85CD7DCC40F504B0304140006080800CC70623B55019EA25F0000007C00000007000000636E782E786D6C4DCB3B0E80201045D1AD90E915ED2CF8AC45050C11660C8261F98AB1B07AC9C97D42D718D865D3E909258CFD00CCE24AC6E326A164D74DC0B4128928FF32603847
310
2BA13128B1252AC747C6BAB984FC68F0B87FE8960A5C09FE86CFB69FBA01504B0304140006080800CC70623BDBABAAF470010000D40300000C0000006662782F636F72652E786D6CC553D16E823014FD95A6AF4B694182CC941A83FA05FB810A9511A125A5257EFE2E82712ECEB8A7F100CD39F7F69E734AF9FADC366850B6
310
AF8DCE7018308C942E4C59EB2AC3DE1D498AD15A706B8CFB56869196ADCAF00863C12B6B7C374385D14E6907A836A59A41D9F7CA615434B0C8705F7CAA5606D23BA8E84F41278B93AC54100640439DE0BDB320004D43C63716C7C399D30917DCFBBA9CD9BA8469F5B156168B24CED3F7248AC8769F27244EB73B92EED8862C
310
B7F13E0C179B3C8F979C8ECD82BBBABDAA2BAC924E9558448CBD9330242CFA08E3154B5651FCC6D215639C8EE5774DBE2B5F6CF2B5768B68963BB5F5588420E442FC700B1139D4CB01F450C1E918227C2E09DF070D8140C84E1E9AAB8F1340832A9CB13130A5F1376A908D57309505ECF2A0DF179C4E9D30F5B239B87E3823
310
7A79C6F31DE1A8A5AEC08474B03C7837EAE4938639B44E5932B833D2C6B6B279CDC613877FA26EE21F4A2A4C63EC7F29A2F301D1F9F7A0E37D145F504B0304140006080800CC70623B9C113CC27E0000009D0000000B0000006662782F636E782E786D6C4DCCDF0A83201C86E15B91DFB94BFB330DD428C8FB886521330DA7
310
6397BF1A1DECE883878F57749FCDA1B7892F1BBC047A23808C7F84D9FA55424E0BE6803A256208E9EF06C84F9B91703228B1C690F78B66B34CD9A5439DF5CF0BFBF65E35BCA1B8D6A5C6F540381E886698B5741C695F9503EBA150A2F8958E3DC3EA0B504B0304140006080800CC70623B7DF2F77C2A010000120200003100
310
00006662782F41393633353835312D344632462D344230382D423046372D3739314545314133324237412F636F72652E786D6C8D51DB8EC22014FC15C2939B0D2DB4B45643319AE817EC0F6041255A68B86CFCFC856D4D76DF7CE190393373060EDB3DC707F856CE6B6B7A480A0C81328395DA5C7B18C3057510EC3873D686
310
3F34088C18550F330C39BB3A1BA7051AAC09CA84841A2BD5020AEF55806078A44B0FFD7053A328440C89E1EFC52486BBB8AA8214A99D789CF9E05200300FC927E4FB4D5B375D43103D5527440FB843077C5AA3F5861C8F645F5787F59E95B390B318B55CE45AA638FAA2957BD7248B390B7A7CC51F9C124149C82B8C378810
310
84AB2F42B7B8DD56F413775B8C5999E9FF4471926F8AA236A1AE96B8B3CC434E5839373893369E1FAF30EA395917409EB7F26AF8801C171837A4A6AC9C89E9F9C9B1A58BA30FD6A5EF5DDDCF894B9AD9B6A59C957943A9FCAE2FD5BC4DFE03504B0304140006080800CC70623BAD7543B64E01000033030000300000006662
310
782F41393633353835312D344632462D344230382D423046372D3739314545314133324237412F636E782E786D6CD593CD6EC32010845F0571AD6CE3D48AD20813A9873E410FBD12D82434182C7EAAE6EDBB2424CD25871E7B41D6EC30B3FA84F9E67BB2E40B4234DE8DB46F1925E094D7C6ED479AD3AE5951B2113C789FEE
310
6C943839C1488B4C05DF079FE72A69D8C96C13AAD6B8631503449F83828872B949AC57D26200B826A308D316B4064D6E46FCDA41C05550DC9E483A00797BFD207EFB092A45DE9514C1BBD22178396BD39D891265658C238DEA00936C654E5E433CB65A26D9F6EDB5EBC14EBF49A45CB856E66048291F6939A9A81BB5C89177
310
38143CA680F4AA299D66A042CEB3354A2684DC9D8D178FE0D9B8B41CAAD720F880EE7EF93C0C18769E099ECC04D5A102C8049A8A05632F4DDF376CF1DE0F6BB65C2F8627B65A33C6BB62177CEBBDAD973006829F89F22E814B54F4BC2BE347F8AA8F681390B50FA73F804400B5F542E796F19FF974E7F78DB802FE05E20750
310
4B0304140006080800CC70623BE75B7789680500003C100000340000006662782F41393633353835312D344632462D344230382D423046372D3739314545314133324237412F6F626A656374732E786D6CAD575B8F9B3818FD2B887D06C22499CB8AA1CA655245D5B455A356FB305264C061D8018C6C3393D95FBFC7600890
310
A4CD5EF210B0B1BFEBF98E3F7B1FF6596ABC522E1296DF9BAE3D320D9A872C4AF2F8DE2CE5CEBA358D0FBEC719939D65A691938CDE9B6ADAF4BD98B3B2D05311DD91329583D9D5FC0F438434A7A611A644887B5384CF34233629258BA878B12322891DEFF6B66BD70BFB62634E8AE781D082709A4B588AF91C528CDA28B73F
310
1C998EEF39EABBEFA97FBD6A7C7E9553F9D3D79FE442923C3C523610337627CB87ABE99D359D4CC6D6E4FACAB5E6ABF9D2726FC6A3C5F56271377BB88362213924694B38DD99FE47C48627A1E7D49F5A8BB5E1A74C0A599ED3B0F21F1E56366B89112D681E218F0915D0D6F17AD41FBA2A369DCF6335D62ABBD39779D5DDD1
310
11D4D8DE3CBB96B2E04FB8202E41051754A1AA8E8F76B4C6DFE810B580B1547F4B84911149794252234D024EF8BBE963A95AE27B3D310A9D5C215C7960FAEE415ED75694C6AFB17BCACA5D99A60A9AA65F217B0BFC53292ACB92BF283FAD0D3621576592CB5BED907C2FA8E9DF794E35E97BEA31BED21FEB401ABB94C44839
310
DCACBF0E1C5DA8DA5B2F4DFFD32AD86F543D9E565E7056502E157C00AD2671CD534549AB752FCA9CDA00677A313F04E51B22FF19E57B300579E3C97EB29F682D92935CEC18CF901B7B54FD8C51F362B56FC72FE0B3C1EAE335EDCCBF5AEC39ADB17DC238973F804BA5E6F6BFE7AF1FB32E523BE9F3BD571418E3631DCA4D48
310
5250CF639223210A9446CA30052EDF057BD35F8329C1ECD84552BF0DC8D18BE7BCE23BFE6BD960AB4A7DE79923A103BEBD80F911CBAA2C60DB19B01CF164A5583B772EE6D3FFA56666CBCDA74DC97724A48F9A58967497E489C4D979006FD7A05E227A1EBDD0F737C623387A9C844D3709995625106D157315F8B8392CD4E0
310
A0B9A720C4BE9829CEF37EA1E13111214D53925356365ADA634861B52519DD27A00AEB808EAF0628E6F435519D446F45CF2C9CF5214F0A15B2F6D06B79DA3EE3CBF7F56780D2F4E7EF73A0F5E5B02A38D07DC852C6B7C1FBB6664213E0C39E3EBA7FF4E1AD23EA2829407C85E586727488B751B2DB9502BC7B228A3FD68B6E
310
A65A22397E690AA8D158D7E404EC8CDA235CC3B7D1898680131CEC2CDF2638C65196279577750F15884AEE19F94199155B92B13297978469D4F8D358DF0AEF7631E28DC8F0D9F437D5D39A83B2231A1D52D543813A824EF8D44BCFF2FA6A31BD1E8DAD87F1CCB526B3879935BF59CDADD5C37479BB1CDD4CA7B3556B516589
310
EF352754B706114D9C885EC9131DE6EFEB43D99AFE2391C2F958179413D7CFEF6B1B6DB1E7600F00DE6E5C67454A339A4BA2E0FBA85ED26F045D454F463DBFCE484C2F90F2E5E3666003662ED8F755951A7D1BECD5B30B550B2785C8E7320B7292A4838DDA71BBC863ED7613CAF659337A3354231D4FF4A182A54904C2898C
310
98B28C4AD0CE056CCF332A80986E571EE9DBC305BB5FEB7E509220A58D25CF042D712A806AC0AD0C657FDEF80D2D9CEAA2EE4D1C76F60BFE74219A06527D6F82DF6412526107381E55E353090704D085B52408A8913C4ED159D79BDA71BB4BC506F4831350EB6F975CD22D69BF7AC49B91A2C0A9DDA3D5CA36AD20FC478E37
310
E61844E2352865EBCB61A275A65283CAAA9DD27703B4102F5AF51EF5F573B75CBB5AD38BC845F7A49F82A0966A49C2E3EA5EA0ECD326CD965F1DB402C6FA8B51A4658C5C5E2EC9E214602E55810345408596591009A82E7E7FFACA19EEA299B14A0081A705CB3296EBC14CDF658DCD336EA6D1136881AAEB87B81AB9EE53D5
310
F5EB8BC8362082DA24122F98680A4E7930C01A0079749CEA14382A0783E5EBA5A10F8C098456A03D6A4AEB6BB881E2513747552A5DB22C7EDAF83BD5528081A365F7FF06504B0304140006080000CC70623B000000000000000000000000350000006662782F41393633353835312D344632462D344230382D423046372D37
310
39314545314133324237412F76657274696365732E62696E504B0304140006080800CC70623BF270F1330600000004000000360000006662782F41393633353835312D344632462D344230382D423046372D3739314545314133324237412F747269616E676C65732E62696E636660600000504B0304140006080000CC7062
310
3B000000000000000000000000370000006662782F41393633353835312D344632462D344230382D423046372D3739314545314133324237412F617474726962757465732E62696E504B0304140006080800CC70623B08DA0BD19000000041010000360000006662782F41393633353835312D344632462D344230382D4230
310
46372D3739314545314133324237412F6469726563746F72792E786D6C858F410AC3201045AF22B36F53E9A60B35CBEEBAE80D244E44489C6234F4F835464A48035D0DF398FF9F8AF63D0E6CC63039F212F8F9020C7D47C6792B21C5FE7403D62A1188E2E60C98D7234A5830286103A55745067B9D86B8A3CF9C7F90C11DE6
310
07FB144396D7B6A82D282E9A152AD114D5EF2CB866EEE831B8EEA07A7BB5A8D7D61A2BAAEB7FD5F70921FF497D00504B0304140006080800CC70623BEDD1DC58FD000000A00100003B0000006662782F41393633353835312D344632462D344230382D423046372D3739314545314133324237412F7265736F75726365732F
310
636F72652E786D6C8D504B6E833010BD0A9A6D65B00922041947112427E8052C33A156828DFCA97AFC9A40A576D7CDCCE87D344F8F9FBFE667F689CE6B6B3A6039850C8DB2A336530731DC4903D95970676DF82583CCC8193B5861107C72362E3BA4AC096842428D1D7107A5F7182053CF7474E0D507CE32973124857FE48B
310
540F3961CEF244279DE03EB81420DB9EAC1384436FA353E879B1B182C7A8C75DA3C7F453DF353A1075D537A7BA6464B8F535A99AE14A9A2BBD90E350DD183B5CFABE3AF262350B1EF4FC9351399401471025A527C218A1E53BAB5A5AB765F5469B96525EACF23FA6B88CFF34456DC2A1DCE36E360F82A5202F42F062ED2BAD
310
579969AFDD8A6F504B010214000A0000080000CC70623B3DEE336E79000000790000001B00000000000000000000000000000000006175746F6465736B2D64657369676E2D7061636B6167652E786D6C504B01021400140006080800CC70623BD486FD9CA0000000F40000001300000000000000000000000000B20000005B
310
436F6E74656E745F54797065735D2E786D6C504B01021400140006080800CC70623B853B8169EB0000007C010000080000000000000000000000000083010000636F72652E786D6C504B01021400140006080800CC70623B55019EA25F0000007C000000070000000000000000000000000094020000636E782E786D6C504B
310
01021400140006080800CC70623BDBABAAF470010000D40300000C00000000000000000000000000180300006662782F636F72652E786D6C504B01021400140006080800CC70623B9C113CC27E0000009D0000000B00000000000000000000000000B20400006662782F636E782E786D6C504B01021400140006080800CC70
310
623B7DF2F77C2A010000120200003100000000000000000000000000590500006662782F41393633353835312D344632462D344230382D423046372D3739314545314133324237412F636F72652E786D6C504B01021400140006080800CC70623BAD7543B64E010000330300003000000000000000000000000000D2060000
310
6662782F41393633353835312D344632462D344230382D423046372D3739314545314133324237412F636E782E786D6C504B01021400140006080800CC70623BE75B7789680500003C10000034000000000000000000000000006E0800006662782F41393633353835312D344632462D344230382D423046372D3739314545
310
314133324237412F6F626A656374732E786D6C504B01021400140006080000CC70623B0000000000000000000000003500000000000000000000000000280E00006662782F41393633353835312D344632462D344230382D423046372D3739314545314133324237412F76657274696365732E62696E504B01021400140006
310
080800CC70623BF270F133060000000400000036000000000000000000000000007B0E00006662782F41393633353835312D344632462D344230382D423046372D3739314545314133324237412F747269616E676C65732E62696E504B01021400140006080000CC70623B0000000000000000000000003700000000000000
310
000000000000D50E00006662782F41393633353835312D344632462D344230382D423046372D3739314545314133324237412F617474726962757465732E62696E504B01021400140006080800CC70623B08DA0BD1900000004101000036000000000000000000000000002A0F00006662782F41393633353835312D344632
310
462D344230382D423046372D3739314545314133324237412F6469726563746F72792E786D6C504B01021400140006080800CC70623BEDD1DC58FD000000A00100003B000000000000000000000000000E1000006662782F41393633353835312D344632462D344230382D423046372D3739314545314133324237412F7265
310
736F75726365732F636F72652E786D6C504B0506000000000E000E0080040000641100000000
  0
XRECORD
  5
19EF7
102
{ACAD_REACTORS
330
1F7
102
}
330
1F7
100
AcDbXrecord
280
     1
102
MATERIAL
148
0.0
149
0.0
149
0.0
 93
        0
 94
       63
282
     0
 72
     1
 77
     1
171
     1
175
     1
179
     1
273
     0
  0
XRECORD
  5
1F8
102
{ACAD_REACTORS
330
1F7
102
}
330
1F7
100
AcDbXrecord
280
     1
 70
     1
 90
429727718
  1
30362254-06B7-45E0-A893-8CFA70E3D6BC
310
504B03040A0000080000CC70623B3DEE336E79000000790000001B0000006175746F6465736B2D64657369676E2D7061636B6167652E786D6C3C3F786D6C2076657273696F6E3D22312E302220656E636F64696E673D227574662D3822203F3E3C666F726D6174733E3C666F726D61743E687474703A2F2F736368656D612E
310
6175746F6465736B2E636F6D2F64657369676E2D7061636B6167652F323030393C2F666F726D61743E3C2F666F726D6174733E504B0304140006080800CC70623BD486FD9CA0000000F4000000130000005B436F6E74656E745F54797065735D2E786D6C7D8EC10E82300C865F65E91D8A1E8C310C0EEA1BF002731658846E
310
D98AC1B77784ABF1D8FE5FBFBF75BBCE937A534CCEB38643598122B6FEE978D0B0485F9C41B54DDD7D022595594E1A469170414C76A4D9A4D207E29CF43ECE46F218070CC6BECC4078ACAA135ACF422C856C0E68EA1BF5669944DDD7BCDE7B1F8E415D77AECB980613C2E4AC91FC167A2B244592486606FC29C8FD7F045B9A
310
EF7053A7E60B504B0304140006080800CC70623B1EC5D7A3EB0000007C01000008000000636F72652E786D6C8D90416EC3201045AF82665B6103C6756C6122AB4D4ED00B204C5C94182C03558F5F9C3852BBEB6A467FFE9B197D71FC9E6FE8CBACC17AD7032D0820E3B41FAD9B7A48F1820F808E52ACDEC75F36404ECDA687
310
4D0629A6D5A76597B477D1B89855E747B38B2A041301E95B6E7A08FAD3CCAA50296647B8168BD2573599823EBB0CA76447F43862C7BCCF5EAC59410E4DDD9C7973C2755553CCCFA4C603E3040F1565ED3B1FDE4E432BCA0D9622DAF9795FAF464533826484B498524CD807E51D79ED187F21878E10516EF63F505AC67F42C9
310
BA58B1FDDD071640D2FCC87D2045B96591CB3DA85CB7DCE40F504B0304140006080800CC70623B55019EA25F0000007C00000007000000636E782E786D6C4DCB3B0E80201045D1AD90E915ED2CF8AC45050C11660C8261F98AB1B07AC9C97D42D718D865D3E909258CFD00CCE24AC6E326A164D74DC0B4128928FF32603847
310
2BA13128B1252AC747C6BAB984FC68F0B87FE8960A5C09FE86CFB69FBA01504B0304140006080800CC70623B8C9102E971010000D40300000C0000006662782F636F72652E786D6CC5535B6E833010BC8AE5DF0A6C08340F1947A84D4ED00B38C6A128602363A31CBFCB234A53A551FA553EC09AD9F5CE8C31DB9E9B1AF5CA
310
7695D1198E428A91D2D214952E33ECDD315861B4E5CC1AE3BE9561A445A3323CC098B3D21ADFCE9034DA29ED00D5A6503328BA4E398C640D8B0C77F253352214DE4145770A5B214FA2546114020D759C75CE8200340D19DE981F0F6746269C33EFAB6266AB02A655C74A59CCF365BADC27CB5D902ED22848F6340DF238A141
310
BE88E2F57B92BFEDF23523433367AE6A2EEAA455C2A902F398D2751045018D3FA264435F3771F242571B4A1919CA6F9A7C5B3CD9E42BED16F12C776AEB308F40C848FC700B1139D4891EF410CEC810227CC6846F8386402064270EF5C5C709A05E49676C024C61FC95EA45ED154CA5211D1FF4FB8291A913A68E9B83EBBB33
310
E2A7673CDE118E5AE8124C0807CB8377834E366998436B950D7A7746DAD846D4CFD978E0F04FD455FC5D49D2D4C6FE9722321F10997F0F32DC47FE05504B0304140006080800CC70623BFFEA85907E0000009D0000000B0000006662782F636E782E786D6C4DCCD10A83201886E15B91FFDC95D95A811AB6F23E625948A6C3
310
E9D8E5AF46073BFAE0E1E365ED67B3E8ADC3CB78C7815C7240DA3DFC64DCC221C519D7805AC182F7F1EF06C88D9BE6703008B6049F9E274D7A1E938DBB5AE3D6131B2589BA0D3D965551E0B2EA732C9B9A624AAEB41E3A557677029960D9AFB4EF11165F504B0304140006080800CC70623B4FEEA4082C0100001202000031
310
0000006662782F39464131463745442D413632322D343644302D413938332D3331353338454246344243312F636F72652E786D6C8D515B6EC32010BC0AE2AB55850DD871ED0813254D72825EC00192A2C460F1A872FC42ED48ED5F7E00CDCECCCEB26C731F6FE05B39AFADE921293004CA082BB5B9F43086336A21D870E6AC
310
0D7F68109861543DCC30E4ECE26C9C164858139409093556AA051CBC570102714B8F1E7AF1A5C6A11862480C7F2DA6415C878B2A4891CA89C7990F2E050073937C42DE1DB7E4F87ED8A36D4329AA9B3D46DBAEAD504556557BD81DEBDD0761E52CE42C462D17B996298E3E6BE59E35C962CE821E1FF18553435012728A7187
310
0841987E927A8D9B35ADDF70BBC6989599FE4F1427F9A4286A132ABAC49D651EF234CD5CE04CDA78BA3DC2A8FB645D00B9DF8B57E215725C60BCA2A463E54C4CE327C7A65E1C7DB02E7DEFCBF594B864C5CA6CDBD49C957943E9FA5D5FBAF336F90F504B0304140006080800CC70623BAD7543B64E01000033030000300000
310
006662782F39464131463745442D413632322D343644302D413938332D3331353338454246344243312F636E782E786D6CD593CD6EC32010845F0571AD6CE3D48AD20813A9873E410FBD12D82434182C7EAAE6EDBB2424CD25871E7B41D6EC30B3FA84F9E67BB2E40B4234DE8DB46F1925E094D7C6ED479AD3AE5951B2113C
310
789FEE6C943839C1488B4C05DF079FE72A69D8C96C13AAD6B8631503449F83828872B949AC57D26200B826A308D316B4064D6E46FCDA41C05550DC9E483A00797BFD207EFB092A45DE9514C1BBD22178396BD39D891265658C238DEA00936C654E5E433CB65A26D9F6EDB5EBC14EBF49A45CB856E66048291F6939A9A81BB5
310
C8917738143CA680F4AA299D66A042CEB3354A2684DC9D8D178FE0D9B8B41CAAD720F880EE7EF93C0C18769E099ECC04D5A102C8049A8A05632F4DDF376CF1DE0F6BB65C2F8627B65A33C6BB62177CEBBDAD973006829F89F22E814B54F4BC2BE347F8AA8F681390B50FA73F804400B5F542E796F19FF974E7F78DB802FE05
310
E207504B0304140006080800CC70623B16AB87BA640500003C100000340000006662782F39464131463745442D413632322D343644302D413938332D3331353338454246344243312F6F626A656374732E786D6CAD575B6FA33818FD2B887DE6924B3BED8A326A92B68A663B534DD4D13E548A0C38942D60649B369D5FBFC7
310
600890A493BDE42160637FD7F31D7FF63E6FB3D478A55C242CBF3247B66B1A340F5994E4F19559CA8D75611A9F7D8F33263BCB4C232719BD32D5B4E97B316765A1A722BA21652A07B3B7B33F0D11D29C9A46981221AE4C113ED38CD8A4942CA2E2C58E882476BCD9DA23BB5ED8171B73523C0F841684D35CC252CCE79062D4
310
468DFA43D7747CCF51DF7D4FFDEB5593E3AB9CCA9FBEFE241792E4E19EB28198C968BAB8199F5D5A67D3E9C49A9E8F47D6EC76B6B0469F26EEFC7C3EBFBCBEB98462213924694B38DD98FE1D62C393D073EA4FADC5DAF04326852CCF6958F90F0F2B9BB5C48816348F90C7840A68EB78EDF68723159BCEE7891A6B95DDE9D3
310
BCEAEEE8086A6C6F9E5D4B59F0175C10A7A0820BAA5055C7473B5AE3CFDD452D602CD5DF12616444529E90D448938013FE6EFA58AA96F85E4F8C42275708571E98FE6827AF6B2B4AE3D7D83D64E5A64C53054DD3AF90BD06FEA9149565C94FCA0F6B834DC85599E4F2423B24DF0B6AFA979E534DFA9E7A4CC6FA631D486393
310
921829879BF5D781A373557BCB85E97FB90DB62B558F8795179C15944B051F40AB495CF35451D26A4727654E6D8033BD98EF82F21D91FF8AF2DD9982BCF1643BDD4EB516C9492E368C67C88DED563FC36D5EACF66DFF057C3658BDBFA69DF9578B3DA735B64F18C7F20770A9D45CFCF7FCF563D6456A277DBEF78A02637CA2
310
43B90A490AEAB94F72244481D24819A6C0E59B606BFA4B3025981DBB48EAB701D97BF19C577CC77F2D1B6C55A9EF3C732474C0B727303F625995056C3B02963D9EAC146BE78EC5FCEC7FA999EBC5EACBAAE41B12D27B4D2C0BBA49F244E2ECDC81B76B502F113D8F5EE8FB1BE3111CDD4FC2AA9B844CAB1288B68AB90A7CDC
310
1C166AB0D3DC5310625FCC14E779BFD0709F8890A629C9292B1B2DED31A4B0DA928CEE135085754027E3018A397D4D5427D15BD1330B677DC8934285AC3DF45A9EB68FF8F2B8FC0A509AFEECFD0FF2DE25CC6047F7214B195F07EFEB9A094D800F7BFAE8FED187B78EA8A3A400F115961BCAD1215E47C966530AF0EE8128FE
310
58CEBB996A8964FFA529A046635D9353B0336A8F700DDF46271A024E70B0B37C9DE01847591E54DED53D54202AB947E4076556AC49C6CA5C9E1226B7F1A7B1BE15DEED62C41B91E1B3E9AFAAA735036547343A925075041DF0A9979E893B391F8FCFA6967B3EFB644DCF6E5CEBFAE272625DCC6FAF3FB93793C5F90CE1EF57
310
407342756B10D1C489E8953CD1617E5CEECAD6F4EF8914CE5D5D504E5C3F1F9736DA62CFC11E00BCDDB8CC8A9466349744C1F75EBDA4DF09BA8A9E8C7A7E9991989E20E5DBDD6A6003664ED8F7A04A8DBE0DF6EAD9B9AA858342E47399053949D2C146EDB85DE4B176BB0965FBAC19BD19AA918E27FA50C1D22402E144464C
310
59462568E704B6E71915404CB72B8FF4EDE184DDAF753F284990D2C6926782963815403548A70C657FDEF80D2D9CEAA2AE4C1C76F60BFE74219A06527D6582DF6412526107381E55E353090704D085B52408D0933C4ED159D79BDA71BB4BC506F4831350EB6F979CD22D69BF7AC49B91A2C0A9DDA3D5CA36AD20FC478E37E6
310
1844E2352865EBCB6EA275A652E3836BE04EFB400BF1A2556F515F1FBB35B2AB35BD889C744FFA1004B5544B121E57F70215746DD2F5E2C1412B602CBF19455AC6C8E5E9922C4E01E65215385004546899059180EAFCF7A707CE7017CD8CDB0410789AB32C63B91E5CEBBBACB17AC6CD347A022D5075FD106377347AAABA7E
310
7D11590744509B44E205134DC1290F06580320F78E537D3D73540E06CB970B431F185308AD40BBD794D6D77003C5A36E8EAA54BA64597CD8F83BD552A080A365F7FF06504B0304140006080000CC70623B000000000000000000000000350000006662782F39464131463745442D413632322D343644302D413938332D3331
310
353338454246344243312F76657274696365732E62696E504B0304140006080800CC70623BF270F1330600000004000000360000006662782F39464131463745442D413632322D343644302D413938332D3331353338454246344243312F747269616E676C65732E62696E636660600000504B0304140006080000CC70623B
310
000000000000000000000000370000006662782F39464131463745442D413632322D343644302D413938332D3331353338454246344243312F617474726962757465732E62696E504B0304140006080800CC70623B08DA0BD19000000041010000360000006662782F39464131463745442D413632322D343644302D413938
310
332D3331353338454246344243312F6469726563746F72792E786D6C858F410AC3201045AF22B36F53E9A60B35CBEEBAE80D244E44489C6234F4F835464A48035D0DF398FF9F8AF63D0E6CC63039F212F8F9020C7D47C6792B21C5FE7403D62A1188E2E60C98D7234A5830286103A55745067B9D86B8A3CF9C7F90C11DE607
310
FB144396D7B6A82D282E9A152AD114D5EF2CB866EEE831B8EEA07A7BB5A8D7D61A2BAAEB7FD5F70921FF497D00504B0304140006080800CC70623B0D6EF93BFE000000A00100003B0000006662782F39464131463745442D413632322D343644302D413938332D3331353338454246344243312F7265736F75726365732F63
310
6F72652E786D6C8D50596E833010BD0A9ADFCA60B334011947A8694ED00B586642AC041B79A97AFC9A40A5F6AF3F33A3B7689E1E3F7DCD8FEC139DD7D6F4C0720A191A65476DA61E62B892236427C19DB5E1970C322367EC618541F0C9D9B8EC90B226A009093576C41D94DE63804C3DD2D18357379C652E63480A7FCF17A9
310
EE72C29CE5894E3AC17D702940B63D59270887DE46A7D0F36263058F518FBB468FE9A7BE6A7420864373B8D4873369AA8691FA421B3294352543C5CAF65C0F6FEF43CB8BD52C78D0F34F46E550061C419494B6843142CB0F5677F4B52BEB177AEC28E5C52AFF638ACBF84F53D42654E51E77B379102C05791282176B5F693D
310
CB4C7BED567C03504B010214000A0000080000CC70623B3DEE336E79000000790000001B00000000000000000000000000000000006175746F6465736B2D64657369676E2D7061636B6167652E786D6C504B01021400140006080800CC70623BD486FD9CA0000000F40000001300000000000000000000000000B20000005B
310
436F6E74656E745F54797065735D2E786D6C504B01021400140006080800CC70623B1EC5D7A3EB0000007C010000080000000000000000000000000083010000636F72652E786D6C504B01021400140006080800CC70623B55019EA25F0000007C000000070000000000000000000000000094020000636E782E786D6C504B
310
01021400140006080800CC70623B8C9102E971010000D40300000C00000000000000000000000000180300006662782F636F72652E786D6C504B01021400140006080800CC70623BFFEA85907E0000009D0000000B00000000000000000000000000B30400006662782F636E782E786D6C504B01021400140006080800CC70
310
623B4FEEA4082C0100001202000031000000000000000000000000005A0500006662782F39464131463745442D413632322D343644302D413938332D3331353338454246344243312F636F72652E786D6C504B01021400140006080800CC70623BAD7543B64E010000330300003000000000000000000000000000D5060000
310
6662782F39464131463745442D413632322D343644302D413938332D3331353338454246344243312F636E782E786D6C504B01021400140006080800CC70623B16AB87BA640500003C1000003400000000000000000000000000710800006662782F39464131463745442D413632322D343644302D413938332D3331353338
310
454246344243312F6F626A656374732E786D6C504B01021400140006080000CC70623B0000000000000000000000003500000000000000000000000000270E00006662782F39464131463745442D413632322D343644302D413938332D3331353338454246344243312F76657274696365732E62696E504B01021400140006
310
080800CC70623BF270F133060000000400000036000000000000000000000000007A0E00006662782F39464131463745442D413632322D343644302D413938332D3331353338454246344243312F747269616E676C65732E62696E504B01021400140006080000CC70623B0000000000000000000000003700000000000000
310
000000000000D40E00006662782F39464131463745442D413632322D343644302D413938332D3331353338454246344243312F617474726962757465732E62696E504B01021400140006080800CC70623B08DA0BD190000000410100003600000000000000000000000000290F00006662782F39464131463745442D413632
310
322D343644302D413938332D3331353338454246344243312F6469726563746F72792E786D6C504B01021400140006080800CC70623B0D6EF93BFE000000A00100003B000000000000000000000000000D1000006662782F39464131463745442D413632322D343644302D413938332D3331353338454246344243312F7265
310
736F75726365732F636F72652E786D6C504B0506000000000E000E0080040000641100000000
  0
XRECORD
  5
19EF9
102
{ACAD_REACTORS
330
173
102
}
330
173
100
AcDbXrecord
280
     1
102
MATERIAL
148
0.0
149
0.0
149
0.0
 93
        0
 94
       63
282
     0
 72
     1
 77
     1
171
     1
175
     1
179
     1
273
     0
  0
XRECORD
  5
175
102
{ACAD_REACTORS
330
173
102
}
330
173
100
AcDbXrecord
280
     1
270
     1
271
     1
  0
XRECORD
  5
174
102
{ACAD_REACTORS
330
173
102
}
330
173
100
AcDbXrecord
280
     1
270
     1
271
     1
  0
XRECORD
  5
1FB
102
{ACAD_REACTORS
330
173
102
}
330
173
100
AcDbXrecord
280
     1
 70
     0
 90
1673772943
  1
ECE7A1D2-D628-4531-984C-D00F80459256
310
504B03040A0000080000CC70623B3DEE336E79000000790000001B0000006175746F6465736B2D64657369676E2D7061636B6167652E786D6C3C3F786D6C2076657273696F6E3D22312E302220656E636F64696E673D227574662D3822203F3E3C666F726D6174733E3C666F726D61743E687474703A2F2F736368656D612E
310
6175746F6465736B2E636F6D2F64657369676E2D7061636B6167652F323030393C2F666F726D61743E3C2F666F726D6174733E504B0304140006080800CC70623BD486FD9CA0000000F4000000130000005B436F6E74656E745F54797065735D2E786D6C7D8EC10E82300C865F65E91D8A1E8C310C0EEA1BF002731658846E
310
D98AC1B77784ABF1D8FE5FBFBF75BBCE937A534CCEB38643598122B6FEE978D0B0485F9C41B54DDD7D022595594E1A469170414C76A4D9A4D207E29CF43ECE46F218070CC6BECC4078ACAA135ACF422C856C0E68EA1BF5669944DDD7BCDE7B1F8E415D77AECB980613C2E4AC91FC167A2B244592486606FC29C8FD7F045B9A
310
EF7053A7E60B504B0304140006080800CC70623BD9DDAED0EC0000007C01000008000000636F72652E786D6C8D90416EC3201045AF82665B61836D9CD8C2444DD39CA01740405C94182C03558F5F9C3852BBEB6A467FFE9B197D7EF89E6EE8CB2CC17A37002D0820E394D7D68D03A478C17B4007C117EFE32F1B20272733C0
310
2A83E0E3E2D3BC49CABB685CCCAAF3DA6CA20CC14440EA969B0182FA34932C648AD911AEC52CD5558EA6A0CF2EC329598D1E47ACCEFBECC59A050463A7EA5833865FEBDD0E37353BE3EE8DBDE3F6786A48D375FBF6CC78B9C282473B3DEFABC5C86834888A900E538A49F5419B9EB47DD5BC907D4F082F57FB1F28CDFA9F50
310
B22ED6D5F6EE030B20687EE43E10BC5CB3C8E51E54AE6B6EE207504B0304140006080800CC70623B55019EA25F0000007C00000007000000636E782E786D6C4DCB3B0E80201045D1AD90E915ED2CF8AC45050C11660C8261F98AB1B07AC9C97D42D718D865D3E909258CFD00CCE24AC6E326A164D74DC0B4128928FF326038
310
472BA13128B1252AC747C6BAB984FC68F0B87FE8960A5C09FE86CFB69FBA01504B0304140006080800CC70623BA24EB22D72010000D40300000C0000006662782F636F72652E786D6CC5535B6E833010BC8AE5DF0A6C5E49888CA3A6694ED00B38E05014B091B1518EDFE511A5A9D228FD2A1F60CDEC7A67C6986DCE4D8D7A
310
69BA4AAB0C073EC548AA5C17952A33ECECD15B61B4E1CC686DBF9561A44423333CC098B3D268D7CE50AE9595CA02AA74216750749DB418E5352C32DCE59FB211BE70162ABA93DF8AFC244AE9073ED050C759670D0840D390E18DF9F1706664C23973AE2A66B62A605A75ACA4C13C4976E1364A12EF355A2EBD384AF65EFA96
310
BC7B8BED2EA6719AAE16FB8491A199335B351775B991C2CA02F390D2D40B028F861F41BCA68B7518BFD0D59A524686F29B26D7164F36B94AD9289CE54E6D1DE6010819891F6E21228B3AD1831EC219194284CF98F06DD01008846CC5A1BEF83801D4CBDC6A1303536877A57A513B0953A94FC707FDBE6064EA84A9E3E6E0FA
310
EE8CF0E9198F7784A316AA0413C2C2F2E0ECA0934D1AE6D05A69BCDE9E91D2A611F573361E38FC1375157F5752AE6B6DFE4B11990F88CCBF0719EE23FF02504B0304140006080800CC70623B408A7D3B7C0000009D0000000B0000006662782F636E782E786D6C4DCCD10A83201886E15B91FFDC552A92A0064DBC8F581632
310
D3703A76F9ABD1C18E3E78F878E5F0D9027ABBFCF2292AE86E2D20171F69F6715550CB827B40839639A5F2770314A7CD293819B45C73AAFB45B35BA61ACAA1C1C7E7855C58C15BC331339661262CC762340413D68D77DA5B42298546CBE6573AF60CEB2F504B0304140006080800CC70623B449FB9BD290100001202000031
310
0000006662782F36394639363044362D344446342D343946362D394244322D3234314243333846323333332F636F72652E786D6C8D515B6EC32010BC0AE22B55850D98B871848994463E412FE002495162B07854397EA176A4F62F3F2C9A9D991D587EB84F37F0AD7D30CEF6905418026DA553C65E7A98E219ED203808EE9D
310
8B7F6810D871D23D2C3014FCE25D9A57483A1BB58D19B54EE9151C43D0110279CB971E06F9A5A7B11A53CC8C70ADE6515EC78BAE4895DB992778883E0700CB907242D17643D7E2538BD869608875438BBAE38922CAC8F1BDD90DB4691A5E2F42C153326A951B95E398B3D1FE599322163C9AE9115F7A3D46ADA0A018778810
310
84E907617BDCEE297BC5BB3DC6BC2EF47FA234AB2745C9D8D8D035EE220B50105E2F0DC1954B9FB747187D9F9D8FA0CCDB042D5FA0C015C65B42DF78BD10F3F3B363CB56C7109DCFDFBBB97E662ED92EB62D13BC2E1BCAE5777DB9966D8A1F504B0304140006080800CC70623BAD7543B64E01000033030000300000006662
310
782F36394639363044362D344446342D343946362D394244322D3234314243333846323333332F636E782E786D6CD593CD6EC32010845F0571AD6CE3D48AD20813A9873E410FBD12D82434182C7EAAE6EDBB2424CD25871E7B41D6EC30B3FA84F9E67BB2E40B4234DE8DB46F1925E094D7C6ED479AD3AE5951B2113C789FEE
310
6C943839C1488B4C05DF079FE72A69D8C96C13AAD6B8631503449F83828872B949AC57D26200B826A308D316B4064D6E46FCDA41C05550DC9E483A00797BFD207EFB092A45DE9514C1BBD22178396BD39D891265658C238DEA00936C654E5E433CB65A26D9F6EDB5EBC14EBF49A45CB856E66048291F6939A9A81BB5C89177
310
38143CA680F4AA299D66A042CEB3354A2684DC9D8D178FE0D9B8B41CAAD720F880EE7EF93C0C18769E099ECC04D5A102C8049A8A05632F4DDF376CF1DE0F6BB65C2F8627B65A33C6BB62177CEBBDAD973006829F89F22E814B54F4BC2BE347F8AA8F681390B50FA73F804400B5F542E796F19FF974E7F78DB802FE05E20750
310
4B0304140006080800CC70623B8D05915C650500003B100000340000006662782F36394639363044362D344446342D343946362D394244322D3234314243333846323333332F6F626A656374732E786D6CAD575B6FA33814FE2B887D06429276DA1565D4266D158D3A339A6846FB502932E050B66023DB74D2FDF5FB190C01
310
9276B2973C046C8ECFF53B17071F77456EBD502133CEAE6CDF9DD81665314F32965ED995DA3A17B6F5310C04E7AA47665B8C14F4CAD6DB7618A48257A5D94AE89654B91AEDDEDDFC61C998326A5B714EA4BCB265FC440BE2924AF184CA6737218AB8E976E7FA6E4338649B0A523E8D98964450A6A029F619B8588D52FE7039
310
B1BD30F0F4F730D0FF866AF6369557DB33949F31A9088B0F848DD8CCFCF9F2767A76E99CCDE733677E3EF59D9BBB9BA5E37F984D16E78BC5E5F5ED25044B25C0C96822E8D60EEFE11B91C581D77CEA34368A1F5329E68CD1B8B61F16D63A1B8E092D294B10C78C4A48EB593D192E7DED9BDEE7995E1B91FDEDD3ACEA9FE831
310
6A756F9F7D4D79F4274C90A7A04248AA51D5F8C718DAE06FB2F75AC4796EBE65D22A88A22223B995679120E2D50E41AA49C260C046A35368846B0BECD0DFF3EBEB8AD4F835768F69B9ADF25C43D30E6B646F807FAA64AD59F61715C7A54127C4AACA98BA3006A9D792DAE165E0D59B61A01FB3A9F9D838D2DAE62445C86166
310
F37564E842E7DE6A69879FEEA2DD5AE7E371E1A5E025154AC307D06A03D73EB5978C58FFA4C8E9033066E0F3BD53BEC1F39F91BE7B55103791EDE6BBB991A2046172CB4581D8B893FA674DDA17A77B3B7C413D1B511FD2743BFF8A38F03A658705E3ADF8015C3A3417FF3D7E439FF591DA0B5F18BC20C1B8981957AE6392A3
310
F43C640C01D1A0B4728E2DD4F26DB4B3C3152A252A3B4E913CEC1C72F012782FF88EFF8637AA552DBEF76408E8A8DE9E50F9E1CB3A2DA0DB1B6039A893B56063DC5B3E3FFB5F72E67AB9FEB4AEC496C4F4C1149625DD662C53E89D7BF0F6151A046260D1337DFDC94502430F83B0EE07A130A224BCAD7DAE1D9FB6CD422FF6
310
920702629C4BB9AE79C12F243C6432A6794E18E5552BA56B431AAB5D91317302B2B071E86C3A42B1A02F999E24061403B5D0EB639195DA655DD3EBEAB4FB862DDF579F014AD0E73C22F99E28DA57FB98E75C6CA2D74D53086D600F4786E0FE3144B771A8A7B900F03594DB8A633CBC49B2EDB69228BB479CF863B5E807AAAB
310
23872F6DFEB4129B949CA33823F58830E86D65621E10047D9DB34D862E8EAC3C2ABC2F7B2C40D67CDFE01F5545B92105AF983AC54D93D69E56FB8E797F88913F898A9FEC705D3F9D1B54EC8426FB500D40A03BD0119B06E1B95DDC7EB8F6975367793EBD70E66733DFB9BC982F9CE564727731999F5D4ECFCE3B8D6A4DC2A0
310
6D50FD148437D110834A64C6CDDF57FBACB5C307A2A477DFE4939736CFEF2B175371E0E10CF0DD1D5C15654E0BCA14D1E87DD02FF93782A162C0A3D95F1524A52770F972BF1EE9809D13CE7DD599467F8ECE9ADD85CE85A34CD45355448C64F9E8A031DC2D596ACC6E5DD93D9B82DE2EF5CAF81363A8E47996A0DE24564A79
310
4115AACE09C55E14540231FDA13C319787134EBF34E3A022514E5B4D9E0826E25C02D5805B15ABE1BEF51B26383D445DD9E875EE33FE4C22DA16427D65A3BCA92CA6D28DD01DF5DC53330704308475351050232CCD31583787BA75774AFB06E5070DD0C8EF484E19968C5D83BA5B90B244D31E54D55A372320FE4786B7EA58
310
44E135AA5467CB7EA333A61683CC6A8C3257034C10CF46F40EF9F5BE59BE5BD30C3C72D235E95D10345C1D45445A5F0BB47E46A5EBE5570F9380B5FA629579952296A773720405982B9DE04011506178964401AA8BDF1FBF0A8EAB6861DD6580C0E38217056766716DAEB2D6FA0917D3E4116581EADB879C4E7CFFB11EFACD
310
3D641311495D92C8676CB409A72D18610D803CE8A626049E8EC1887CB5B44CC39883690DDA8399B4B9855B481E7D71D4A9D22F96E5BB73BF5793020C02137BF837504B0304140006080000CC70623B000000000000000000000000350000006662782F36394639363044362D344446342D343946362D394244322D32343142
310
43333846323333332F76657274696365732E62696E504B0304140006080800CC70623BF270F1330600000004000000360000006662782F36394639363044362D344446342D343946362D394244322D3234314243333846323333332F747269616E676C65732E62696E636660600000504B0304140006080000CC70623B0000
310
00000000000000000000370000006662782F36394639363044362D344446342D343946362D394244322D3234314243333846323333332F617474726962757465732E62696E504B0304140006080800CC70623B08DA0BD19000000041010000360000006662782F36394639363044362D344446342D343946362D394244322D
310
3234314243333846323333332F6469726563746F72792E786D6C858F410AC3201045AF22B36F53E9A60B35CBEEBAE80D244E44489C6234F4F835464A48035D0DF398FF9F8AF63D0E6CC63039F212F8F9020C7D47C6792B21C5FE7403D62A1188E2E60C98D7234A5830286103A55745067B9D86B8A3CF9C7F90C11DE607FB14
310
4396D7B6A82D282E9A152AD114D5EF2CB866EEE831B8EEA07A7BB5A8D7D61A2BAAEB7FD5F70921FF497D00504B0304140006080800CC70623BCA768048FE000000A00100003B0000006662782F36394639363044362D344446342D343946362D394244322D3234314243333846323333332F7265736F75726365732F636F72
310
652E786D6C8D50596E833010BD0A9ADFCA60D600328E9AA639412F609909B1126CE4A5EAF16B0295DABFFECC8CDEA2797AECF8353F924FB44E193D409E5248504B332A3D0D10FC95B4901C39B3C6F85F3248B49871801506CE266BC2B243D2688FDA47549B11775038871E12F988C7004EDE7016A9083E2ADC3D5D84BC8B09
310
D33C8D74D471E6BC8D0192EDC93A815B742658898E651BCB59086ADC356A8C3FD555A1055ED7E7E254D615792D0F075295F585746FF53B694EE78A565DD736979A65AB9933AFE69F8CD2A2F038022F28ED489E135A7CE4554F9BBEA85E68DB53CAB255FEC71496F19FA6A0B42F8B3DEE6673C0F318E4497096AD7DC5F52C33
310
EEB55BFE0D504B010214000A0000080000CC70623B3DEE336E79000000790000001B00000000000000000000000000000000006175746F6465736B2D64657369676E2D7061636B6167652E786D6C504B01021400140006080800CC70623BD486FD9CA0000000F40000001300000000000000000000000000B20000005B436F
310
6E74656E745F54797065735D2E786D6C504B01021400140006080800CC70623BD9DDAED0EC0000007C010000080000000000000000000000000083010000636F72652E786D6C504B01021400140006080800CC70623B55019EA25F0000007C000000070000000000000000000000000095020000636E782E786D6C504B0102
310
1400140006080800CC70623BA24EB22D72010000D40300000C00000000000000000000000000190300006662782F636F72652E786D6C504B01021400140006080800CC70623B408A7D3B7C0000009D0000000B00000000000000000000000000B50400006662782F636E782E786D6C504B01021400140006080800CC70623B
310
449FB9BD290100001202000031000000000000000000000000005A0500006662782F36394639363044362D344446342D343946362D394244322D3234314243333846323333332F636F72652E786D6C504B01021400140006080800CC70623BAD7543B64E010000330300003000000000000000000000000000D20600006662
310
782F36394639363044362D344446342D343946362D394244322D3234314243333846323333332F636E782E786D6C504B01021400140006080800CC70623B8D05915C650500003B10000034000000000000000000000000006E0800006662782F36394639363044362D344446342D343946362D394244322D32343142433338
310
46323333332F6F626A656374732E786D6C504B01021400140006080000CC70623B0000000000000000000000003500000000000000000000000000250E00006662782F36394639363044362D344446342D343946362D394244322D3234314243333846323333332F76657274696365732E62696E504B010214001400060808
310
00CC70623BF270F13306000000040000003600000000000000000000000000780E00006662782F36394639363044362D344446342D343946362D394244322D3234314243333846323333332F747269616E676C65732E62696E504B01021400140006080000CC70623B00000000000000000000000037000000000000000000
310
00000000D20E00006662782F36394639363044362D344446342D343946362D394244322D3234314243333846323333332F617474726962757465732E62696E504B01021400140006080800CC70623B08DA0BD190000000410100003600000000000000000000000000270F00006662782F36394639363044362D344446342D
310
343946362D394244322D3234314243333846323333332F6469726563746F72792E786D6C504B01021400140006080800CC70623BCA768048FE000000A00100003B000000000000000000000000000B1000006662782F36394639363044362D344446342D343946362D394244322D3234314243333846323333332F7265736F
310
75726365732F636F72652E786D6C504B0506000000000E000E0080040000621100000000
  0
XRECORD
  5
176
102
{ACAD_REACTORS
330
173
102
}
330
173
100
AcDbXrecord
280
     1
270
     1
271
     1
  0
XRECORD
  5
177
102
{ACAD_REACTORS
330
173
102
}
330
173
100
AcDbXrecord
280
     1
270
     1
271
     1
  0
XRECORD
  5
19F1B
102
{ACAD_REACTORS
330
19F1A
102
}
330
19F1A
100
AcDbXrecord
280
     1
102
ACAD_ROUNDTRIP_2012_MLEADER_STYLE
298
     1
  0
XRECORD
  5
19F2D
102
{ACAD_REACTORS
330
19F2C
102
}
330
19F2C
100
AcDbXrecord
280
     1
102
DISPLAYNAME
  1
Metric50
102
FLAGS
 90
        0
  0
CELLSTYLEMAP
  5
19EED
102
{ACAD_REACTORS
330
162
102
}
330
162
100
AcDbCellStyleMap
 90
        3
300
CELLSTYLE
  1
TABLEFORMAT_BEGIN
 90
        5
170
     1
 91
        0
 92
    32768
 62
   257
 93
        1
300
CONTENTFORMAT
  1
CONTENTFORMAT_BEGIN
 90
        0
 91
        0
 92
      512
 93
        0
300

 40
0.0
140
1.0
 94
        5
 62
     0
340
11
144
6.0
309
CONTENTFORMAT_END
171
     1
301
MARGIN
  1
CELLMARGIN_BEGIN
 40
1.5
 40
1.5
 40
1.5
 40
1.5
 40
4.5
 40
4.5
309
CELLMARGIN_END
 94
        6
 95
        1
302
GRIDFORMAT
  1
GRIDFORMAT_BEGIN
 90
        0
 91
        1
 62
     0
 92
       -2
340
14
 93
        0
 40
1.125
309
GRIDFORMAT_END
 95
        2
302
GRIDFORMAT
  1
GRIDFORMAT_BEGIN
 90
        0
 91
        1
 62
     0
 92
       -2
340
14
 93
        0
 40
1.125
309
GRIDFORMAT_END
 95
        4
302
GRIDFORMAT
  1
GRIDFORMAT_BEGIN
 90
        0
 91
        1
 62
     0
 92
       -2
340
14
 93
        0
 40
1.125
309
GRIDFORMAT_END
 95
        8
302
GRIDFORMAT
  1
GRIDFORMAT_BEGIN
 90
        0
 91
        1
 62
     0
 92
       -2
340
14
 93
        0
 40
1.125
309
GRIDFORMAT_END
 95
       16
302
GRIDFORMAT
  1
GRIDFORMAT_BEGIN
 90
        0
 91
        1
 62
     0
 92
       -2
340
14
 93
        0
 40
1.125
309
GRIDFORMAT_END
 95
       32
302
GRIDFORMAT
  1
GRIDFORMAT_BEGIN
 90
        0
 91
        1
 62
     0
 92
       -2
340
14
 93
        0
 40
1.125
309
GRIDFORMAT_END
309
TABLEFORMAT_END
  1
CELLSTYLE_BEGIN
 90
        1
 91
        1
300
_TITLE
309
CELLSTYLE_END
300
CELLSTYLE
  1
TABLEFORMAT_BEGIN
 90
        5
170
     1
 91
        0
 92
        0
 62
   257
 93
        1
300
CONTENTFORMAT
  1
CONTENTFORMAT_BEGIN
 90
        0
 91
        0
 92
      512
 93
        0
300

 40
0.0
140
1.0
 94
        5
 62
     0
340
11
144
4.5
309
CONTENTFORMAT_END
171
     1
301
MARGIN
  1
CELLMARGIN_BEGIN
 40
1.5
 40
1.5
 40
1.5
 40
1.5
 40
4.5
 40
4.5
309
CELLMARGIN_END
 94
        6
 95
        1
302
GRIDFORMAT
  1
GRIDFORMAT_BEGIN
 90
        0
 91
        1
 62
     0
 92
       -2
340
14
 93
        0
 40
1.125
309
GRIDFORMAT_END
 95
        2
302
GRIDFORMAT
  1
GRIDFORMAT_BEGIN
 90
        0
 91
        1
 62
     0
 92
       -2
340
14
 93
        0
 40
1.125
309
GRIDFORMAT_END
 95
        4
302
GRIDFORMAT
  1
GRIDFORMAT_BEGIN
 90
        0
 91
        1
 62
     0
 92
       -2
340
14
 93
        0
 40
1.125
309
GRIDFORMAT_END
 95
        8
302
GRIDFORMAT
  1
GRIDFORMAT_BEGIN
 90
        0
 91
        1
 62
     0
 92
       -2
340
14
 93
        0
 40
1.125
309
GRIDFORMAT_END
 95
       16
302
GRIDFORMAT
  1
GRIDFORMAT_BEGIN
 90
        0
 91
        1
 62
     0
 92
       -2
340
14
 93
        0
 40
1.125
309
GRIDFORMAT_END
 95
       32
302
GRIDFORMAT
  1
GRIDFORMAT_BEGIN
 90
        0
 91
        1
 62
     0
 92
       -2
340
14
 93
        0
 40
1.125
309
GRIDFORMAT_END
309
TABLEFORMAT_END
  1
CELLSTYLE_BEGIN
 90
        2
 91
        1
300
_HEADER
309
CELLSTYLE_END
300
CELLSTYLE
  1
TABLEFORMAT_BEGIN
 90
        5
170
     1
 91
        0
 92
        0
 62
   257
 93
        1
300
CONTENTFORMAT
  1
CONTENTFORMAT_BEGIN
 90
        0
 91
        0
 92
      512
 93
        0
300

 40
0.0
140
1.0
 94
        2
 62
     0
340
11
144
4.5
309
CONTENTFORMAT_END
171
     1
301
MARGIN
  1
CELLMARGIN_BEGIN
 40
1.5
 40
1.5
 40
1.5
 40
1.5
 40
4.5
 40
4.5
309
CELLMARGIN_END
 94
        6
 95
        1
302
GRIDFORMAT
  1
GRIDFORMAT_BEGIN
 90
        0
 91
        1
 62
     0
 92
       -2
340
14
 93
        0
 40
1.125
309
GRIDFORMAT_END
 95
        2
302
GRIDFORMAT
  1
GRIDFORMAT_BEGIN
 90
        0
 91
        1
 62
     0
 92
       -2
340
14
 93
        0
 40
1.125
309
GRIDFORMAT_END
 95
        4
302
GRIDFORMAT
  1
GRIDFORMAT_BEGIN
 90
        0
 91
        1
 62
     0
 92
       -2
340
14
 93
        0
 40
1.125
309
GRIDFORMAT_END
 95
        8
302
GRIDFORMAT
  1
GRIDFORMAT_BEGIN
 90
        0
 91
        1
 62
     0
 92
       -2
340
14
 93
        0
 40
1.125
309
GRIDFORMAT_END
 95
       16
302
GRIDFORMAT
  1
GRIDFORMAT_BEGIN
 90
        0
 91
        1
 62
     0
 92
       -2
340
14
 93
        0
 40
1.125
309
GRIDFORMAT_END
 95
       32
302
GRIDFORMAT
  1
GRIDFORMAT_BEGIN
 90
        0
 91
        1
 62
     0
 92
       -2
340
14
 93
        0
 40
1.125
309
GRIDFORMAT_END
309
TABLEFORMAT_END
  1
CELLSTYLE_BEGIN
 90
        3
 91
        2
300
_DATA
309
CELLSTYLE_END
  0
XRECORD
  5
19EF2
102
{ACAD_REACTORS
330
162
102
}
330
162
100
AcDbXrecord
280
     1
102
ACAD_ROUNDTRIP_PRE2007_TABLESTYLE
 90
      512
 91
        0
  1

 92
      512
 93
        0
  2

 94
      512
 95
        0
  3

  0
XRECORD
  5
19F05
102
{ACAD_REACTORS
330
19F04
102
}
330
19F04
100
AcDbXrecord
280
     1
102
RTVSPost2010Prop28
280
     1
102
RTVSPost2010PropOp28
 70
     1
102
RTVSPost2010Prop29
280
     1
102
RTVSPost2010PropOp29
 70
     1
102
RTVSPost2010Prop30
280
     0
102
RTVSPost2010PropOp30
 70
     1
102
RTVSPost2010Prop31
280
     0
102
RTVSPost2010PropOp31
 70
     1
102
RTVSPost2010Prop32
280
     0
102
RTVSPost2010PropOp32
 70
     1
102
RTVSPost2010Prop33
280
     0
102
RTVSPost2010PropOp33
 70
     1
102
RTVSPost2010Prop34
280
     0
102
RTVSPost2010PropOp34
 70
     1
102
RTVSPost2010Prop35
280
     0
102
RTVSPost2010PropOp35
 70
     1
102
RTVSPost2010Prop36
280
     0
102
RTVSPost2010PropOp36
 70
     1
102
RTVSPost2010Prop37
 90
       50
102
RTVSPost2010PropOp37
 70
     1
102
RTVSPost2010Prop38
140
0.0
102
RTVSPost2010PropOp38
 70
     1
102
RTVSPost2010Prop39
140
1.0
102
RTVSPost2010PropOp39
 70
     1
102
RTVSPost2010Prop40
 90
        0
102
RTVSPost2010PropOp40
 70
     1
102
RTVSPost2010Prop41ColorIndex
 90
       18
102
RTVSPost2010Prop41ColorRGB
 90
        0
102
RTVSPost2010PropOp41
 70
     1
102
RTVSPost2010Prop42
 90
       50
102
RTVSPost2010PropOp42
 70
     1
102
RTVSPost2010Prop43
 90
        3
102
RTVSPost2010PropOp43
 70
     1
102
RTVSPost2010Prop44ColorIndex
 90
        5
102
RTVSPost2010Prop44ColorRGB
 90
      255
102
RTVSPost2010PropOp44
 70
     1
102
RTVSPost2010Prop45
280
     0
102
RTVSPost2010PropOp45
 70
     1
102
RTVSPost2010Prop46
 90
       50
102
RTVSPost2010PropOp46
 70
     1
102
RTVSPost2010Prop47
 90
       50
102
RTVSPost2010PropOp47
 70
     1
102
RTVSPost2010Prop48
 90
       50
102
RTVSPost2010PropOp48
 70
     1
102
RTVSPost2010Prop49
280
     0
102
RTVSPost2010PropOp49
 70
     1
102
RTVSPost2010Prop50
 90
       50
102
RTVSPost2010PropOp50
 70
     1
102
RTVSPost2010Prop51ColorIndex
 90
      256
102
RTVSPost2010Prop51ColorRGB
 90
-16777216
102
RTVSPost2010PropOp51
 70
     0
102
RTVSPost2010Prop52
140
1.0
102
RTVSPost2010PropOp52
 70
     0
102
RTVSPost2010Prop53
 90
        2
102
RTVSPost2010PropOp53
 70
     1
102
RTVSPost2010Prop54
  1
strokes_ogs.tif
102
RTVSPost2010PropOp54
 70
     1
102
RTVSPost2010Prop55
280
     0
102
RTVSPost2010PropOp55
 70
     1
102
RTVSPost2010Prop56
140
1.0
102
RTVSPost2010PropOp56
 70
     1
102
RTVSPost2010Prop57
140
1.0
102
RTVSPost2010PropOp57
 70
     1
102
RTVSPropertyOp0
 70
     1
102
RTVSPropertyOp1
 70
     1
102
RTVSPropertyOp2
 70
     1
102
RTVSPropertyOp3
 70
     1
102
RTVSPropertyOp4
 70
     1
102
RTVSPropertyOp5
 70
     1
102
RTVSPropertyOp6
 70
     1
102
RTVSPropertyOp7
 70
     1
102
RTVSPropertyOp8
 70
     1
102
RTVSPropertyOp9
 70
     1
102
RTVSPropertyOp10
 70
     1
102
RTVSPropertyOp11
 70
     1
102
RTVSPropertyOp12
 70
     1
102
RTVSPropertyOp13
 70
     1
102
RTVSPropertyOp14
 70
     1
102
RTVSPropertyOp15
 70
     1
102
RTVSPropertyOp16
 70
     1
102
RTVSPropertyOp17
 70
     1
102
RTVSPropertyOp18
 70
     1
102
RTVSPropertyOp19
 70
     1
102
RTVSPropertyOp20
 70
     1
102
RTVSPropertyOp21
 70
     1
102
RTVSPropertyOp22
 70
     1
102
RTVSPropertyOp23
 70
     1
102
RTVSPropertyOp24
 70
     1
102
RTVSPropertyOp25
 70
     1
102
RTVSPropertyOp26
 70
     1
102
RTVSPropertyOp27
 70
     1
102
RTVSPropertyOp28
 70
     1
102
RTVSPropertyOp29
 70
     1
102
RTVSPropertyOp30
 70
     1
102
RTVSPropertyOp31
 70
     1
102
RTVSPropertyOp32
 70
     1
102
RTVSPropertyOp33
 70
     1
102
RTVSPropertyOp34
 70
     1
102
RTVSPropertyOp35
 70
     1
102
RTVSPropertyOp36
 70
     1
102
RTVSPropertyOp37
 70
     1
102
RTVSPropertyOp38
 70
     1
102
RTVSPropertyOp39
 70
     1
102
RTVSPropertyOp40
 70
     1
102
RTVSPropertyOp41
 70
     1
102
RTVSPropertyOp42
 70
     1
102
RTVSPropertyOp43
 70
     1
102
RTVSPropertyOp44
 70
     1
102
RTVSPropertyOp45
 70
     1
102
RTVSPropertyOp46
 70
     1
102
RTVSPropertyOp47
 70
     1
102
RTVSPropertyOp48
 70
     1
102
RTVSPropertyOp49
 70
     1
102
RTVSPropertyOp50
 70
     1
102
RTVSPropertyOp51
 70
     0
102
RTVSPropertyOp52
 70
     0
102
RTVSPropertyOp53
 70
     1
102
RTVSPropertyOp54
 70
     1
102
RTVSPropertyOp55
 70
     1
102
RTVSPropertyOp56
 70
     1
102
RTVSPropertyOp57
 70
     1
102
RTVSPropertyOp58
 70
     1
102
RTVSPropertyOp59
 70
     1
102
RTVSPropertyOp60
 70
     1
102
RTVSPropertyOp61
 70
     1
102
RTVSPropertyOp62
 70
     1
  0
XRECORD
  5
19F03
102
{ACAD_REACTORS
330
19F02
102
}
330
19F02
100
AcDbXrecord
280
     1
102
RTVSPost2010Prop28
280
     0
102
RTVSPost2010PropOp28
 70
     1
102
RTVSPost2010Prop29
280
     1
102
RTVSPost2010PropOp29
 70
     1
102
RTVSPost2010Prop30
280
     1
102
RTVSPost2010PropOp30
 70
     1
102
RTVSPost2010Prop31
280
     0
102
RTVSPost2010PropOp31
 70
     1
102
RTVSPost2010Prop32
280
     0
102
RTVSPost2010PropOp32
 70
     1
102
RTVSPost2010Prop33
280
     0
102
RTVSPost2010PropOp33
 70
     1
102
RTVSPost2010Prop34
280
     0
102
RTVSPost2010PropOp34
 70
     1
102
RTVSPost2010Prop35
280
     0
102
RTVSPost2010PropOp35
 70
     1
102
RTVSPost2010Prop36
280
     0
102
RTVSPost2010PropOp36
 70
     1
102
RTVSPost2010Prop37
 90
       50
102
RTVSPost2010PropOp37
 70
     1
102
RTVSPost2010Prop38
140
0.0
102
RTVSPost2010PropOp38
 70
     1
102
RTVSPost2010Prop39
140
1.0
102
RTVSPost2010PropOp39
 70
     1
102
RTVSPost2010Prop40
 90
        0
102
RTVSPost2010PropOp40
 70
     1
102
RTVSPost2010Prop41ColorIndex
 90
       18
102
RTVSPost2010Prop41ColorRGB
 90
        0
102
RTVSPost2010PropOp41
 70
     1
102
RTVSPost2010Prop42
 90
       50
102
RTVSPost2010PropOp42
 70
     1
102
RTVSPost2010Prop43
 90
        3
102
RTVSPost2010PropOp43
 70
     1
102
RTVSPost2010Prop44ColorIndex
 90
        5
102
RTVSPost2010Prop44ColorRGB
 90
      255
102
RTVSPost2010PropOp44
 70
     1
102
RTVSPost2010Prop45
280
     0
102
RTVSPost2010PropOp45
 70
     1
102
RTVSPost2010Prop46
 90
       50
102
RTVSPost2010PropOp46
 70
     1
102
RTVSPost2010Prop47
 90
       50
102
RTVSPost2010PropOp47
 70
     1
102
RTVSPost2010Prop48
 90
       50
102
RTVSPost2010PropOp48
 70
     1
102
RTVSPost2010Prop49
280
     0
102
RTVSPost2010PropOp49
 70
     1
102
RTVSPost2010Prop50
 90
       50
102
RTVSPost2010PropOp50
 70
     1
102
RTVSPost2010Prop51ColorIndex
 90
      256
102
RTVSPost2010Prop51ColorRGB
 90
-16777216
102
RTVSPost2010PropOp51
 70
     0
102
RTVSPost2010Prop52
140
1.0
102
RTVSPost2010PropOp52
 70
     0
102
RTVSPost2010Prop53
 90
        2
102
RTVSPost2010PropOp53
 70
     1
102
RTVSPost2010Prop54
  1
strokes_ogs.tif
102
RTVSPost2010PropOp54
 70
     1
102
RTVSPost2010Prop55
280
     0
102
RTVSPost2010PropOp55
 70
     1
102
RTVSPost2010Prop56
140
1.0
102
RTVSPost2010PropOp56
 70
     1
102
RTVSPost2010Prop57
140
1.0
102
RTVSPost2010PropOp57
 70
     1
102
RTVSPropertyOp0
 70
     1
102
RTVSPropertyOp1
 70
     1
102
RTVSPropertyOp2
 70
     1
102
RTVSPropertyOp3
 70
     1
102
RTVSPropertyOp4
 70
     1
102
RTVSPropertyOp5
 70
     1
102
RTVSPropertyOp6
 70
     1
102
RTVSPropertyOp7
 70
     1
102
RTVSPropertyOp8
 70
     1
102
RTVSPropertyOp9
 70
     1
102
RTVSPropertyOp10
 70
     1
102
RTVSPropertyOp11
 70
     1
102
RTVSPropertyOp12
 70
     1
102
RTVSPropertyOp13
 70
     1
102
RTVSPropertyOp14
 70
     1
102
RTVSPropertyOp15
 70
     1
102
RTVSPropertyOp16
 70
     1
102
RTVSPropertyOp17
 70
     1
102
RTVSPropertyOp18
 70
     1
102
RTVSPropertyOp19
 70
     1
102
RTVSPropertyOp20
 70
     1
102
RTVSPropertyOp21
 70
     1
102
RTVSPropertyOp22
 70
     1
102
RTVSPropertyOp23
 70
     1
102
RTVSPropertyOp24
 70
     1
102
RTVSPropertyOp25
 70
     1
102
RTVSPropertyOp26
 70
     1
102
RTVSPropertyOp27
 70
     1
102
RTVSPropertyOp28
 70
     1
102
RTVSPropertyOp29
 70
     1
102
RTVSPropertyOp30
 70
     1
102
RTVSPropertyOp31
 70
     1
102
RTVSPropertyOp32
 70
     1
102
RTVSPropertyOp33
 70
     1
102
RTVSPropertyOp34
 70
     1
102
RTVSPropertyOp35
 70
     1
102
RTVSPropertyOp36
 70
     1
102
RTVSPropertyOp37
 70
     1
102
RTVSPropertyOp38
 70
     1
102
RTVSPropertyOp39
 70
     1
102
RTVSPropertyOp40
 70
     1
102
RTVSPropertyOp41
 70
     1
102
RTVSPropertyOp42
 70
     1
102
RTVSPropertyOp43
 70
     1
102
RTVSPropertyOp44
 70
     1
102
RTVSPropertyOp45
 70
     1
102
RTVSPropertyOp46
 70
     1
102
RTVSPropertyOp47
 70
     1
102
RTVSPropertyOp48
 70
     1
102
RTVSPropertyOp49
 70
     1
102
RTVSPropertyOp50
 70
     1
102
RTVSPropertyOp51
 70
     0
102
RTVSPropertyOp52
 70
     0
102
RTVSPropertyOp53
 70
     1
102
RTVSPropertyOp54
 70
     1
102
RTVSPropertyOp55
 70
     1
102
RTVSPropertyOp56
 70
     1
102
RTVSPropertyOp57
 70
     1
102
RTVSPropertyOp58
 70
     1
102
RTVSPropertyOp59
 70
     1
102
RTVSPropertyOp60
 70
     1
102
RTVSPropertyOp61
 70
     1
102
RTVSPropertyOp62
 70
     1
  0
XRECORD
  5
19F11
102
{ACAD_REACTORS
330
19F10
102
}
330
19F10
100
AcDbXrecord
280
     1
102
RTVSPost2010Prop28
280
     0
102
RTVSPost2010PropOp28
 70
     1
102
RTVSPost2010Prop29
280
     1
102
RTVSPost2010PropOp29
 70
     1
102
RTVSPost2010Prop30
280
     1
102
RTVSPost2010PropOp30
 70
     1
102
RTVSPost2010Prop31
280
     0
102
RTVSPost2010PropOp31
 70
     1
102
RTVSPost2010Prop32
280
     0
102
RTVSPost2010PropOp32
 70
     1
102
RTVSPost2010Prop33
280
     0
102
RTVSPost2010PropOp33
 70
     1
102
RTVSPost2010Prop34
280
     0
102
RTVSPost2010PropOp34
 70
     1
102
RTVSPost2010Prop35
280
     0
102
RTVSPost2010PropOp35
 70
     1
102
RTVSPost2010Prop36
280
     0
102
RTVSPost2010PropOp36
 70
     1
102
RTVSPost2010Prop37
 90
       50
102
RTVSPost2010PropOp37
 70
     1
102
RTVSPost2010Prop38
140
0.0
102
RTVSPost2010PropOp38
 70
     1
102
RTVSPost2010Prop39
140
1.0
102
RTVSPost2010PropOp39
 70
     1
102
RTVSPost2010Prop40
 90
        0
102
RTVSPost2010PropOp40
 70
     1
102
RTVSPost2010Prop41ColorIndex
 90
       18
102
RTVSPost2010Prop41ColorRGB
 90
        0
102
RTVSPost2010PropOp41
 70
     1
102
RTVSPost2010Prop42
 90
       50
102
RTVSPost2010PropOp42
 70
     1
102
RTVSPost2010Prop43
 90
        3
102
RTVSPost2010PropOp43
 70
     1
102
RTVSPost2010Prop44ColorIndex
 90
        5
102
RTVSPost2010Prop44ColorRGB
 90
      255
102
RTVSPost2010PropOp44
 70
     1
102
RTVSPost2010Prop45
280
     0
102
RTVSPost2010PropOp45
 70
     1
102
RTVSPost2010Prop46
 90
       50
102
RTVSPost2010PropOp46
 70
     1
102
RTVSPost2010Prop47
 90
       50
102
RTVSPost2010PropOp47
 70
     1
102
RTVSPost2010Prop48
 90
       50
102
RTVSPost2010PropOp48
 70
     1
102
RTVSPost2010Prop49
280
     0
102
RTVSPost2010PropOp49
 70
     1
102
RTVSPost2010Prop50
 90
       50
102
RTVSPost2010PropOp50
 70
     1
102
RTVSPost2010Prop51ColorIndex
 90
      256
102
RTVSPost2010Prop51ColorRGB
 90
-16777216
102
RTVSPost2010PropOp51
 70
     0
102
RTVSPost2010Prop52
140
1.0
102
RTVSPost2010PropOp52
 70
     0
102
RTVSPost2010Prop53
 90
        2
102
RTVSPost2010PropOp53
 70
     1
102
RTVSPost2010Prop54
  1
strokes_ogs.tif
102
RTVSPost2010PropOp54
 70
     1
102
RTVSPost2010Prop55
280
     0
102
RTVSPost2010PropOp55
 70
     1
102
RTVSPost2010Prop56
140
1.0
102
RTVSPost2010PropOp56
 70
     1
102
RTVSPost2010Prop57
140
1.0
102
RTVSPost2010PropOp57
 70
     1
102
RTVSPropertyOp0
 70
     1
102
RTVSPropertyOp1
 70
     1
102
RTVSPropertyOp2
 70
     1
102
RTVSPropertyOp3
 70
     1
102
RTVSPropertyOp4
 70
     1
102
RTVSPropertyOp5
 70
     1
102
RTVSPropertyOp6
 70
     1
102
RTVSPropertyOp7
 70
     1
102
RTVSPropertyOp8
 70
     1
102
RTVSPropertyOp9
 70
     1
102
RTVSPropertyOp10
 70
     1
102
RTVSPropertyOp11
 70
     1
102
RTVSPropertyOp12
 70
     1
102
RTVSPropertyOp13
 70
     1
102
RTVSPropertyOp14
 70
     1
102
RTVSPropertyOp15
 70
     1
102
RTVSPropertyOp16
 70
     1
102
RTVSPropertyOp17
 70
     1
102
RTVSPropertyOp18
 70
     1
102
RTVSPropertyOp19
 70
     1
102
RTVSPropertyOp20
 70
     1
102
RTVSPropertyOp21
 70
     1
102
RTVSPropertyOp22
 70
     1
102
RTVSPropertyOp23
 70
     1
102
RTVSPropertyOp24
 70
     1
102
RTVSPropertyOp25
 70
     1
102
RTVSPropertyOp26
 70
     1
102
RTVSPropertyOp27
 70
     1
102
RTVSPropertyOp28
 70
     1
102
RTVSPropertyOp29
 70
     1
102
RTVSPropertyOp30
 70
     1
102
RTVSPropertyOp31
 70
     1
102
RTVSPropertyOp32
 70
     1
102
RTVSPropertyOp33
 70
     1
102
RTVSPropertyOp34
 70
     1
102
RTVSPropertyOp35
 70
     1
102
RTVSPropertyOp36
 70
     1
102
RTVSPropertyOp37
 70
     1
102
RTVSPropertyOp38
 70
     1
102
RTVSPropertyOp39
 70
     1
102
RTVSPropertyOp40
 70
     1
102
RTVSPropertyOp41
 70
     1
102
RTVSPropertyOp42
 70
     1
102
RTVSPropertyOp43
 70
     1
102
RTVSPropertyOp44
 70
     1
102
RTVSPropertyOp45
 70
     1
102
RTVSPropertyOp46
 70
     1
102
RTVSPropertyOp47
 70
     1
102
RTVSPropertyOp48
 70
     1
102
RTVSPropertyOp49
 70
     1
102
RTVSPropertyOp50
 70
     1
102
RTVSPropertyOp51
 70
     0
102
RTVSPropertyOp52
 70
     0
102
RTVSPropertyOp53
 70
     1
102
RTVSPropertyOp54
 70
     1
102
RTVSPropertyOp55
 70
     1
102
RTVSPropertyOp56
 70
     1
102
RTVSPropertyOp57
 70
     1
102
RTVSPropertyOp58
 70
     1
102
RTVSPropertyOp59
 70
     1
102
RTVSPropertyOp60
 70
     1
102
RTVSPropertyOp61
 70
     1
102
RTVSPropertyOp62
 70
     1
  0
XRECORD
  5
19F19
102
{ACAD_REACTORS
330
19F18
102
}
330
19F18
100
AcDbXrecord
280
     1
102
RTVSPost2010Prop28
280
     0
102
RTVSPost2010PropOp28
 70
     1
102
RTVSPost2010Prop29
280
     1
102
RTVSPost2010PropOp29
 70
     1
102
RTVSPost2010Prop30
280
     1
102
RTVSPost2010PropOp30
 70
     1
102
RTVSPost2010Prop31
280
     0
102
RTVSPost2010PropOp31
 70
     1
102
RTVSPost2010Prop32
280
     0
102
RTVSPost2010PropOp32
 70
     1
102
RTVSPost2010Prop33
280
     0
102
RTVSPost2010PropOp33
 70
     1
102
RTVSPost2010Prop34
280
     0
102
RTVSPost2010PropOp34
 70
     1
102
RTVSPost2010Prop35
280
     0
102
RTVSPost2010PropOp35
 70
     1
102
RTVSPost2010Prop36
280
     0
102
RTVSPost2010PropOp36
 70
     1
102
RTVSPost2010Prop37
 90
       50
102
RTVSPost2010PropOp37
 70
     1
102
RTVSPost2010Prop38
140
0.0
102
RTVSPost2010PropOp38
 70
     1
102
RTVSPost2010Prop39
140
1.0
102
RTVSPost2010PropOp39
 70
     1
102
RTVSPost2010Prop40
 90
        0
102
RTVSPost2010PropOp40
 70
     1
102
RTVSPost2010Prop41ColorIndex
 90
       18
102
RTVSPost2010Prop41ColorRGB
 90
        0
102
RTVSPost2010PropOp41
 70
     1
102
RTVSPost2010Prop42
 90
       50
102
RTVSPost2010PropOp42
 70
     1
102
RTVSPost2010Prop43
 90
        3
102
RTVSPost2010PropOp43
 70
     1
102
RTVSPost2010Prop44ColorIndex
 90
        5
102
RTVSPost2010Prop44ColorRGB
 90
      255
102
RTVSPost2010PropOp44
 70
     1
102
RTVSPost2010Prop45
280
     0
102
RTVSPost2010PropOp45
 70
     1
102
RTVSPost2010Prop46
 90
       50
102
RTVSPost2010PropOp46
 70
     1
102
RTVSPost2010Prop47
 90
       50
102
RTVSPost2010PropOp47
 70
     1
102
RTVSPost2010Prop48
 90
       50
102
RTVSPost2010PropOp48
 70
     1
102
RTVSPost2010Prop49
280
     0
102
RTVSPost2010PropOp49
 70
     1
102
RTVSPost2010Prop50
 90
       50
102
RTVSPost2010PropOp50
 70
     1
102
RTVSPost2010Prop51ColorIndex
 90
      256
102
RTVSPost2010Prop51ColorRGB
 90
-16777216
102
RTVSPost2010PropOp51
 70
     0
102
RTVSPost2010Prop52
140
1.0
102
RTVSPost2010PropOp52
 70
     0
102
RTVSPost2010Prop53
 90
        2
102
RTVSPost2010PropOp53
 70
     1
102
RTVSPost2010Prop54
  1
strokes_ogs.tif
102
RTVSPost2010PropOp54
 70
     1
102
RTVSPost2010Prop55
280
     0
102
RTVSPost2010PropOp55
 70
     1
102
RTVSPost2010Prop56
140
1.0
102
RTVSPost2010PropOp56
 70
     1
102
RTVSPost2010Prop57
140
1.0
102
RTVSPost2010PropOp57
 70
     1
102
RTVSPropertyOp0
 70
     1
102
RTVSPropertyOp1
 70
     1
102
RTVSPropertyOp2
 70
     1
102
RTVSPropertyOp3
 70
     1
102
RTVSPropertyOp4
 70
     1
102
RTVSPropertyOp5
 70
     1
102
RTVSPropertyOp6
 70
     1
102
RTVSPropertyOp7
 70
     1
102
RTVSPropertyOp8
 70
     1
102
RTVSPropertyOp9
 70
     1
102
RTVSPropertyOp10
 70
     1
102
RTVSPropertyOp11
 70
     1
102
RTVSPropertyOp12
 70
     1
102
RTVSPropertyOp13
 70
     1
102
RTVSPropertyOp14
 70
     1
102
RTVSPropertyOp15
 70
     1
102
RTVSPropertyOp16
 70
     1
102
RTVSPropertyOp17
 70
     1
102
RTVSPropertyOp18
 70
     1
102
RTVSPropertyOp19
 70
     1
102
RTVSPropertyOp20
 70
     1
102
RTVSPropertyOp21
 70
     1
102
RTVSPropertyOp22
 70
     1
102
RTVSPropertyOp23
 70
     1
102
RTVSPropertyOp24
 70
     1
102
RTVSPropertyOp25
 70
     1
102
RTVSPropertyOp26
 70
     1
102
RTVSPropertyOp27
 70
     1
102
RTVSPropertyOp28
 70
     1
102
RTVSPropertyOp29
 70
     1
102
RTVSPropertyOp30
 70
     1
102
RTVSPropertyOp31
 70
     1
102
RTVSPropertyOp32
 70
     1
102
RTVSPropertyOp33
 70
     1
102
RTVSPropertyOp34
 70
     1
102
RTVSPropertyOp35
 70
     1
102
RTVSPropertyOp36
 70
     1
102
RTVSPropertyOp37
 70
     1
102
RTVSPropertyOp38
 70
     1
102
RTVSPropertyOp39
 70
     1
102
RTVSPropertyOp40
 70
     1
102
RTVSPropertyOp41
 70
     1
102
RTVSPropertyOp42
 70
     1
102
RTVSPropertyOp43
 70
     1
102
RTVSPropertyOp44
 70
     1
102
RTVSPropertyOp45
 70
     1
102
RTVSPropertyOp46
 70
     1
102
RTVSPropertyOp47
 70
     1
102
RTVSPropertyOp48
 70
     1
102
RTVSPropertyOp49
 70
     1
102
RTVSPropertyOp50
 70
     1
102
RTVSPropertyOp51
 70
     0
102
RTVSPropertyOp52
 70
     0
102
RTVSPropertyOp53
 70
     1
102
RTVSPropertyOp54
 70
     1
102
RTVSPropertyOp55
 70
     1
102
RTVSPropertyOp56
 70
     1
102
RTVSPropertyOp57
 70
     1
102
RTVSPropertyOp58
 70
     1
102
RTVSPropertyOp59
 70
     1
102
RTVSPropertyOp60
 70
     1
102
RTVSPropertyOp61
 70
     1
102
RTVSPropertyOp62
 70
     1
  0
XRECORD
  5
19F0B
102
{ACAD_REACTORS
330
19F0A
102
}
330
19F0A
100
AcDbXrecord
280
     1
102
RTVSPost2010Prop28
280
     0
102
RTVSPost2010PropOp28
 70
     1
102
RTVSPost2010Prop29
280
     1
102
RTVSPost2010PropOp29
 70
     1
102
RTVSPost2010Prop30
280
     1
102
RTVSPost2010PropOp30
 70
     1
102
RTVSPost2010Prop31
280
     0
102
RTVSPost2010PropOp31
 70
     1
102
RTVSPost2010Prop32
280
     0
102
RTVSPost2010PropOp32
 70
     1
102
RTVSPost2010Prop33
280
     0
102
RTVSPost2010PropOp33
 70
     1
102
RTVSPost2010Prop34
280
     0
102
RTVSPost2010PropOp34
 70
     1
102
RTVSPost2010Prop35
280
     0
102
RTVSPost2010PropOp35
 70
     1
102
RTVSPost2010Prop36
280
     0
102
RTVSPost2010PropOp36
 70
     1
102
RTVSPost2010Prop37
 90
       50
102
RTVSPost2010PropOp37
 70
     1
102
RTVSPost2010Prop38
140
0.0
102
RTVSPost2010PropOp38
 70
     1
102
RTVSPost2010Prop39
140
1.0
102
RTVSPost2010PropOp39
 70
     1
102
RTVSPost2010Prop40
 90
        0
102
RTVSPost2010PropOp40
 70
     1
102
RTVSPost2010Prop41ColorIndex
 90
       18
102
RTVSPost2010Prop41ColorRGB
 90
        0
102
RTVSPost2010PropOp41
 70
     1
102
RTVSPost2010Prop42
 90
       50
102
RTVSPost2010PropOp42
 70
     1
102
RTVSPost2010Prop43
 90
        3
102
RTVSPost2010PropOp43
 70
     1
102
RTVSPost2010Prop44ColorIndex
 90
        5
102
RTVSPost2010Prop44ColorRGB
 90
      255
102
RTVSPost2010PropOp44
 70
     1
102
RTVSPost2010Prop45
280
     0
102
RTVSPost2010PropOp45
 70
     1
102
RTVSPost2010Prop46
 90
       50
102
RTVSPost2010PropOp46
 70
     1
102
RTVSPost2010Prop47
 90
       50
102
RTVSPost2010PropOp47
 70
     1
102
RTVSPost2010Prop48
 90
       50
102
RTVSPost2010PropOp48
 70
     1
102
RTVSPost2010Prop49
280
     0
102
RTVSPost2010PropOp49
 70
     1
102
RTVSPost2010Prop50
 90
       50
102
RTVSPost2010PropOp50
 70
     1
102
RTVSPost2010Prop51ColorIndex
 90
      256
102
RTVSPost2010Prop51ColorRGB
 90
-16777216
102
RTVSPost2010PropOp51
 70
     0
102
RTVSPost2010Prop52
140
1.0
102
RTVSPost2010PropOp52
 70
     0
102
RTVSPost2010Prop53
 90
        2
102
RTVSPost2010PropOp53
 70
     1
102
RTVSPost2010Prop54
  1
strokes_ogs.tif
102
RTVSPost2010PropOp54
 70
     1
102
RTVSPost2010Prop55
280
     0
102
RTVSPost2010PropOp55
 70
     1
102
RTVSPost2010Prop56
140
1.0
102
RTVSPost2010PropOp56
 70
     1
102
RTVSPost2010Prop57
140
1.0
102
RTVSPost2010PropOp57
 70
     1
102
RTVSPropertyOp0
 70
     1
102
RTVSPropertyOp1
 70
     1
102
RTVSPropertyOp2
 70
     1
102
RTVSPropertyOp3
 70
     1
102
RTVSPropertyOp4
 70
     1
102
RTVSPropertyOp5
 70
     1
102
RTVSPropertyOp6
 70
     1
102
RTVSPropertyOp7
 70
     1
102
RTVSPropertyOp8
 70
     1
102
RTVSPropertyOp9
 70
     1
102
RTVSPropertyOp10
 70
     1
102
RTVSPropertyOp11
 70
     1
102
RTVSPropertyOp12
 70
     1
102
RTVSPropertyOp13
 70
     1
102
RTVSPropertyOp14
 70
     1
102
RTVSPropertyOp15
 70
     1
102
RTVSPropertyOp16
 70
     1
102
RTVSPropertyOp17
 70
     1
102
RTVSPropertyOp18
 70
     1
102
RTVSPropertyOp19
 70
     1
102
RTVSPropertyOp20
 70
     1
102
RTVSPropertyOp21
 70
     1
102
RTVSPropertyOp22
 70
     1
102
RTVSPropertyOp23
 70
     1
102
RTVSPropertyOp24
 70
     1
102
RTVSPropertyOp25
 70
     1
102
RTVSPropertyOp26
 70
     1
102
RTVSPropertyOp27
 70
     1
102
RTVSPropertyOp28
 70
     1
102
RTVSPropertyOp29
 70
     1
102
RTVSPropertyOp30
 70
     1
102
RTVSPropertyOp31
 70
     1
102
RTVSPropertyOp32
 70
     1
102
RTVSPropertyOp33
 70
     1
102
RTVSPropertyOp34
 70
     1
102
RTVSPropertyOp35
 70
     1
102
RTVSPropertyOp36
 70
     1
102
RTVSPropertyOp37
 70
     1
102
RTVSPropertyOp38
 70
     1
102
RTVSPropertyOp39
 70
     1
102
RTVSPropertyOp40
 70
     1
102
RTVSPropertyOp41
 70
     1
102
RTVSPropertyOp42
 70
     1
102
RTVSPropertyOp43
 70
     1
102
RTVSPropertyOp44
 70
     1
102
RTVSPropertyOp45
 70
     1
102
RTVSPropertyOp46
 70
     1
102
RTVSPropertyOp47
 70
     1
102
RTVSPropertyOp48
 70
     1
102
RTVSPropertyOp49
 70
     1
102
RTVSPropertyOp50
 70
     1
102
RTVSPropertyOp51
 70
     0
102
RTVSPropertyOp52
 70
     0
102
RTVSPropertyOp53
 70
     1
102
RTVSPropertyOp54
 70
     1
102
RTVSPropertyOp55
 70
     1
102
RTVSPropertyOp56
 70
     1
102
RTVSPropertyOp57
 70
     1
102
RTVSPropertyOp58
 70
     1
102
RTVSPropertyOp59
 70
     1
102
RTVSPropertyOp60
 70
     1
102
RTVSPropertyOp61
 70
     1
102
RTVSPropertyOp62
 70
     1
  0
XRECORD
  5
19F0F
102
{ACAD_REACTORS
330
19F0E
102
}
330
19F0E
100
AcDbXrecord
280
     1
102
RTVSPost2010Prop28
280
     0
102
RTVSPost2010PropOp28
 70
     1
102
RTVSPost2010Prop29
280
     1
102
RTVSPost2010PropOp29
 70
     1
102
RTVSPost2010Prop30
280
     1
102
RTVSPost2010PropOp30
 70
     1
102
RTVSPost2010Prop31
280
     0
102
RTVSPost2010PropOp31
 70
     1
102
RTVSPost2010Prop32
280
     0
102
RTVSPost2010PropOp32
 70
     1
102
RTVSPost2010Prop33
280
     0
102
RTVSPost2010PropOp33
 70
     1
102
RTVSPost2010Prop34
280
     0
102
RTVSPost2010PropOp34
 70
     1
102
RTVSPost2010Prop35
280
     0
102
RTVSPost2010PropOp35
 70
     1
102
RTVSPost2010Prop36
280
     0
102
RTVSPost2010PropOp36
 70
     1
102
RTVSPost2010Prop37
 90
       50
102
RTVSPost2010PropOp37
 70
     1
102
RTVSPost2010Prop38
140
0.0
102
RTVSPost2010PropOp38
 70
     1
102
RTVSPost2010Prop39
140
1.0
102
RTVSPost2010PropOp39
 70
     1
102
RTVSPost2010Prop40
 90
        0
102
RTVSPost2010PropOp40
 70
     1
102
RTVSPost2010Prop41ColorIndex
 90
       18
102
RTVSPost2010Prop41ColorRGB
 90
        0
102
RTVSPost2010PropOp41
 70
     1
102
RTVSPost2010Prop42
 90
       50
102
RTVSPost2010PropOp42
 70
     1
102
RTVSPost2010Prop43
 90
        3
102
RTVSPost2010PropOp43
 70
     1
102
RTVSPost2010Prop44ColorIndex
 90
        5
102
RTVSPost2010Prop44ColorRGB
 90
      255
102
RTVSPost2010PropOp44
 70
     1
102
RTVSPost2010Prop45
280
     0
102
RTVSPost2010PropOp45
 70
     1
102
RTVSPost2010Prop46
 90
       50
102
RTVSPost2010PropOp46
 70
     1
102
RTVSPost2010Prop47
 90
       50
102
RTVSPost2010PropOp47
 70
     1
102
RTVSPost2010Prop48
 90
       50
102
RTVSPost2010PropOp48
 70
     1
102
RTVSPost2010Prop49
280
     0
102
RTVSPost2010PropOp49
 70
     1
102
RTVSPost2010Prop50
 90
       50
102
RTVSPost2010PropOp50
 70
     1
102
RTVSPost2010Prop51ColorIndex
 90
      256
102
RTVSPost2010Prop51ColorRGB
 90
-16777216
102
RTVSPost2010PropOp51
 70
     0
102
RTVSPost2010Prop52
140
1.0
102
RTVSPost2010PropOp52
 70
     0
102
RTVSPost2010Prop53
 90
        2
102
RTVSPost2010PropOp53
 70
     1
102
RTVSPost2010Prop54
  1
strokes_ogs.tif
102
RTVSPost2010PropOp54
 70
     1
102
RTVSPost2010Prop55
280
     0
102
RTVSPost2010PropOp55
 70
     1
102
RTVSPost2010Prop56
140
1.0
102
RTVSPost2010PropOp56
 70
     1
102
RTVSPost2010Prop57
140
1.0
102
RTVSPost2010PropOp57
 70
     1
102
RTVSPropertyOp0
 70
     1
102
RTVSPropertyOp1
 70
     1
102
RTVSPropertyOp2
 70
     1
102
RTVSPropertyOp3
 70
     1
102
RTVSPropertyOp4
 70
     1
102
RTVSPropertyOp5
 70
     1
102
RTVSPropertyOp6
 70
     1
102
RTVSPropertyOp7
 70
     1
102
RTVSPropertyOp8
 70
     1
102
RTVSPropertyOp9
 70
     1
102
RTVSPropertyOp10
 70
     1
102
RTVSPropertyOp11
 70
     1
102
RTVSPropertyOp12
 70
     1
102
RTVSPropertyOp13
 70
     1
102
RTVSPropertyOp14
 70
     1
102
RTVSPropertyOp15
 70
     1
102
RTVSPropertyOp16
 70
     1
102
RTVSPropertyOp17
 70
     1
102
RTVSPropertyOp18
 70
     1
102
RTVSPropertyOp19
 70
     1
102
RTVSPropertyOp20
 70
     1
102
RTVSPropertyOp21
 70
     1
102
RTVSPropertyOp22
 70
     1
102
RTVSPropertyOp23
 70
     1
102
RTVSPropertyOp24
 70
     1
102
RTVSPropertyOp25
 70
     1
102
RTVSPropertyOp26
 70
     1
102
RTVSPropertyOp27
 70
     1
102
RTVSPropertyOp28
 70
     1
102
RTVSPropertyOp29
 70
     1
102
RTVSPropertyOp30
 70
     1
102
RTVSPropertyOp31
 70
     1
102
RTVSPropertyOp32
 70
     1
102
RTVSPropertyOp33
 70
     1
102
RTVSPropertyOp34
 70
     1
102
RTVSPropertyOp35
 70
     1
102
RTVSPropertyOp36
 70
     1
102
RTVSPropertyOp37
 70
     1
102
RTVSPropertyOp38
 70
     1
102
RTVSPropertyOp39
 70
     1
102
RTVSPropertyOp40
 70
     1
102
RTVSPropertyOp41
 70
     1
102
RTVSPropertyOp42
 70
     1
102
RTVSPropertyOp43
 70
     1
102
RTVSPropertyOp44
 70
     1
102
RTVSPropertyOp45
 70
     1
102
RTVSPropertyOp46
 70
     1
102
RTVSPropertyOp47
 70
     1
102
RTVSPropertyOp48
 70
     1
102
RTVSPropertyOp49
 70
     1
102
RTVSPropertyOp50
 70
     1
102
RTVSPropertyOp51
 70
     0
102
RTVSPropertyOp52
 70
     0
102
RTVSPropertyOp53
 70
     1
102
RTVSPropertyOp54
 70
     1
102
RTVSPropertyOp55
 70
     1
102
RTVSPropertyOp56
 70
     1
102
RTVSPropertyOp57
 70
     1
102
RTVSPropertyOp58
 70
     1
102
RTVSPropertyOp59
 70
     1
102
RTVSPropertyOp60
 70
     1
102
RTVSPropertyOp61
 70
     1
102
RTVSPropertyOp62
 70
     1
  0
XRECORD
  5
19F21
102
{ACAD_REACTORS
330
19F20
102
}
330
19F20
100
AcDbXrecord
280
     1
102
RTVSPost2010Prop28
280
     0
102
RTVSPost2010PropOp28
 70
     1
102
RTVSPost2010Prop29
280
     1
102
RTVSPost2010PropOp29
 70
     1
102
RTVSPost2010Prop30
280
     1
102
RTVSPost2010PropOp30
 70
     1
102
RTVSPost2010Prop31
280
     0
102
RTVSPost2010PropOp31
 70
     1
102
RTVSPost2010Prop32
280
     0
102
RTVSPost2010PropOp32
 70
     1
102
RTVSPost2010Prop33
280
     0
102
RTVSPost2010PropOp33
 70
     1
102
RTVSPost2010Prop34
280
     0
102
RTVSPost2010PropOp34
 70
     1
102
RTVSPost2010Prop35
280
     0
102
RTVSPost2010PropOp35
 70
     1
102
RTVSPost2010Prop36
280
     0
102
RTVSPost2010PropOp36
 70
     1
102
RTVSPost2010Prop37
 90
       50
102
RTVSPost2010PropOp37
 70
     1
102
RTVSPost2010Prop38
140
0.0
102
RTVSPost2010PropOp38
 70
     1
102
RTVSPost2010Prop39
140
1.0
102
RTVSPost2010PropOp39
 70
     1
102
RTVSPost2010Prop40
 90
        0
102
RTVSPost2010PropOp40
 70
     1
102
RTVSPost2010Prop41ColorIndex
 90
       18
102
RTVSPost2010Prop41ColorRGB
 90
        0
102
RTVSPost2010PropOp41
 70
     1
102
RTVSPost2010Prop42
 90
       50
102
RTVSPost2010PropOp42
 70
     1
102
RTVSPost2010Prop43
 90
        3
102
RTVSPost2010PropOp43
 70
     1
102
RTVSPost2010Prop44ColorIndex
 90
        5
102
RTVSPost2010Prop44ColorRGB
 90
      255
102
RTVSPost2010PropOp44
 70
     1
102
RTVSPost2010Prop45
280
     0
102
RTVSPost2010PropOp45
 70
     1
102
RTVSPost2010Prop46
 90
       50
102
RTVSPost2010PropOp46
 70
     1
102
RTVSPost2010Prop47
 90
       50
102
RTVSPost2010PropOp47
 70
     1
102
RTVSPost2010Prop48
 90
       50
102
RTVSPost2010PropOp48
 70
     1
102
RTVSPost2010Prop49
280
     0
102
RTVSPost2010PropOp49
 70
     1
102
RTVSPost2010Prop50
 90
       50
102
RTVSPost2010PropOp50
 70
     1
102
RTVSPost2010Prop51ColorIndex
 90
      256
102
RTVSPost2010Prop51ColorRGB
 90
-16777216
102
RTVSPost2010PropOp51
 70
     0
102
RTVSPost2010Prop52
140
1.0
102
RTVSPost2010PropOp52
 70
     0
102
RTVSPost2010Prop53
 90
        2
102
RTVSPost2010PropOp53
 70
     1
102
RTVSPost2010Prop54
  1
strokes_ogs.tif
102
RTVSPost2010PropOp54
 70
     1
102
RTVSPost2010Prop55
280
     0
102
RTVSPost2010PropOp55
 70
     1
102
RTVSPost2010Prop56
140
1.0
102
RTVSPost2010PropOp56
 70
     1
102
RTVSPost2010Prop57
140
1.0
102
RTVSPost2010PropOp57
 70
     1
102
RTVSPropertyOp0
 70
     0
102
RTVSPropertyOp1
 70
     0
102
RTVSPropertyOp2
 70
     0
102
RTVSPropertyOp3
 70
     0
102
RTVSPropertyOp4
 70
     0
102
RTVSPropertyOp5
 70
     0
102
RTVSPropertyOp6
 70
     0
102
RTVSPropertyOp7
 70
     0
102
RTVSPropertyOp8
 70
     0
102
RTVSPropertyOp9
 70
     0
102
RTVSPropertyOp10
 70
     0
102
RTVSPropertyOp11
 70
     0
102
RTVSPropertyOp12
 70
     0
102
RTVSPropertyOp13
 70
     0
102
RTVSPropertyOp14
 70
     2
102
RTVSPropertyOp15
 70
     0
102
RTVSPropertyOp16
 70
     0
102
RTVSPropertyOp17
 70
     0
102
RTVSPropertyOp18
 70
     0
102
RTVSPropertyOp19
 70
     0
102
RTVSPropertyOp20
 70
     0
102
RTVSPropertyOp21
 70
     0
102
RTVSPropertyOp22
 70
     0
102
RTVSPropertyOp23
 70
     0
102
RTVSPropertyOp24
 70
     0
102
RTVSPropertyOp25
 70
     0
102
RTVSPropertyOp26
 70
     0
102
RTVSPropertyOp27
 70
     0
102
RTVSPropertyOp28
 70
     1
102
RTVSPropertyOp29
 70
     1
102
RTVSPropertyOp30
 70
     1
102
RTVSPropertyOp31
 70
     1
102
RTVSPropertyOp32
 70
     1
102
RTVSPropertyOp33
 70
     1
102
RTVSPropertyOp34
 70
     1
102
RTVSPropertyOp35
 70
     1
102
RTVSPropertyOp36
 70
     1
102
RTVSPropertyOp37
 70
     1
102
RTVSPropertyOp38
 70
     1
102
RTVSPropertyOp39
 70
     1
102
RTVSPropertyOp40
 70
     1
102
RTVSPropertyOp41
 70
     1
102
RTVSPropertyOp42
 70
     1
102
RTVSPropertyOp43
 70
     1
102
RTVSPropertyOp44
 70
     1
102
RTVSPropertyOp45
 70
     1
102
RTVSPropertyOp46
 70
     1
102
RTVSPropertyOp47
 70
     1
102
RTVSPropertyOp48
 70
     1
102
RTVSPropertyOp49
 70
     1
102
RTVSPropertyOp50
 70
     1
102
RTVSPropertyOp51
 70
     0
102
RTVSPropertyOp52
 70
     0
102
RTVSPropertyOp53
 70
     1
102
RTVSPropertyOp54
 70
     1
102
RTVSPropertyOp55
 70
     1
102
RTVSPropertyOp56
 70
     1
102
RTVSPropertyOp57
 70
     1
102
RTVSPropertyOp58
 70
     1
102
RTVSPropertyOp59
 70
     1
102
RTVSPropertyOp60
 70
     1
102
RTVSPropertyOp61
 70
     1
102
RTVSPropertyOp62
 70
     1
  0
XRECORD
  5
19F17
102
{ACAD_REACTORS
330
19F16
102
}
330
19F16
100
AcDbXrecord
280
     1
102
RTVSPost2010Prop28
280
     0
102
RTVSPost2010PropOp28
 70
     1
102
RTVSPost2010Prop29
280
     1
102
RTVSPost2010PropOp29
 70
     1
102
RTVSPost2010Prop30
280
     1
102
RTVSPost2010PropOp30
 70
     1
102
RTVSPost2010Prop31
280
     0
102
RTVSPost2010PropOp31
 70
     1
102
RTVSPost2010Prop32
280
     0
102
RTVSPost2010PropOp32
 70
     1
102
RTVSPost2010Prop33
280
     0
102
RTVSPost2010PropOp33
 70
     1
102
RTVSPost2010Prop34
280
     0
102
RTVSPost2010PropOp34
 70
     1
102
RTVSPost2010Prop35
280
     0
102
RTVSPost2010PropOp35
 70
     1
102
RTVSPost2010Prop36
280
     0
102
RTVSPost2010PropOp36
 70
     1
102
RTVSPost2010Prop37
 90
       50
102
RTVSPost2010PropOp37
 70
     1
102
RTVSPost2010Prop38
140
0.0
102
RTVSPost2010PropOp38
 70
     1
102
RTVSPost2010Prop39
140
1.0
102
RTVSPost2010PropOp39
 70
     1
102
RTVSPost2010Prop40
 90
        0
102
RTVSPost2010PropOp40
 70
     1
102
RTVSPost2010Prop41ColorIndex
 90
       18
102
RTVSPost2010Prop41ColorRGB
 90
        0
102
RTVSPost2010PropOp41
 70
     1
102
RTVSPost2010Prop42
 90
       50
102
RTVSPost2010PropOp42
 70
     1
102
RTVSPost2010Prop43
 90
        3
102
RTVSPost2010PropOp43
 70
     1
102
RTVSPost2010Prop44ColorIndex
 90
        5
102
RTVSPost2010Prop44ColorRGB
 90
      255
102
RTVSPost2010PropOp44
 70
     1
102
RTVSPost2010Prop45
280
     0
102
RTVSPost2010PropOp45
 70
     1
102
RTVSPost2010Prop46
 90
       50
102
RTVSPost2010PropOp46
 70
     1
102
RTVSPost2010Prop47
 90
       50
102
RTVSPost2010PropOp47
 70
     1
102
RTVSPost2010Prop48
 90
       50
102
RTVSPost2010PropOp48
 70
     1
102
RTVSPost2010Prop49
280
     0
102
RTVSPost2010PropOp49
 70
     1
102
RTVSPost2010Prop50
 90
       50
102
RTVSPost2010PropOp50
 70
     1
102
RTVSPost2010Prop51ColorIndex
 90
      256
102
RTVSPost2010Prop51ColorRGB
 90
-16777216
102
RTVSPost2010PropOp51
 70
     0
102
RTVSPost2010Prop52
140
1.0
102
RTVSPost2010PropOp52
 70
     0
102
RTVSPost2010Prop53
 90
        2
102
RTVSPost2010PropOp53
 70
     1
102
RTVSPost2010Prop54
  1
strokes_ogs.tif
102
RTVSPost2010PropOp54
 70
     1
102
RTVSPost2010Prop55
280
     0
102
RTVSPost2010PropOp55
 70
     1
102
RTVSPost2010Prop56
140
1.0
102
RTVSPost2010PropOp56
 70
     1
102
RTVSPost2010Prop57
140
1.0
102
RTVSPost2010PropOp57
 70
     1
102
RTVSPropertyOp0
 70
     1
102
RTVSPropertyOp1
 70
     1
102
RTVSPropertyOp2
 70
     1
102
RTVSPropertyOp3
 70
     1
102
RTVSPropertyOp4
 70
     1
102
RTVSPropertyOp5
 70
     1
102
RTVSPropertyOp6
 70
     1
102
RTVSPropertyOp7
 70
     1
102
RTVSPropertyOp8
 70
     1
102
RTVSPropertyOp9
 70
     1
102
RTVSPropertyOp10
 70
     1
102
RTVSPropertyOp11
 70
     1
102
RTVSPropertyOp12
 70
     1
102
RTVSPropertyOp13
 70
     1
102
RTVSPropertyOp14
 70
     1
102
RTVSPropertyOp15
 70
     1
102
RTVSPropertyOp16
 70
     1
102
RTVSPropertyOp17
 70
     1
102
RTVSPropertyOp18
 70
     1
102
RTVSPropertyOp19
 70
     1
102
RTVSPropertyOp20
 70
     1
102
RTVSPropertyOp21
 70
     1
102
RTVSPropertyOp22
 70
     1
102
RTVSPropertyOp23
 70
     1
102
RTVSPropertyOp24
 70
     1
102
RTVSPropertyOp25
 70
     1
102
RTVSPropertyOp26
 70
     1
102
RTVSPropertyOp27
 70
     1
102
RTVSPropertyOp28
 70
     1
102
RTVSPropertyOp29
 70
     1
102
RTVSPropertyOp30
 70
     1
102
RTVSPropertyOp31
 70
     1
102
RTVSPropertyOp32
 70
     1
102
RTVSPropertyOp33
 70
     1
102
RTVSPropertyOp34
 70
     1
102
RTVSPropertyOp35
 70
     1
102
RTVSPropertyOp36
 70
     1
102
RTVSPropertyOp37
 70
     1
102
RTVSPropertyOp38
 70
     1
102
RTVSPropertyOp39
 70
     1
102
RTVSPropertyOp40
 70
     1
102
RTVSPropertyOp41
 70
     1
102
RTVSPropertyOp42
 70
     1
102
RTVSPropertyOp43
 70
     1
102
RTVSPropertyOp44
 70
     1
102
RTVSPropertyOp45
 70
     1
102
RTVSPropertyOp46
 70
     1
102
RTVSPropertyOp47
 70
     1
102
RTVSPropertyOp48
 70
     1
102
RTVSPropertyOp49
 70
     1
102
RTVSPropertyOp50
 70
     1
102
RTVSPropertyOp51
 70
     0
102
RTVSPropertyOp52
 70
     0
102
RTVSPropertyOp53
 70
     1
102
RTVSPropertyOp54
 70
     1
102
RTVSPropertyOp55
 70
     1
102
RTVSPropertyOp56
 70
     1
102
RTVSPropertyOp57
 70
     1
102
RTVSPropertyOp58
 70
     1
102
RTVSPropertyOp59
 70
     1
102
RTVSPropertyOp60
 70
     1
102
RTVSPropertyOp61
 70
     1
102
RTVSPropertyOp62
 70
     1
  0
XRECORD
  5
19EFB
102
{ACAD_REACTORS
330
19EFA
102
}
330
19EFA
100
AcDbXrecord
280
     1
102
RTVSPost2010Prop28
280
     0
102
RTVSPost2010PropOp28
 70
     1
102
RTVSPost2010Prop29
280
     1
102
RTVSPost2010PropOp29
 70
     1
102
RTVSPost2010Prop30
280
     1
102
RTVSPost2010PropOp30
 70
     1
102
RTVSPost2010Prop31
280
     0
102
RTVSPost2010PropOp31
 70
     1
102
RTVSPost2010Prop32
280
     0
102
RTVSPost2010PropOp32
 70
     1
102
RTVSPost2010Prop33
280
     0
102
RTVSPost2010PropOp33
 70
     1
102
RTVSPost2010Prop34
280
     0
102
RTVSPost2010PropOp34
 70
     1
102
RTVSPost2010Prop35
280
     0
102
RTVSPost2010PropOp35
 70
     1
102
RTVSPost2010Prop36
280
     0
102
RTVSPost2010PropOp36
 70
     1
102
RTVSPost2010Prop37
 90
       50
102
RTVSPost2010PropOp37
 70
     1
102
RTVSPost2010Prop38
140
0.0
102
RTVSPost2010PropOp38
 70
     1
102
RTVSPost2010Prop39
140
1.0
102
RTVSPost2010PropOp39
 70
     1
102
RTVSPost2010Prop40
 90
        0
102
RTVSPost2010PropOp40
 70
     1
102
RTVSPost2010Prop41ColorIndex
 90
       18
102
RTVSPost2010Prop41ColorRGB
 90
        0
102
RTVSPost2010PropOp41
 70
     1
102
RTVSPost2010Prop42
 90
       50
102
RTVSPost2010PropOp42
 70
     1
102
RTVSPost2010Prop43
 90
        3
102
RTVSPost2010PropOp43
 70
     1
102
RTVSPost2010Prop44ColorIndex
 90
        5
102
RTVSPost2010Prop44ColorRGB
 90
      255
102
RTVSPost2010PropOp44
 70
     1
102
RTVSPost2010Prop45
280
     0
102
RTVSPost2010PropOp45
 70
     1
102
RTVSPost2010Prop46
 90
       50
102
RTVSPost2010PropOp46
 70
     1
102
RTVSPost2010Prop47
 90
       50
102
RTVSPost2010PropOp47
 70
     1
102
RTVSPost2010Prop48
 90
       50
102
RTVSPost2010PropOp48
 70
     1
102
RTVSPost2010Prop49
280
     0
102
RTVSPost2010PropOp49
 70
     1
102
RTVSPost2010Prop50
 90
       50
102
RTVSPost2010PropOp50
 70
     1
102
RTVSPost2010Prop51ColorIndex
 90
      256
102
RTVSPost2010Prop51ColorRGB
 90
-16777216
102
RTVSPost2010PropOp51
 70
     0
102
RTVSPost2010Prop52
140
1.0
102
RTVSPost2010PropOp52
 70
     0
102
RTVSPost2010Prop53
 90
        2
102
RTVSPost2010PropOp53
 70
     1
102
RTVSPost2010Prop54
  1
strokes_ogs.tif
102
RTVSPost2010PropOp54
 70
     1
102
RTVSPost2010Prop55
280
     0
102
RTVSPost2010PropOp55
 70
     1
102
RTVSPost2010Prop56
140
1.0
102
RTVSPost2010PropOp56
 70
     1
102
RTVSPost2010Prop57
140
1.0
102
RTVSPost2010PropOp57
 70
     1
102
RTVSPropertyOp0
 70
     1
102
RTVSPropertyOp1
 70
     1
102
RTVSPropertyOp2
 70
     1
102
RTVSPropertyOp3
 70
     1
102
RTVSPropertyOp4
 70
     1
102
RTVSPropertyOp5
 70
     1
102
RTVSPropertyOp6
 70
     1
102
RTVSPropertyOp7
 70
     1
102
RTVSPropertyOp8
 70
     1
102
RTVSPropertyOp9
 70
     1
102
RTVSPropertyOp10
 70
     1
102
RTVSPropertyOp11
 70
     1
102
RTVSPropertyOp12
 70
     1
102
RTVSPropertyOp13
 70
     1
102
RTVSPropertyOp14
 70
     1
102
RTVSPropertyOp15
 70
     1
102
RTVSPropertyOp16
 70
     1
102
RTVSPropertyOp17
 70
     1
102
RTVSPropertyOp18
 70
     1
102
RTVSPropertyOp19
 70
     1
102
RTVSPropertyOp20
 70
     1
102
RTVSPropertyOp21
 70
     1
102
RTVSPropertyOp22
 70
     1
102
RTVSPropertyOp23
 70
     1
102
RTVSPropertyOp24
 70
     1
102
RTVSPropertyOp25
 70
     1
102
RTVSPropertyOp26
 70
     1
102
RTVSPropertyOp27
 70
     1
102
RTVSPropertyOp28
 70
     1
102
RTVSPropertyOp29
 70
     1
102
RTVSPropertyOp30
 70
     1
102
RTVSPropertyOp31
 70
     1
102
RTVSPropertyOp32
 70
     1
102
RTVSPropertyOp33
 70
     1
102
RTVSPropertyOp34
 70
     1
102
RTVSPropertyOp35
 70
     1
102
RTVSPropertyOp36
 70
     1
102
RTVSPropertyOp37
 70
     1
102
RTVSPropertyOp38
 70
     1
102
RTVSPropertyOp39
 70
     1
102
RTVSPropertyOp40
 70
     1
102
RTVSPropertyOp41
 70
     1
102
RTVSPropertyOp42
 70
     1
102
RTVSPropertyOp43
 70
     1
102
RTVSPropertyOp44
 70
     1
102
RTVSPropertyOp45
 70
     1
102
RTVSPropertyOp46
 70
     1
102
RTVSPropertyOp47
 70
     1
102
RTVSPropertyOp48
 70
     1
102
RTVSPropertyOp49
 70
     1
102
RTVSPropertyOp50
 70
     1
102
RTVSPropertyOp51
 70
     0
102
RTVSPropertyOp52
 70
     0
102
RTVSPropertyOp53
 70
     1
102
RTVSPropertyOp54
 70
     1
102
RTVSPropertyOp55
 70
     1
102
RTVSPropertyOp56
 70
     1
102
RTVSPropertyOp57
 70
     1
102
RTVSPropertyOp58
 70
     1
102
RTVSPropertyOp59
 70
     1
102
RTVSPropertyOp60
 70
     1
102
RTVSPropertyOp61
 70
     1
102
RTVSPropertyOp62
 70
     1
  0
XRECORD
  5
19EFD
102
{ACAD_REACTORS
330
19EFC
102
}
330
19EFC
100
AcDbXrecord
280
     1
102
RTVSPost2010Prop28
280
     0
102
RTVSPost2010PropOp28
 70
     1
102
RTVSPost2010Prop29
280
     1
102
RTVSPost2010PropOp29
 70
     1
102
RTVSPost2010Prop30
280
     1
102
RTVSPost2010PropOp30
 70
     1
102
RTVSPost2010Prop31
280
     0
102
RTVSPost2010PropOp31
 70
     1
102
RTVSPost2010Prop32
280
     0
102
RTVSPost2010PropOp32
 70
     1
102
RTVSPost2010Prop33
280
     0
102
RTVSPost2010PropOp33
 70
     1
102
RTVSPost2010Prop34
280
     0
102
RTVSPost2010PropOp34
 70
     1
102
RTVSPost2010Prop35
280
     0
102
RTVSPost2010PropOp35
 70
     1
102
RTVSPost2010Prop36
280
     0
102
RTVSPost2010PropOp36
 70
     1
102
RTVSPost2010Prop37
 90
       50
102
RTVSPost2010PropOp37
 70
     1
102
RTVSPost2010Prop38
140
0.0
102
RTVSPost2010PropOp38
 70
     1
102
RTVSPost2010Prop39
140
1.0
102
RTVSPost2010PropOp39
 70
     1
102
RTVSPost2010Prop40
 90
        0
102
RTVSPost2010PropOp40
 70
     1
102
RTVSPost2010Prop41ColorIndex
 90
       18
102
RTVSPost2010Prop41ColorRGB
 90
        0
102
RTVSPost2010PropOp41
 70
     1
102
RTVSPost2010Prop42
 90
       50
102
RTVSPost2010PropOp42
 70
     1
102
RTVSPost2010Prop43
 90
        3
102
RTVSPost2010PropOp43
 70
     1
102
RTVSPost2010Prop44ColorIndex
 90
        5
102
RTVSPost2010Prop44ColorRGB
 90
      255
102
RTVSPost2010PropOp44
 70
     1
102
RTVSPost2010Prop45
280
     0
102
RTVSPost2010PropOp45
 70
     1
102
RTVSPost2010Prop46
 90
       50
102
RTVSPost2010PropOp46
 70
     1
102
RTVSPost2010Prop47
 90
       50
102
RTVSPost2010PropOp47
 70
     1
102
RTVSPost2010Prop48
 90
       50
102
RTVSPost2010PropOp48
 70
     1
102
RTVSPost2010Prop49
280
     0
102
RTVSPost2010PropOp49
 70
     1
102
RTVSPost2010Prop50
 90
       50
102
RTVSPost2010PropOp50
 70
     1
102
RTVSPost2010Prop51ColorIndex
 90
      256
102
RTVSPost2010Prop51ColorRGB
 90
-16777216
102
RTVSPost2010PropOp51
 70
     0
102
RTVSPost2010Prop52
140
1.0
102
RTVSPost2010PropOp52
 70
     0
102
RTVSPost2010Prop53
 90
        2
102
RTVSPost2010PropOp53
 70
     1
102
RTVSPost2010Prop54
  1
strokes_ogs.tif
102
RTVSPost2010PropOp54
 70
     1
102
RTVSPost2010Prop55
280
     0
102
RTVSPost2010PropOp55
 70
     1
102
RTVSPost2010Prop56
140
1.0
102
RTVSPost2010PropOp56
 70
     1
102
RTVSPost2010Prop57
140
1.0
102
RTVSPost2010PropOp57
 70
     1
102
RTVSPropertyOp0
 70
     1
102
RTVSPropertyOp1
 70
     1
102
RTVSPropertyOp2
 70
     1
102
RTVSPropertyOp3
 70
     1
102
RTVSPropertyOp4
 70
     1
102
RTVSPropertyOp5
 70
     1
102
RTVSPropertyOp6
 70
     1
102
RTVSPropertyOp7
 70
     1
102
RTVSPropertyOp8
 70
     1
102
RTVSPropertyOp9
 70
     1
102
RTVSPropertyOp10
 70
     1
102
RTVSPropertyOp11
 70
     1
102
RTVSPropertyOp12
 70
     1
102
RTVSPropertyOp13
 70
     1
102
RTVSPropertyOp14
 70
     1
102
RTVSPropertyOp15
 70
     1
102
RTVSPropertyOp16
 70
     1
102
RTVSPropertyOp17
 70
     1
102
RTVSPropertyOp18
 70
     1
102
RTVSPropertyOp19
 70
     1
102
RTVSPropertyOp20
 70
     1
102
RTVSPropertyOp21
 70
     1
102
RTVSPropertyOp22
 70
     1
102
RTVSPropertyOp23
 70
     1
102
RTVSPropertyOp24
 70
     1
102
RTVSPropertyOp25
 70
     1
102
RTVSPropertyOp26
 70
     1
102
RTVSPropertyOp27
 70
     1
102
RTVSPropertyOp28
 70
     1
102
RTVSPropertyOp29
 70
     1
102
RTVSPropertyOp30
 70
     1
102
RTVSPropertyOp31
 70
     1
102
RTVSPropertyOp32
 70
     1
102
RTVSPropertyOp33
 70
     1
102
RTVSPropertyOp34
 70
     1
102
RTVSPropertyOp35
 70
     1
102
RTVSPropertyOp36
 70
     1
102
RTVSPropertyOp37
 70
     1
102
RTVSPropertyOp38
 70
     1
102
RTVSPropertyOp39
 70
     1
102
RTVSPropertyOp40
 70
     1
102
RTVSPropertyOp41
 70
     1
102
RTVSPropertyOp42
 70
     1
102
RTVSPropertyOp43
 70
     1
102
RTVSPropertyOp44
 70
     1
102
RTVSPropertyOp45
 70
     1
102
RTVSPropertyOp46
 70
     1
102
RTVSPropertyOp47
 70
     1
102
RTVSPropertyOp48
 70
     1
102
RTVSPropertyOp49
 70
     1
102
RTVSPropertyOp50
 70
     1
102
RTVSPropertyOp51
 70
     0
102
RTVSPropertyOp52
 70
     0
102
RTVSPropertyOp53
 70
     1
102
RTVSPropertyOp54
 70
     1
102
RTVSPropertyOp55
 70
     1
102
RTVSPropertyOp56
 70
     1
102
RTVSPropertyOp57
 70
     1
102
RTVSPropertyOp58
 70
     1
102
RTVSPropertyOp59
 70
     1
102
RTVSPropertyOp60
 70
     1
102
RTVSPropertyOp61
 70
     1
102
RTVSPropertyOp62
 70
     1
  0
XRECORD
  5
19EFF
102
{ACAD_REACTORS
330
19EFE
102
}
330
19EFE
100
AcDbXrecord
280
     1
102
RTVSPost2010Prop28
280
     0
102
RTVSPost2010PropOp28
 70
     1
102
RTVSPost2010Prop29
280
     1
102
RTVSPost2010PropOp29
 70
     1
102
RTVSPost2010Prop30
280
     1
102
RTVSPost2010PropOp30
 70
     1
102
RTVSPost2010Prop31
280
     0
102
RTVSPost2010PropOp31
 70
     1
102
RTVSPost2010Prop32
280
     0
102
RTVSPost2010PropOp32
 70
     1
102
RTVSPost2010Prop33
280
     0
102
RTVSPost2010PropOp33
 70
     1
102
RTVSPost2010Prop34
280
     0
102
RTVSPost2010PropOp34
 70
     1
102
RTVSPost2010Prop35
280
     0
102
RTVSPost2010PropOp35
 70
     1
102
RTVSPost2010Prop36
280
     0
102
RTVSPost2010PropOp36
 70
     1
102
RTVSPost2010Prop37
 90
       50
102
RTVSPost2010PropOp37
 70
     1
102
RTVSPost2010Prop38
140
0.0
102
RTVSPost2010PropOp38
 70
     1
102
RTVSPost2010Prop39
140
1.0
102
RTVSPost2010PropOp39
 70
     1
102
RTVSPost2010Prop40
 90
        0
102
RTVSPost2010PropOp40
 70
     1
102
RTVSPost2010Prop41ColorIndex
 90
       18
102
RTVSPost2010Prop41ColorRGB
 90
        0
102
RTVSPost2010PropOp41
 70
     1
102
RTVSPost2010Prop42
 90
       50
102
RTVSPost2010PropOp42
 70
     1
102
RTVSPost2010Prop43
 90
        3
102
RTVSPost2010PropOp43
 70
     1
102
RTVSPost2010Prop44ColorIndex
 90
        5
102
RTVSPost2010Prop44ColorRGB
 90
      255
102
RTVSPost2010PropOp44
 70
     1
102
RTVSPost2010Prop45
280
     0
102
RTVSPost2010PropOp45
 70
     1
102
RTVSPost2010Prop46
 90
       50
102
RTVSPost2010PropOp46
 70
     1
102
RTVSPost2010Prop47
 90
       50
102
RTVSPost2010PropOp47
 70
     1
102
RTVSPost2010Prop48
 90
       50
102
RTVSPost2010PropOp48
 70
     1
102
RTVSPost2010Prop49
280
     0
102
RTVSPost2010PropOp49
 70
     1
102
RTVSPost2010Prop50
 90
       50
102
RTVSPost2010PropOp50
 70
     1
102
RTVSPost2010Prop51ColorIndex
 90
      256
102
RTVSPost2010Prop51ColorRGB
 90
-16777216
102
RTVSPost2010PropOp51
 70
     0
102
RTVSPost2010Prop52
140
1.0
102
RTVSPost2010PropOp52
 70
     0
102
RTVSPost2010Prop53
 90
        2
102
RTVSPost2010PropOp53
 70
     1
102
RTVSPost2010Prop54
  1
strokes_ogs.tif
102
RTVSPost2010PropOp54
 70
     1
102
RTVSPost2010Prop55
280
     0
102
RTVSPost2010PropOp55
 70
     1
102
RTVSPost2010Prop56
140
1.0
102
RTVSPost2010PropOp56
 70
     1
102
RTVSPost2010Prop57
140
1.0
102
RTVSPost2010PropOp57
 70
     1
102
RTVSPropertyOp0
 70
     1
102
RTVSPropertyOp1
 70
     1
102
RTVSPropertyOp2
 70
     1
102
RTVSPropertyOp3
 70
     1
102
RTVSPropertyOp4
 70
     1
102
RTVSPropertyOp5
 70
     1
102
RTVSPropertyOp6
 70
     1
102
RTVSPropertyOp7
 70
     1
102
RTVSPropertyOp8
 70
     1
102
RTVSPropertyOp9
 70
     1
102
RTVSPropertyOp10
 70
     1
102
RTVSPropertyOp11
 70
     1
102
RTVSPropertyOp12
 70
     1
102
RTVSPropertyOp13
 70
     1
102
RTVSPropertyOp14
 70
     1
102
RTVSPropertyOp15
 70
     1
102
RTVSPropertyOp16
 70
     1
102
RTVSPropertyOp17
 70
     1
102
RTVSPropertyOp18
 70
     1
102
RTVSPropertyOp19
 70
     1
102
RTVSPropertyOp20
 70
     1
102
RTVSPropertyOp21
 70
     1
102
RTVSPropertyOp22
 70
     1
102
RTVSPropertyOp23
 70
     1
102
RTVSPropertyOp24
 70
     1
102
RTVSPropertyOp25
 70
     1
102
RTVSPropertyOp26
 70
     1
102
RTVSPropertyOp27
 70
     1
102
RTVSPropertyOp28
 70
     1
102
RTVSPropertyOp29
 70
     1
102
RTVSPropertyOp30
 70
     1
102
RTVSPropertyOp31
 70
     1
102
RTVSPropertyOp32
 70
     1
102
RTVSPropertyOp33
 70
     1
102
RTVSPropertyOp34
 70
     1
102
RTVSPropertyOp35
 70
     1
102
RTVSPropertyOp36
 70
     1
102
RTVSPropertyOp37
 70
     1
102
RTVSPropertyOp38
 70
     1
102
RTVSPropertyOp39
 70
     1
102
RTVSPropertyOp40
 70
     1
102
RTVSPropertyOp41
 70
     1
102
RTVSPropertyOp42
 70
     1
102
RTVSPropertyOp43
 70
     1
102
RTVSPropertyOp44
 70
     1
102
RTVSPropertyOp45
 70
     1
102
RTVSPropertyOp46
 70
     1
102
RTVSPropertyOp47
 70
     1
102
RTVSPropertyOp48
 70
     1
102
RTVSPropertyOp49
 70
     1
102
RTVSPropertyOp50
 70
     1
102
RTVSPropertyOp51
 70
     0
102
RTVSPropertyOp52
 70
     0
102
RTVSPropertyOp53
 70
     1
102
RTVSPropertyOp54
 70
     1
102
RTVSPropertyOp55
 70
     1
102
RTVSPropertyOp56
 70
     1
102
RTVSPropertyOp57
 70
     1
102
RTVSPropertyOp58
 70
     1
102
RTVSPropertyOp59
 70
     1
102
RTVSPropertyOp60
 70
     1
102
RTVSPropertyOp61
 70
     1
102
RTVSPropertyOp62
 70
     1
  0
XRECORD
  5
19F01
102
{ACAD_REACTORS
330
19F00
102
}
330
19F00
100
AcDbXrecord
280
     1
102
RTVSPost2010Prop28
280
     0
102
RTVSPost2010PropOp28
 70
     1
102
RTVSPost2010Prop29
280
     1
102
RTVSPost2010PropOp29
 70
     1
102
RTVSPost2010Prop30
280
     1
102
RTVSPost2010PropOp30
 70
     1
102
RTVSPost2010Prop31
280
     0
102
RTVSPost2010PropOp31
 70
     1
102
RTVSPost2010Prop32
280
     0
102
RTVSPost2010PropOp32
 70
     1
102
RTVSPost2010Prop33
280
     0
102
RTVSPost2010PropOp33
 70
     1
102
RTVSPost2010Prop34
280
     0
102
RTVSPost2010PropOp34
 70
     1
102
RTVSPost2010Prop35
280
     0
102
RTVSPost2010PropOp35
 70
     1
102
RTVSPost2010Prop36
280
     0
102
RTVSPost2010PropOp36
 70
     1
102
RTVSPost2010Prop37
 90
       50
102
RTVSPost2010PropOp37
 70
     1
102
RTVSPost2010Prop38
140
0.0
102
RTVSPost2010PropOp38
 70
     1
102
RTVSPost2010Prop39
140
1.0
102
RTVSPost2010PropOp39
 70
     1
102
RTVSPost2010Prop40
 90
        0
102
RTVSPost2010PropOp40
 70
     1
102
RTVSPost2010Prop41ColorIndex
 90
       18
102
RTVSPost2010Prop41ColorRGB
 90
        0
102
RTVSPost2010PropOp41
 70
     1
102
RTVSPost2010Prop42
 90
       50
102
RTVSPost2010PropOp42
 70
     1
102
RTVSPost2010Prop43
 90
        3
102
RTVSPost2010PropOp43
 70
     1
102
RTVSPost2010Prop44ColorIndex
 90
        5
102
RTVSPost2010Prop44ColorRGB
 90
      255
102
RTVSPost2010PropOp44
 70
     1
102
RTVSPost2010Prop45
280
     0
102
RTVSPost2010PropOp45
 70
     1
102
RTVSPost2010Prop46
 90
       50
102
RTVSPost2010PropOp46
 70
     1
102
RTVSPost2010Prop47
 90
       50
102
RTVSPost2010PropOp47
 70
     1
102
RTVSPost2010Prop48
 90
       50
102
RTVSPost2010PropOp48
 70
     1
102
RTVSPost2010Prop49
280
     0
102
RTVSPost2010PropOp49
 70
     1
102
RTVSPost2010Prop50
 90
       50
102
RTVSPost2010PropOp50
 70
     1
102
RTVSPost2010Prop51ColorIndex
 90
      256
102
RTVSPost2010Prop51ColorRGB
 90
-16777216
102
RTVSPost2010PropOp51
 70
     0
102
RTVSPost2010Prop52
140
1.0
102
RTVSPost2010PropOp52
 70
     0
102
RTVSPost2010Prop53
 90
        2
102
RTVSPost2010PropOp53
 70
     1
102
RTVSPost2010Prop54
  1
strokes_ogs.tif
102
RTVSPost2010PropOp54
 70
     1
102
RTVSPost2010Prop55
280
     0
102
RTVSPost2010PropOp55
 70
     1
102
RTVSPost2010Prop56
140
1.0
102
RTVSPost2010PropOp56
 70
     1
102
RTVSPost2010Prop57
140
1.0
102
RTVSPost2010PropOp57
 70
     1
102
RTVSPropertyOp0
 70
     1
102
RTVSPropertyOp1
 70
     1
102
RTVSPropertyOp2
 70
     1
102
RTVSPropertyOp3
 70
     1
102
RTVSPropertyOp4
 70
     1
102
RTVSPropertyOp5
 70
     1
102
RTVSPropertyOp6
 70
     1
102
RTVSPropertyOp7
 70
     1
102
RTVSPropertyOp8
 70
     1
102
RTVSPropertyOp9
 70
     1
102
RTVSPropertyOp10
 70
     1
102
RTVSPropertyOp11
 70
     1
102
RTVSPropertyOp12
 70
     1
102
RTVSPropertyOp13
 70
     1
102
RTVSPropertyOp14
 70
     1
102
RTVSPropertyOp15
 70
     1
102
RTVSPropertyOp16
 70
     1
102
RTVSPropertyOp17
 70
     1
102
RTVSPropertyOp18
 70
     1
102
RTVSPropertyOp19
 70
     1
102
RTVSPropertyOp20
 70
     1
102
RTVSPropertyOp21
 70
     1
102
RTVSPropertyOp22
 70
     1
102
RTVSPropertyOp23
 70
     1
102
RTVSPropertyOp24
 70
     1
102
RTVSPropertyOp25
 70
     1
102
RTVSPropertyOp26
 70
     1
102
RTVSPropertyOp27
 70
     1
102
RTVSPropertyOp28
 70
     1
102
RTVSPropertyOp29
 70
     1
102
RTVSPropertyOp30
 70
     1
102
RTVSPropertyOp31
 70
     1
102
RTVSPropertyOp32
 70
     1
102
RTVSPropertyOp33
 70
     1
102
RTVSPropertyOp34
 70
     1
102
RTVSPropertyOp35
 70
     1
102
RTVSPropertyOp36
 70
     1
102
RTVSPropertyOp37
 70
     1
102
RTVSPropertyOp38
 70
     1
102
RTVSPropertyOp39
 70
     1
102
RTVSPropertyOp40
 70
     1
102
RTVSPropertyOp41
 70
     1
102
RTVSPropertyOp42
 70
     1
102
RTVSPropertyOp43
 70
     1
102
RTVSPropertyOp44
 70
     1
102
RTVSPropertyOp45
 70
     1
102
RTVSPropertyOp46
 70
     1
102
RTVSPropertyOp47
 70
     1
102
RTVSPropertyOp48
 70
     1
102
RTVSPropertyOp49
 70
     1
102
RTVSPropertyOp50
 70
     1
102
RTVSPropertyOp51
 70
     0
102
RTVSPropertyOp52
 70
     0
102
RTVSPropertyOp53
 70
     1
102
RTVSPropertyOp54
 70
     1
102
RTVSPropertyOp55
 70
     1
102
RTVSPropertyOp56
 70
     1
102
RTVSPropertyOp57
 70
     1
102
RTVSPropertyOp58
 70
     1
102
RTVSPropertyOp59
 70
     1
102
RTVSPropertyOp60
 70
     1
102
RTVSPropertyOp61
 70
     1
102
RTVSPropertyOp62
 70
     1
  0
XRECORD
  5
19F09
102
{ACAD_REACTORS
330
19F08
102
}
330
19F08
100
AcDbXrecord
280
     1
102
RTVSPost2010Prop28
280
     0
102
RTVSPost2010PropOp28
 70
     1
102
RTVSPost2010Prop29
280
     1
102
RTVSPost2010PropOp29
 70
     1
102
RTVSPost2010Prop30
280
     1
102
RTVSPost2010PropOp30
 70
     1
102
RTVSPost2010Prop31
280
     0
102
RTVSPost2010PropOp31
 70
     1
102
RTVSPost2010Prop32
280
     0
102
RTVSPost2010PropOp32
 70
     1
102
RTVSPost2010Prop33
280
     0
102
RTVSPost2010PropOp33
 70
     1
102
RTVSPost2010Prop34
280
     0
102
RTVSPost2010PropOp34
 70
     1
102
RTVSPost2010Prop35
280
     0
102
RTVSPost2010PropOp35
 70
     1
102
RTVSPost2010Prop36
280
     0
102
RTVSPost2010PropOp36
 70
     1
102
RTVSPost2010Prop37
 90
       50
102
RTVSPost2010PropOp37
 70
     1
102
RTVSPost2010Prop38
140
0.0
102
RTVSPost2010PropOp38
 70
     1
102
RTVSPost2010Prop39
140
1.0
102
RTVSPost2010PropOp39
 70
     1
102
RTVSPost2010Prop40
 90
        0
102
RTVSPost2010PropOp40
 70
     1
102
RTVSPost2010Prop41ColorIndex
 90
       18
102
RTVSPost2010Prop41ColorRGB
 90
        0
102
RTVSPost2010PropOp41
 70
     1
102
RTVSPost2010Prop42
 90
       50
102
RTVSPost2010PropOp42
 70
     1
102
RTVSPost2010Prop43
 90
        3
102
RTVSPost2010PropOp43
 70
     1
102
RTVSPost2010Prop44ColorIndex
 90
        5
102
RTVSPost2010Prop44ColorRGB
 90
      255
102
RTVSPost2010PropOp44
 70
     1
102
RTVSPost2010Prop45
280
     0
102
RTVSPost2010PropOp45
 70
     1
102
RTVSPost2010Prop46
 90
       50
102
RTVSPost2010PropOp46
 70
     1
102
RTVSPost2010Prop47
 90
       50
102
RTVSPost2010PropOp47
 70
     1
102
RTVSPost2010Prop48
 90
       50
102
RTVSPost2010PropOp48
 70
     1
102
RTVSPost2010Prop49
280
     0
102
RTVSPost2010PropOp49
 70
     1
102
RTVSPost2010Prop50
 90
       50
102
RTVSPost2010PropOp50
 70
     1
102
RTVSPost2010Prop51ColorIndex
 90
      256
102
RTVSPost2010Prop51ColorRGB
 90
-16777216
102
RTVSPost2010PropOp51
 70
     0
102
RTVSPost2010Prop52
140
1.0
102
RTVSPost2010PropOp52
 70
     0
102
RTVSPost2010Prop53
 90
        2
102
RTVSPost2010PropOp53
 70
     1
102
RTVSPost2010Prop54
  1
strokes_ogs.tif
102
RTVSPost2010PropOp54
 70
     1
102
RTVSPost2010Prop55
280
     0
102
RTVSPost2010PropOp55
 70
     1
102
RTVSPost2010Prop56
140
1.0
102
RTVSPost2010PropOp56
 70
     1
102
RTVSPost2010Prop57
140
1.0
102
RTVSPost2010PropOp57
 70
     1
102
RTVSPropertyOp0
 70
     1
102
RTVSPropertyOp1
 70
     1
102
RTVSPropertyOp2
 70
     1
102
RTVSPropertyOp3
 70
     1
102
RTVSPropertyOp4
 70
     1
102
RTVSPropertyOp5
 70
     1
102
RTVSPropertyOp6
 70
     1
102
RTVSPropertyOp7
 70
     1
102
RTVSPropertyOp8
 70
     1
102
RTVSPropertyOp9
 70
     1
102
RTVSPropertyOp10
 70
     1
102
RTVSPropertyOp11
 70
     1
102
RTVSPropertyOp12
 70
     1
102
RTVSPropertyOp13
 70
     1
102
RTVSPropertyOp14
 70
     1
102
RTVSPropertyOp15
 70
     1
102
RTVSPropertyOp16
 70
     1
102
RTVSPropertyOp17
 70
     1
102
RTVSPropertyOp18
 70
     1
102
RTVSPropertyOp19
 70
     1
102
RTVSPropertyOp20
 70
     1
102
RTVSPropertyOp21
 70
     1
102
RTVSPropertyOp22
 70
     1
102
RTVSPropertyOp23
 70
     1
102
RTVSPropertyOp24
 70
     1
102
RTVSPropertyOp25
 70
     1
102
RTVSPropertyOp26
 70
     1
102
RTVSPropertyOp27
 70
     1
102
RTVSPropertyOp28
 70
     1
102
RTVSPropertyOp29
 70
     1
102
RTVSPropertyOp30
 70
     1
102
RTVSPropertyOp31
 70
     1
102
RTVSPropertyOp32
 70
     1
102
RTVSPropertyOp33
 70
     1
102
RTVSPropertyOp34
 70
     1
102
RTVSPropertyOp35
 70
     1
102
RTVSPropertyOp36
 70
     1
102
RTVSPropertyOp37
 70
     1
102
RTVSPropertyOp38
 70
     1
102
RTVSPropertyOp39
 70
     1
102
RTVSPropertyOp40
 70
     1
102
RTVSPropertyOp41
 70
     1
102
RTVSPropertyOp42
 70
     1
102
RTVSPropertyOp43
 70
     1
102
RTVSPropertyOp44
 70
     1
102
RTVSPropertyOp45
 70
     1
102
RTVSPropertyOp46
 70
     1
102
RTVSPropertyOp47
 70
     1
102
RTVSPropertyOp48
 70
     1
102
RTVSPropertyOp49
 70
     1
102
RTVSPropertyOp50
 70
     1
102
RTVSPropertyOp51
 70
     0
102
RTVSPropertyOp52
 70
     0
102
RTVSPropertyOp53
 70
     1
102
RTVSPropertyOp54
 70
     1
102
RTVSPropertyOp55
 70
     1
102
RTVSPropertyOp56
 70
     1
102
RTVSPropertyOp57
 70
     1
102
RTVSPropertyOp58
 70
     1
102
RTVSPropertyOp59
 70
     1
102
RTVSPropertyOp60
 70
     1
102
RTVSPropertyOp61
 70
     1
102
RTVSPropertyOp62
 70
     1
  0
XRECORD
  5
19F1D
102
{ACAD_REACTORS
330
19F1C
102
}
330
19F1C
100
AcDbXrecord
280
     1
102
RTVSPost2010Prop28
280
     0
102
RTVSPost2010PropOp28
 70
     1
102
RTVSPost2010Prop29
280
     1
102
RTVSPost2010PropOp29
 70
     1
102
RTVSPost2010Prop30
280
     1
102
RTVSPost2010PropOp30
 70
     1
102
RTVSPost2010Prop31
280
     0
102
RTVSPost2010PropOp31
 70
     1
102
RTVSPost2010Prop32
280
     0
102
RTVSPost2010PropOp32
 70
     1
102
RTVSPost2010Prop33
280
     0
102
RTVSPost2010PropOp33
 70
     1
102
RTVSPost2010Prop34
280
     0
102
RTVSPost2010PropOp34
 70
     1
102
RTVSPost2010Prop35
280
     0
102
RTVSPost2010PropOp35
 70
     1
102
RTVSPost2010Prop36
280
     0
102
RTVSPost2010PropOp36
 70
     1
102
RTVSPost2010Prop37
 90
       50
102
RTVSPost2010PropOp37
 70
     1
102
RTVSPost2010Prop38
140
0.0
102
RTVSPost2010PropOp38
 70
     1
102
RTVSPost2010Prop39
140
1.0
102
RTVSPost2010PropOp39
 70
     1
102
RTVSPost2010Prop40
 90
        0
102
RTVSPost2010PropOp40
 70
     1
102
RTVSPost2010Prop41ColorIndex
 90
       18
102
RTVSPost2010Prop41ColorRGB
 90
        0
102
RTVSPost2010PropOp41
 70
     1
102
RTVSPost2010Prop42
 90
       50
102
RTVSPost2010PropOp42
 70
     1
102
RTVSPost2010Prop43
 90
        3
102
RTVSPost2010PropOp43
 70
     1
102
RTVSPost2010Prop44ColorIndex
 90
        5
102
RTVSPost2010Prop44ColorRGB
 90
      255
102
RTVSPost2010PropOp44
 70
     1
102
RTVSPost2010Prop45
280
     0
102
RTVSPost2010PropOp45
 70
     1
102
RTVSPost2010Prop46
 90
       50
102
RTVSPost2010PropOp46
 70
     1
102
RTVSPost2010Prop47
 90
       50
102
RTVSPost2010PropOp47
 70
     1
102
RTVSPost2010Prop48
 90
       50
102
RTVSPost2010PropOp48
 70
     1
102
RTVSPost2010Prop49
280
     0
102
RTVSPost2010PropOp49
 70
     1
102
RTVSPost2010Prop50
 90
       50
102
RTVSPost2010PropOp50
 70
     1
102
RTVSPost2010Prop51ColorIndex
 90
      256
102
RTVSPost2010Prop51ColorRGB
 90
-16777216
102
RTVSPost2010PropOp51
 70
     0
102
RTVSPost2010Prop52
140
1.0
102
RTVSPost2010PropOp52
 70
     0
102
RTVSPost2010Prop53
 90
        2
102
RTVSPost2010PropOp53
 70
     1
102
RTVSPost2010Prop54
  1
strokes_ogs.tif
102
RTVSPost2010PropOp54
 70
     1
102
RTVSPost2010Prop55
280
     0
102
RTVSPost2010PropOp55
 70
     1
102
RTVSPost2010Prop56
140
1.0
102
RTVSPost2010PropOp56
 70
     1
102
RTVSPost2010Prop57
140
1.0
102
RTVSPost2010PropOp57
 70
     1
102
RTVSPropertyOp0
 70
     0
102
RTVSPropertyOp1
 70
     0
102
RTVSPropertyOp2
 70
     0
102
RTVSPropertyOp3
 70
     0
102
RTVSPropertyOp4
 70
     0
102
RTVSPropertyOp5
 70
     0
102
RTVSPropertyOp6
 70
     0
102
RTVSPropertyOp7
 70
     0
102
RTVSPropertyOp8
 70
     0
102
RTVSPropertyOp9
 70
     0
102
RTVSPropertyOp10
 70
     0
102
RTVSPropertyOp11
 70
     0
102
RTVSPropertyOp12
 70
     0
102
RTVSPropertyOp13
 70
     0
102
RTVSPropertyOp14
 70
     2
102
RTVSPropertyOp15
 70
     0
102
RTVSPropertyOp16
 70
     0
102
RTVSPropertyOp17
 70
     0
102
RTVSPropertyOp18
 70
     0
102
RTVSPropertyOp19
 70
     0
102
RTVSPropertyOp20
 70
     0
102
RTVSPropertyOp21
 70
     0
102
RTVSPropertyOp22
 70
     0
102
RTVSPropertyOp23
 70
     0
102
RTVSPropertyOp24
 70
     0
102
RTVSPropertyOp25
 70
     0
102
RTVSPropertyOp26
 70
     0
102
RTVSPropertyOp27
 70
     0
102
RTVSPropertyOp28
 70
     1
102
RTVSPropertyOp29
 70
     1
102
RTVSPropertyOp30
 70
     1
102
RTVSPropertyOp31
 70
     1
102
RTVSPropertyOp32
 70
     1
102
RTVSPropertyOp33
 70
     1
102
RTVSPropertyOp34
 70
     1
102
RTVSPropertyOp35
 70
     1
102
RTVSPropertyOp36
 70
     1
102
RTVSPropertyOp37
 70
     1
102
RTVSPropertyOp38
 70
     1
102
RTVSPropertyOp39
 70
     1
102
RTVSPropertyOp40
 70
     1
102
RTVSPropertyOp41
 70
     1
102
RTVSPropertyOp42
 70
     1
102
RTVSPropertyOp43
 70
     1
102
RTVSPropertyOp44
 70
     1
102
RTVSPropertyOp45
 70
     1
102
RTVSPropertyOp46
 70
     1
102
RTVSPropertyOp47
 70
     1
102
RTVSPropertyOp48
 70
     1
102
RTVSPropertyOp49
 70
     1
102
RTVSPropertyOp50
 70
     1
102
RTVSPropertyOp51
 70
     0
102
RTVSPropertyOp52
 70
     0
102
RTVSPropertyOp53
 70
     1
102
RTVSPropertyOp54
 70
     1
102
RTVSPropertyOp55
 70
     1
102
RTVSPropertyOp56
 70
     1
102
RTVSPropertyOp57
 70
     1
102
RTVSPropertyOp58
 70
     1
102
RTVSPropertyOp59
 70
     1
102
RTVSPropertyOp60
 70
     1
102
RTVSPropertyOp61
 70
     1
102
RTVSPropertyOp62
 70
     1
  0
XRECORD
  5
19F15
102
{ACAD_REACTORS
330
19F14
102
}
330
19F14
100
AcDbXrecord
280
     1
102
RTVSPost2010Prop28
280
     0
102
RTVSPost2010PropOp28
 70
     1
102
RTVSPost2010Prop29
280
     1
102
RTVSPost2010PropOp29
 70
     1
102
RTVSPost2010Prop30
280
     1
102
RTVSPost2010PropOp30
 70
     1
102
RTVSPost2010Prop31
280
     0
102
RTVSPost2010PropOp31
 70
     1
102
RTVSPost2010Prop32
280
     0
102
RTVSPost2010PropOp32
 70
     1
102
RTVSPost2010Prop33
280
     0
102
RTVSPost2010PropOp33
 70
     1
102
RTVSPost2010Prop34
280
     0
102
RTVSPost2010PropOp34
 70
     1
102
RTVSPost2010Prop35
280
     0
102
RTVSPost2010PropOp35
 70
     1
102
RTVSPost2010Prop36
280
     0
102
RTVSPost2010PropOp36
 70
     1
102
RTVSPost2010Prop37
 90
       50
102
RTVSPost2010PropOp37
 70
     1
102
RTVSPost2010Prop38
140
0.0
102
RTVSPost2010PropOp38
 70
     1
102
RTVSPost2010Prop39
140
1.0
102
RTVSPost2010PropOp39
 70
     1
102
RTVSPost2010Prop40
 90
        0
102
RTVSPost2010PropOp40
 70
     1
102
RTVSPost2010Prop41ColorIndex
 90
       18
102
RTVSPost2010Prop41ColorRGB
 90
        0
102
RTVSPost2010PropOp41
 70
     1
102
RTVSPost2010Prop42
 90
       50
102
RTVSPost2010PropOp42
 70
     1
102
RTVSPost2010Prop43
 90
        3
102
RTVSPost2010PropOp43
 70
     1
102
RTVSPost2010Prop44ColorIndex
 90
        5
102
RTVSPost2010Prop44ColorRGB
 90
      255
102
RTVSPost2010PropOp44
 70
     1
102
RTVSPost2010Prop45
280
     0
102
RTVSPost2010PropOp45
 70
     1
102
RTVSPost2010Prop46
 90
       50
102
RTVSPost2010PropOp46
 70
     1
102
RTVSPost2010Prop47
 90
       50
102
RTVSPost2010PropOp47
 70
     1
102
RTVSPost2010Prop48
 90
       50
102
RTVSPost2010PropOp48
 70
     1
102
RTVSPost2010Prop49
280
     0
102
RTVSPost2010PropOp49
 70
     1
102
RTVSPost2010Prop50
 90
       50
102
RTVSPost2010PropOp50
 70
     1
102
RTVSPost2010Prop51ColorIndex
 90
      256
102
RTVSPost2010Prop51ColorRGB
 90
-16777216
102
RTVSPost2010PropOp51
 70
     0
102
RTVSPost2010Prop52
140
1.0
102
RTVSPost2010PropOp52
 70
     0
102
RTVSPost2010Prop53
 90
        2
102
RTVSPost2010PropOp53
 70
     1
102
RTVSPost2010Prop54
  1
strokes_ogs.tif
102
RTVSPost2010PropOp54
 70
     1
102
RTVSPost2010Prop55
280
     0
102
RTVSPost2010PropOp55
 70
     1
102
RTVSPost2010Prop56
140
1.0
102
RTVSPost2010PropOp56
 70
     1
102
RTVSPost2010Prop57
140
1.0
102
RTVSPost2010PropOp57
 70
     1
102
RTVSPropertyOp0
 70
     1
102
RTVSPropertyOp1
 70
     1
102
RTVSPropertyOp2
 70
     1
102
RTVSPropertyOp3
 70
     1
102
RTVSPropertyOp4
 70
     1
102
RTVSPropertyOp5
 70
     1
102
RTVSPropertyOp6
 70
     1
102
RTVSPropertyOp7
 70
     1
102
RTVSPropertyOp8
 70
     1
102
RTVSPropertyOp9
 70
     1
102
RTVSPropertyOp10
 70
     1
102
RTVSPropertyOp11
 70
     1
102
RTVSPropertyOp12
 70
     1
102
RTVSPropertyOp13
 70
     1
102
RTVSPropertyOp14
 70
     1
102
RTVSPropertyOp15
 70
     1
102
RTVSPropertyOp16
 70
     1
102
RTVSPropertyOp17
 70
     1
102
RTVSPropertyOp18
 70
     1
102
RTVSPropertyOp19
 70
     1
102
RTVSPropertyOp20
 70
     1
102
RTVSPropertyOp21
 70
     1
102
RTVSPropertyOp22
 70
     1
102
RTVSPropertyOp23
 70
     1
102
RTVSPropertyOp24
 70
     1
102
RTVSPropertyOp25
 70
     1
102
RTVSPropertyOp26
 70
     1
102
RTVSPropertyOp27
 70
     1
102
RTVSPropertyOp28
 70
     1
102
RTVSPropertyOp29
 70
     1
102
RTVSPropertyOp30
 70
     1
102
RTVSPropertyOp31
 70
     1
102
RTVSPropertyOp32
 70
     1
102
RTVSPropertyOp33
 70
     1
102
RTVSPropertyOp34
 70
     1
102
RTVSPropertyOp35
 70
     1
102
RTVSPropertyOp36
 70
     1
102
RTVSPropertyOp37
 70
     1
102
RTVSPropertyOp38
 70
     1
102
RTVSPropertyOp39
 70
     1
102
RTVSPropertyOp40
 70
     1
102
RTVSPropertyOp41
 70
     1
102
RTVSPropertyOp42
 70
     1
102
RTVSPropertyOp43
 70
     1
102
RTVSPropertyOp44
 70
     1
102
RTVSPropertyOp45
 70
     1
102
RTVSPropertyOp46
 70
     1
102
RTVSPropertyOp47
 70
     1
102
RTVSPropertyOp48
 70
     1
102
RTVSPropertyOp49
 70
     1
102
RTVSPropertyOp50
 70
     1
102
RTVSPropertyOp51
 70
     0
102
RTVSPropertyOp52
 70
     0
102
RTVSPropertyOp53
 70
     1
102
RTVSPropertyOp54
 70
     1
102
RTVSPropertyOp55
 70
     1
102
RTVSPropertyOp56
 70
     1
102
RTVSPropertyOp57
 70
     1
102
RTVSPropertyOp58
 70
     1
102
RTVSPropertyOp59
 70
     1
102
RTVSPropertyOp60
 70
     1
102
RTVSPropertyOp61
 70
     1
102
RTVSPropertyOp62
 70
     1
  0
XRECORD
  5
19F1F
102
{ACAD_REACTORS
330
19F1E
102
}
330
19F1E
100
AcDbXrecord
280
     1
102
RTVSPost2010Prop28
280
     0
102
RTVSPost2010PropOp28
 70
     1
102
RTVSPost2010Prop29
280
     1
102
RTVSPost2010PropOp29
 70
     1
102
RTVSPost2010Prop30
280
     1
102
RTVSPost2010PropOp30
 70
     1
102
RTVSPost2010Prop31
280
     0
102
RTVSPost2010PropOp31
 70
     1
102
RTVSPost2010Prop32
280
     0
102
RTVSPost2010PropOp32
 70
     1
102
RTVSPost2010Prop33
280
     0
102
RTVSPost2010PropOp33
 70
     1
102
RTVSPost2010Prop34
280
     0
102
RTVSPost2010PropOp34
 70
     1
102
RTVSPost2010Prop35
280
     0
102
RTVSPost2010PropOp35
 70
     1
102
RTVSPost2010Prop36
280
     0
102
RTVSPost2010PropOp36
 70
     1
102
RTVSPost2010Prop37
 90
       50
102
RTVSPost2010PropOp37
 70
     1
102
RTVSPost2010Prop38
140
0.0
102
RTVSPost2010PropOp38
 70
     1
102
RTVSPost2010Prop39
140
1.0
102
RTVSPost2010PropOp39
 70
     1
102
RTVSPost2010Prop40
 90
        0
102
RTVSPost2010PropOp40
 70
     1
102
RTVSPost2010Prop41ColorIndex
 90
       18
102
RTVSPost2010Prop41ColorRGB
 90
        0
102
RTVSPost2010PropOp41
 70
     1
102
RTVSPost2010Prop42
 90
       50
102
RTVSPost2010PropOp42
 70
     1
102
RTVSPost2010Prop43
 90
        3
102
RTVSPost2010PropOp43
 70
     1
102
RTVSPost2010Prop44ColorIndex
 90
        5
102
RTVSPost2010Prop44ColorRGB
 90
      255
102
RTVSPost2010PropOp44
 70
     1
102
RTVSPost2010Prop45
280
     0
102
RTVSPost2010PropOp45
 70
     1
102
RTVSPost2010Prop46
 90
       50
102
RTVSPost2010PropOp46
 70
     1
102
RTVSPost2010Prop47
 90
       50
102
RTVSPost2010PropOp47
 70
     1
102
RTVSPost2010Prop48
 90
       50
102
RTVSPost2010PropOp48
 70
     1
102
RTVSPost2010Prop49
280
     0
102
RTVSPost2010PropOp49
 70
     1
102
RTVSPost2010Prop50
 90
       50
102
RTVSPost2010PropOp50
 70
     1
102
RTVSPost2010Prop51ColorIndex
 90
      256
102
RTVSPost2010Prop51ColorRGB
 90
-16777216
102
RTVSPost2010PropOp51
 70
     0
102
RTVSPost2010Prop52
140
1.0
102
RTVSPost2010PropOp52
 70
     0
102
RTVSPost2010Prop53
 90
        2
102
RTVSPost2010PropOp53
 70
     1
102
RTVSPost2010Prop54
  1
strokes_ogs.tif
102
RTVSPost2010PropOp54
 70
     1
102
RTVSPost2010Prop55
280
     0
102
RTVSPost2010PropOp55
 70
     1
102
RTVSPost2010Prop56
140
1.0
102
RTVSPost2010PropOp56
 70
     1
102
RTVSPost2010Prop57
140
1.0
102
RTVSPost2010PropOp57
 70
     1
102
RTVSPropertyOp0
 70
     0
102
RTVSPropertyOp1
 70
     0
102
RTVSPropertyOp2
 70
     0
102
RTVSPropertyOp3
 70
     0
102
RTVSPropertyOp4
 70
     0
102
RTVSPropertyOp5
 70
     0
102
RTVSPropertyOp6
 70
     0
102
RTVSPropertyOp7
 70
     0
102
RTVSPropertyOp8
 70
     0
102
RTVSPropertyOp9
 70
     0
102
RTVSPropertyOp10
 70
     0
102
RTVSPropertyOp11
 70
     0
102
RTVSPropertyOp12
 70
     0
102
RTVSPropertyOp13
 70
     0
102
RTVSPropertyOp14
 70
     2
102
RTVSPropertyOp15
 70
     0
102
RTVSPropertyOp16
 70
     0
102
RTVSPropertyOp17
 70
     0
102
RTVSPropertyOp18
 70
     0
102
RTVSPropertyOp19
 70
     0
102
RTVSPropertyOp20
 70
     0
102
RTVSPropertyOp21
 70
     0
102
RTVSPropertyOp22
 70
     0
102
RTVSPropertyOp23
 70
     0
102
RTVSPropertyOp24
 70
     0
102
RTVSPropertyOp25
 70
     0
102
RTVSPropertyOp26
 70
     0
102
RTVSPropertyOp27
 70
     0
102
RTVSPropertyOp28
 70
     1
102
RTVSPropertyOp29
 70
     1
102
RTVSPropertyOp30
 70
     1
102
RTVSPropertyOp31
 70
     1
102
RTVSPropertyOp32
 70
     1
102
RTVSPropertyOp33
 70
     1
102
RTVSPropertyOp34
 70
     1
102
RTVSPropertyOp35
 70
     1
102
RTVSPropertyOp36
 70
     1
102
RTVSPropertyOp37
 70
     1
102
RTVSPropertyOp38
 70
     1
102
RTVSPropertyOp39
 70
     1
102
RTVSPropertyOp40
 70
     1
102
RTVSPropertyOp41
 70
     1
102
RTVSPropertyOp42
 70
     1
102
RTVSPropertyOp43
 70
     1
102
RTVSPropertyOp44
 70
     1
102
RTVSPropertyOp45
 70
     1
102
RTVSPropertyOp46
 70
     1
102
RTVSPropertyOp47
 70
     1
102
RTVSPropertyOp48
 70
     1
102
RTVSPropertyOp49
 70
     1
102
RTVSPropertyOp50
 70
     1
102
RTVSPropertyOp51
 70
     0
102
RTVSPropertyOp52
 70
     0
102
RTVSPropertyOp53
 70
     1
102
RTVSPropertyOp54
 70
     1
102
RTVSPropertyOp55
 70
     1
102
RTVSPropertyOp56
 70
     1
102
RTVSPropertyOp57
 70
     1
102
RTVSPropertyOp58
 70
     1
102
RTVSPropertyOp59
 70
     1
102
RTVSPropertyOp60
 70
     1
102
RTVSPropertyOp61
 70
     1
102
RTVSPropertyOp62
 70
     1
  0
XRECORD
  5
19F0D
102
{ACAD_REACTORS
330
19F0C
102
}
330
19F0C
100
AcDbXrecord
280
     1
102
RTVSPost2010Prop28
280
     0
102
RTVSPost2010PropOp28
 70
     1
102
RTVSPost2010Prop29
280
     1
102
RTVSPost2010PropOp29
 70
     1
102
RTVSPost2010Prop30
280
     1
102
RTVSPost2010PropOp30
 70
     1
102
RTVSPost2010Prop31
280
     0
102
RTVSPost2010PropOp31
 70
     1
102
RTVSPost2010Prop32
280
     0
102
RTVSPost2010PropOp32
 70
     1
102
RTVSPost2010Prop33
280
     0
102
RTVSPost2010PropOp33
 70
     1
102
RTVSPost2010Prop34
280
     0
102
RTVSPost2010PropOp34
 70
     1
102
RTVSPost2010Prop35
280
     0
102
RTVSPost2010PropOp35
 70
     1
102
RTVSPost2010Prop36
280
     0
102
RTVSPost2010PropOp36
 70
     1
102
RTVSPost2010Prop37
 90
       50
102
RTVSPost2010PropOp37
 70
     1
102
RTVSPost2010Prop38
140
0.0
102
RTVSPost2010PropOp38
 70
     1
102
RTVSPost2010Prop39
140
1.0
102
RTVSPost2010PropOp39
 70
     1
102
RTVSPost2010Prop40
 90
        0
102
RTVSPost2010PropOp40
 70
     1
102
RTVSPost2010Prop41ColorIndex
 90
       18
102
RTVSPost2010Prop41ColorRGB
 90
        0
102
RTVSPost2010PropOp41
 70
     1
102
RTVSPost2010Prop42
 90
       50
102
RTVSPost2010PropOp42
 70
     1
102
RTVSPost2010Prop43
 90
        3
102
RTVSPost2010PropOp43
 70
     1
102
RTVSPost2010Prop44ColorIndex
 90
        5
102
RTVSPost2010Prop44ColorRGB
 90
      255
102
RTVSPost2010PropOp44
 70
     1
102
RTVSPost2010Prop45
280
     0
102
RTVSPost2010PropOp45
 70
     1
102
RTVSPost2010Prop46
 90
       50
102
RTVSPost2010PropOp46
 70
     1
102
RTVSPost2010Prop47
 90
       50
102
RTVSPost2010PropOp47
 70
     1
102
RTVSPost2010Prop48
 90
       50
102
RTVSPost2010PropOp48
 70
     1
102
RTVSPost2010Prop49
280
     0
102
RTVSPost2010PropOp49
 70
     1
102
RTVSPost2010Prop50
 90
       50
102
RTVSPost2010PropOp50
 70
     1
102
RTVSPost2010Prop51ColorIndex
 90
      256
102
RTVSPost2010Prop51ColorRGB
 90
-16777216
102
RTVSPost2010PropOp51
 70
     0
102
RTVSPost2010Prop52
140
1.0
102
RTVSPost2010PropOp52
 70
     0
102
RTVSPost2010Prop53
 90
        2
102
RTVSPost2010PropOp53
 70
     1
102
RTVSPost2010Prop54
  1
strokes_ogs.tif
102
RTVSPost2010PropOp54
 70
     1
102
RTVSPost2010Prop55
280
     0
102
RTVSPost2010PropOp55
 70
     1
102
RTVSPost2010Prop56
140
1.0
102
RTVSPost2010PropOp56
 70
     1
102
RTVSPost2010Prop57
140
1.0
102
RTVSPost2010PropOp57
 70
     1
102
RTVSPropertyOp0
 70
     1
102
RTVSPropertyOp1
 70
     1
102
RTVSPropertyOp2
 70
     1
102
RTVSPropertyOp3
 70
     1
102
RTVSPropertyOp4
 70
     1
102
RTVSPropertyOp5
 70
     1
102
RTVSPropertyOp6
 70
     1
102
RTVSPropertyOp7
 70
     1
102
RTVSPropertyOp8
 70
     1
102
RTVSPropertyOp9
 70
     1
102
RTVSPropertyOp10
 70
     1
102
RTVSPropertyOp11
 70
     1
102
RTVSPropertyOp12
 70
     1
102
RTVSPropertyOp13
 70
     1
102
RTVSPropertyOp14
 70
     1
102
RTVSPropertyOp15
 70
     1
102
RTVSPropertyOp16
 70
     1
102
RTVSPropertyOp17
 70
     1
102
RTVSPropertyOp18
 70
     1
102
RTVSPropertyOp19
 70
     1
102
RTVSPropertyOp20
 70
     1
102
RTVSPropertyOp21
 70
     1
102
RTVSPropertyOp22
 70
     1
102
RTVSPropertyOp23
 70
     1
102
RTVSPropertyOp24
 70
     1
102
RTVSPropertyOp25
 70
     1
102
RTVSPropertyOp26
 70
     1
102
RTVSPropertyOp27
 70
     1
102
RTVSPropertyOp28
 70
     1
102
RTVSPropertyOp29
 70
     1
102
RTVSPropertyOp30
 70
     1
102
RTVSPropertyOp31
 70
     1
102
RTVSPropertyOp32
 70
     1
102
RTVSPropertyOp33
 70
     1
102
RTVSPropertyOp34
 70
     1
102
RTVSPropertyOp35
 70
     1
102
RTVSPropertyOp36
 70
     1
102
RTVSPropertyOp37
 70
     1
102
RTVSPropertyOp38
 70
     1
102
RTVSPropertyOp39
 70
     1
102
RTVSPropertyOp40
 70
     1
102
RTVSPropertyOp41
 70
     1
102
RTVSPropertyOp42
 70
     1
102
RTVSPropertyOp43
 70
     1
102
RTVSPropertyOp44
 70
     1
102
RTVSPropertyOp45
 70
     1
102
RTVSPropertyOp46
 70
     1
102
RTVSPropertyOp47
 70
     1
102
RTVSPropertyOp48
 70
     1
102
RTVSPropertyOp49
 70
     1
102
RTVSPropertyOp50
 70
     1
102
RTVSPropertyOp51
 70
     0
102
RTVSPropertyOp52
 70
     0
102
RTVSPropertyOp53
 70
     1
102
RTVSPropertyOp54
 70
     1
102
RTVSPropertyOp55
 70
     1
102
RTVSPropertyOp56
 70
     1
102
RTVSPropertyOp57
 70
     1
102
RTVSPropertyOp58
 70
     1
102
RTVSPropertyOp59
 70
     1
102
RTVSPropertyOp60
 70
     1
102
RTVSPropertyOp61
 70
     1
102
RTVSPropertyOp62
 70
     1
  0
XRECORD
  5
19F2B
102
{ACAD_REACTORS
330
19F2A
102
}
330
19F2A
100
AcDbXrecord
280
     1
102
RTVSPost2010Prop28
280
     0
102
RTVSPost2010PropOp28
 70
     1
102
RTVSPost2010Prop29
280
     1
102
RTVSPost2010PropOp29
 70
     1
102
RTVSPost2010Prop30
280
     1
102
RTVSPost2010PropOp30
 70
     1
102
RTVSPost2010Prop31
280
     0
102
RTVSPost2010PropOp31
 70
     1
102
RTVSPost2010Prop32
280
     0
102
RTVSPost2010PropOp32
 70
     1
102
RTVSPost2010Prop33
280
     0
102
RTVSPost2010PropOp33
 70
     1
102
RTVSPost2010Prop34
280
     0
102
RTVSPost2010PropOp34
 70
     1
102
RTVSPost2010Prop35
280
     0
102
RTVSPost2010PropOp35
 70
     1
102
RTVSPost2010Prop36
280
     0
102
RTVSPost2010PropOp36
 70
     1
102
RTVSPost2010Prop37
 90
       50
102
RTVSPost2010PropOp37
 70
     1
102
RTVSPost2010Prop38
140
0.0
102
RTVSPost2010PropOp38
 70
     1
102
RTVSPost2010Prop39
140
1.0
102
RTVSPost2010PropOp39
 70
     1
102
RTVSPost2010Prop40
 90
        0
102
RTVSPost2010PropOp40
 70
     1
102
RTVSPost2010Prop41ColorIndex
 90
       18
102
RTVSPost2010Prop41ColorRGB
 90
        0
102
RTVSPost2010PropOp41
 70
     1
102
RTVSPost2010Prop42
 90
       50
102
RTVSPost2010PropOp42
 70
     1
102
RTVSPost2010Prop43
 90
        3
102
RTVSPost2010PropOp43
 70
     1
102
RTVSPost2010Prop44ColorIndex
 90
        5
102
RTVSPost2010Prop44ColorRGB
 90
      255
102
RTVSPost2010PropOp44
 70
     1
102
RTVSPost2010Prop45
280
     0
102
RTVSPost2010PropOp45
 70
     1
102
RTVSPost2010Prop46
 90
       50
102
RTVSPost2010PropOp46
 70
     1
102
RTVSPost2010Prop47
 90
       50
102
RTVSPost2010PropOp47
 70
     1
102
RTVSPost2010Prop48
 90
       50
102
RTVSPost2010PropOp48
 70
     1
102
RTVSPost2010Prop49
280
     0
102
RTVSPost2010PropOp49
 70
     1
102
RTVSPost2010Prop50
 90
       50
102
RTVSPost2010PropOp50
 70
     1
102
RTVSPost2010Prop51ColorIndex
 90
      256
102
RTVSPost2010Prop51ColorRGB
 90
-16777216
102
RTVSPost2010PropOp51
 70
     0
102
RTVSPost2010Prop52
140
1.0
102
RTVSPost2010PropOp52
 70
     0
102
RTVSPost2010Prop53
 90
        2
102
RTVSPost2010PropOp53
 70
     1
102
RTVSPost2010Prop54
  1
strokes_ogs.tif
102
RTVSPost2010PropOp54
 70
     1
102
RTVSPost2010Prop55
280
     0
102
RTVSPost2010PropOp55
 70
     1
102
RTVSPost2010Prop56
140
1.0
102
RTVSPost2010PropOp56
 70
     1
102
RTVSPost2010Prop57
140
1.0
102
RTVSPost2010PropOp57
 70
     1
102
RTVSPropertyOp0
 70
     1
102
RTVSPropertyOp1
 70
     1
102
RTVSPropertyOp2
 70
     1
102
RTVSPropertyOp3
 70
     1
102
RTVSPropertyOp4
 70
     1
102
RTVSPropertyOp5
 70
     1
102
RTVSPropertyOp6
 70
     1
102
RTVSPropertyOp7
 70
     1
102
RTVSPropertyOp8
 70
     1
102
RTVSPropertyOp9
 70
     1
102
RTVSPropertyOp10
 70
     1
102
RTVSPropertyOp11
 70
     1
102
RTVSPropertyOp12
 70
     1
102
RTVSPropertyOp13
 70
     1
102
RTVSPropertyOp14
 70
     1
102
RTVSPropertyOp15
 70
     1
102
RTVSPropertyOp16
 70
     1
102
RTVSPropertyOp17
 70
     1
102
RTVSPropertyOp18
 70
     1
102
RTVSPropertyOp19
 70
     1
102
RTVSPropertyOp20
 70
     1
102
RTVSPropertyOp21
 70
     1
102
RTVSPropertyOp22
 70
     1
102
RTVSPropertyOp23
 70
     1
102
RTVSPropertyOp24
 70
     1
102
RTVSPropertyOp25
 70
     1
102
RTVSPropertyOp26
 70
     1
102
RTVSPropertyOp27
 70
     1
102
RTVSPropertyOp28
 70
     1
102
RTVSPropertyOp29
 70
     1
102
RTVSPropertyOp30
 70
     1
102
RTVSPropertyOp31
 70
     1
102
RTVSPropertyOp32
 70
     1
102
RTVSPropertyOp33
 70
     1
102
RTVSPropertyOp34
 70
     1
102
RTVSPropertyOp35
 70
     1
102
RTVSPropertyOp36
 70
     1
102
RTVSPropertyOp37
 70
     1
102
RTVSPropertyOp38
 70
     1
102
RTVSPropertyOp39
 70
     1
102
RTVSPropertyOp40
 70
     1
102
RTVSPropertyOp41
 70
     1
102
RTVSPropertyOp42
 70
     1
102
RTVSPropertyOp43
 70
     1
102
RTVSPropertyOp44
 70
     1
102
RTVSPropertyOp45
 70
     1
102
RTVSPropertyOp46
 70
     1
102
RTVSPropertyOp47
 70
     1
102
RTVSPropertyOp48
 70
     1
102
RTVSPropertyOp49
 70
     1
102
RTVSPropertyOp50
 70
     1
102
RTVSPropertyOp51
 70
     0
102
RTVSPropertyOp52
 70
     0
102
RTVSPropertyOp53
 70
     1
102
RTVSPropertyOp54
 70
     1
102
RTVSPropertyOp55
 70
     1
102
RTVSPropertyOp56
 70
     1
102
RTVSPropertyOp57
 70
     1
102
RTVSPropertyOp58
 70
     1
102
RTVSPropertyOp59
 70
     1
102
RTVSPropertyOp60
 70
     1
102
RTVSPropertyOp61
 70
     1
102
RTVSPropertyOp62
 70
     1
  0
XRECORD
  5
19F29
102
{ACAD_REACTORS
330
19F28
102
}
330
19F28
100
AcDbXrecord
280
     1
102
RTVSPost2010Prop28
280
     0
102
RTVSPost2010PropOp28
 70
     1
102
RTVSPost2010Prop29
280
     1
102
RTVSPost2010PropOp29
 70
     1
102
RTVSPost2010Prop30
280
     1
102
RTVSPost2010PropOp30
 70
     1
102
RTVSPost2010Prop31
280
     0
102
RTVSPost2010PropOp31
 70
     1
102
RTVSPost2010Prop32
280
     0
102
RTVSPost2010PropOp32
 70
     1
102
RTVSPost2010Prop33
280
     0
102
RTVSPost2010PropOp33
 70
     1
102
RTVSPost2010Prop34
280
     0
102
RTVSPost2010PropOp34
 70
     1
102
RTVSPost2010Prop35
280
     0
102
RTVSPost2010PropOp35
 70
     1
102
RTVSPost2010Prop36
280
     0
102
RTVSPost2010PropOp36
 70
     1
102
RTVSPost2010Prop37
 90
       50
102
RTVSPost2010PropOp37
 70
     1
102
RTVSPost2010Prop38
140
0.0
102
RTVSPost2010PropOp38
 70
     1
102
RTVSPost2010Prop39
140
1.0
102
RTVSPost2010PropOp39
 70
     1
102
RTVSPost2010Prop40
 90
        0
102
RTVSPost2010PropOp40
 70
     1
102
RTVSPost2010Prop41ColorIndex
 90
       18
102
RTVSPost2010Prop41ColorRGB
 90
        0
102
RTVSPost2010PropOp41
 70
     1
102
RTVSPost2010Prop42
 90
       50
102
RTVSPost2010PropOp42
 70
     1
102
RTVSPost2010Prop43
 90
        3
102
RTVSPost2010PropOp43
 70
     1
102
RTVSPost2010Prop44ColorIndex
 90
        5
102
RTVSPost2010Prop44ColorRGB
 90
      255
102
RTVSPost2010PropOp44
 70
     1
102
RTVSPost2010Prop45
280
     0
102
RTVSPost2010PropOp45
 70
     1
102
RTVSPost2010Prop46
 90
       50
102
RTVSPost2010PropOp46
 70
     1
102
RTVSPost2010Prop47
 90
       50
102
RTVSPost2010PropOp47
 70
     1
102
RTVSPost2010Prop48
 90
       50
102
RTVSPost2010PropOp48
 70
     1
102
RTVSPost2010Prop49
280
     0
102
RTVSPost2010PropOp49
 70
     1
102
RTVSPost2010Prop50
 90
       50
102
RTVSPost2010PropOp50
 70
     1
102
RTVSPost2010Prop51ColorIndex
 90
      256
102
RTVSPost2010Prop51ColorRGB
 90
-16777216
102
RTVSPost2010PropOp51
 70
     0
102
RTVSPost2010Prop52
140
1.0
102
RTVSPost2010PropOp52
 70
     0
102
RTVSPost2010Prop53
 90
        2
102
RTVSPost2010PropOp53
 70
     1
102
RTVSPost2010Prop54
  1
strokes_ogs.tif
102
RTVSPost2010PropOp54
 70
     1
102
RTVSPost2010Prop55
280
     0
102
RTVSPost2010PropOp55
 70
     1
102
RTVSPost2010Prop56
140
1.0
102
RTVSPost2010PropOp56
 70
     1
102
RTVSPost2010Prop57
140
1.0
102
RTVSPost2010PropOp57
 70
     1
102
RTVSPropertyOp0
 70
     1
102
RTVSPropertyOp1
 70
     1
102
RTVSPropertyOp2
 70
     1
102
RTVSPropertyOp3
 70
     1
102
RTVSPropertyOp4
 70
     1
102
RTVSPropertyOp5
 70
     1
102
RTVSPropertyOp6
 70
     1
102
RTVSPropertyOp7
 70
     1
102
RTVSPropertyOp8
 70
     1
102
RTVSPropertyOp9
 70
     1
102
RTVSPropertyOp10
 70
     1
102
RTVSPropertyOp11
 70
     1
102
RTVSPropertyOp12
 70
     1
102
RTVSPropertyOp13
 70
     1
102
RTVSPropertyOp14
 70
     1
102
RTVSPropertyOp15
 70
     1
102
RTVSPropertyOp16
 70
     1
102
RTVSPropertyOp17
 70
     1
102
RTVSPropertyOp18
 70
     1
102
RTVSPropertyOp19
 70
     1
102
RTVSPropertyOp20
 70
     1
102
RTVSPropertyOp21
 70
     1
102
RTVSPropertyOp22
 70
     1
102
RTVSPropertyOp23
 70
     1
102
RTVSPropertyOp24
 70
     1
102
RTVSPropertyOp25
 70
     1
102
RTVSPropertyOp26
 70
     1
102
RTVSPropertyOp27
 70
     1
102
RTVSPropertyOp28
 70
     1
102
RTVSPropertyOp29
 70
     1
102
RTVSPropertyOp30
 70
     1
102
RTVSPropertyOp31
 70
     1
102
RTVSPropertyOp32
 70
     1
102
RTVSPropertyOp33
 70
     1
102
RTVSPropertyOp34
 70
     1
102
RTVSPropertyOp35
 70
     1
102
RTVSPropertyOp36
 70
     1
102
RTVSPropertyOp37
 70
     1
102
RTVSPropertyOp38
 70
     1
102
RTVSPropertyOp39
 70
     1
102
RTVSPropertyOp40
 70
     1
102
RTVSPropertyOp41
 70
     1
102
RTVSPropertyOp42
 70
     1
102
RTVSPropertyOp43
 70
     1
102
RTVSPropertyOp44
 70
     1
102
RTVSPropertyOp45
 70
     1
102
RTVSPropertyOp46
 70
     1
102
RTVSPropertyOp47
 70
     1
102
RTVSPropertyOp48
 70
     1
102
RTVSPropertyOp49
 70
     1
102
RTVSPropertyOp50
 70
     1
102
RTVSPropertyOp51
 70
     0
102
RTVSPropertyOp52
 70
     0
102
RTVSPropertyOp53
 70
     1
102
RTVSPropertyOp54
 70
     1
102
RTVSPropertyOp55
 70
     1
102
RTVSPropertyOp56
 70
     1
102
RTVSPropertyOp57
 70
     1
102
RTVSPropertyOp58
 70
     1
102
RTVSPropertyOp59
 70
     1
102
RTVSPropertyOp60
 70
     1
102
RTVSPropertyOp61
 70
     1
102
RTVSPropertyOp62
 70
     1
  0
XRECORD
  5
19F23
102
{ACAD_REACTORS
330
19F22
102
}
330
19F22
100
AcDbXrecord
280
     1
102
RTVSPost2010Prop28
280
     0
102
RTVSPost2010PropOp28
 70
     1
102
RTVSPost2010Prop29
280
     1
102
RTVSPost2010PropOp29
 70
     1
102
RTVSPost2010Prop30
280
     1
102
RTVSPost2010PropOp30
 70
     1
102
RTVSPost2010Prop31
280
     0
102
RTVSPost2010PropOp31
 70
     1
102
RTVSPost2010Prop32
280
     0
102
RTVSPost2010PropOp32
 70
     1
102
RTVSPost2010Prop33
280
     0
102
RTVSPost2010PropOp33
 70
     1
102
RTVSPost2010Prop34
280
     0
102
RTVSPost2010PropOp34
 70
     1
102
RTVSPost2010Prop35
280
     0
102
RTVSPost2010PropOp35
 70
     1
102
RTVSPost2010Prop36
280
     0
102
RTVSPost2010PropOp36
 70
     1
102
RTVSPost2010Prop37
 90
       50
102
RTVSPost2010PropOp37
 70
     1
102
RTVSPost2010Prop38
140
0.0
102
RTVSPost2010PropOp38
 70
     1
102
RTVSPost2010Prop39
140
1.0
102
RTVSPost2010PropOp39
 70
     1
102
RTVSPost2010Prop40
 90
        0
102
RTVSPost2010PropOp40
 70
     1
102
RTVSPost2010Prop41ColorIndex
 90
       18
102
RTVSPost2010Prop41ColorRGB
 90
        0
102
RTVSPost2010PropOp41
 70
     1
102
RTVSPost2010Prop42
 90
       50
102
RTVSPost2010PropOp42
 70
     1
102
RTVSPost2010Prop43
 90
        3
102
RTVSPost2010PropOp43
 70
     1
102
RTVSPost2010Prop44ColorIndex
 90
        5
102
RTVSPost2010Prop44ColorRGB
 90
      255
102
RTVSPost2010PropOp44
 70
     1
102
RTVSPost2010Prop45
280
     0
102
RTVSPost2010PropOp45
 70
     1
102
RTVSPost2010Prop46
 90
       50
102
RTVSPost2010PropOp46
 70
     1
102
RTVSPost2010Prop47
 90
       50
102
RTVSPost2010PropOp47
 70
     1
102
RTVSPost2010Prop48
 90
       50
102
RTVSPost2010PropOp48
 70
     1
102
RTVSPost2010Prop49
280
     0
102
RTVSPost2010PropOp49
 70
     1
102
RTVSPost2010Prop50
 90
       50
102
RTVSPost2010PropOp50
 70
     1
102
RTVSPost2010Prop51ColorIndex
 90
      256
102
RTVSPost2010Prop51ColorRGB
 90
-16777216
102
RTVSPost2010PropOp51
 70
     0
102
RTVSPost2010Prop52
140
1.0
102
RTVSPost2010PropOp52
 70
     0
102
RTVSPost2010Prop53
 90
        2
102
RTVSPost2010PropOp53
 70
     1
102
RTVSPost2010Prop54
  1
strokes_ogs.tif
102
RTVSPost2010PropOp54
 70
     1
102
RTVSPost2010Prop55
280
     0
102
RTVSPost2010PropOp55
 70
     1
102
RTVSPost2010Prop56
140
1.0
102
RTVSPost2010PropOp56
 70
     1
102
RTVSPost2010Prop57
140
1.0
102
RTVSPost2010PropOp57
 70
     1
102
RTVSPropertyOp0
 70
     1
102
RTVSPropertyOp1
 70
     1
102
RTVSPropertyOp2
 70
     1
102
RTVSPropertyOp3
 70
     1
102
RTVSPropertyOp4
 70
     1
102
RTVSPropertyOp5
 70
     1
102
RTVSPropertyOp6
 70
     1
102
RTVSPropertyOp7
 70
     1
102
RTVSPropertyOp8
 70
     1
102
RTVSPropertyOp9
 70
     1
102
RTVSPropertyOp10
 70
     1
102
RTVSPropertyOp11
 70
     1
102
RTVSPropertyOp12
 70
     1
102
RTVSPropertyOp13
 70
     1
102
RTVSPropertyOp14
 70
     1
102
RTVSPropertyOp15
 70
     1
102
RTVSPropertyOp16
 70
     1
102
RTVSPropertyOp17
 70
     1
102
RTVSPropertyOp18
 70
     1
102
RTVSPropertyOp19
 70
     1
102
RTVSPropertyOp20
 70
     1
102
RTVSPropertyOp21
 70
     1
102
RTVSPropertyOp22
 70
     1
102
RTVSPropertyOp23
 70
     1
102
RTVSPropertyOp24
 70
     1
102
RTVSPropertyOp25
 70
     1
102
RTVSPropertyOp26
 70
     1
102
RTVSPropertyOp27
 70
     1
102
RTVSPropertyOp28
 70
     1
102
RTVSPropertyOp29
 70
     1
102
RTVSPropertyOp30
 70
     1
102
RTVSPropertyOp31
 70
     1
102
RTVSPropertyOp32
 70
     1
102
RTVSPropertyOp33
 70
     1
102
RTVSPropertyOp34
 70
     1
102
RTVSPropertyOp35
 70
     1
102
RTVSPropertyOp36
 70
     1
102
RTVSPropertyOp37
 70
     1
102
RTVSPropertyOp38
 70
     1
102
RTVSPropertyOp39
 70
     1
102
RTVSPropertyOp40
 70
     1
102
RTVSPropertyOp41
 70
     1
102
RTVSPropertyOp42
 70
     1
102
RTVSPropertyOp43
 70
     1
102
RTVSPropertyOp44
 70
     1
102
RTVSPropertyOp45
 70
     1
102
RTVSPropertyOp46
 70
     1
102
RTVSPropertyOp47
 70
     1
102
RTVSPropertyOp48
 70
     1
102
RTVSPropertyOp49
 70
     1
102
RTVSPropertyOp50
 70
     1
102
RTVSPropertyOp51
 70
     0
102
RTVSPropertyOp52
 70
     0
102
RTVSPropertyOp53
 70
     1
102
RTVSPropertyOp54
 70
     1
102
RTVSPropertyOp55
 70
     1
102
RTVSPropertyOp56
 70
     1
102
RTVSPropertyOp57
 70
     1
102
RTVSPropertyOp58
 70
     1
102
RTVSPropertyOp59
 70
     1
102
RTVSPropertyOp60
 70
     1
102
RTVSPropertyOp61
 70
     1
102
RTVSPropertyOp62
 70
     1
  0
XRECORD
  5
19F25
102
{ACAD_REACTORS
330
19F24
102
}
330
19F24
100
AcDbXrecord
280
     1
102
RTVSPost2010Prop28
280
     0
102
RTVSPost2010PropOp28
 70
     1
102
RTVSPost2010Prop29
280
     1
102
RTVSPost2010PropOp29
 70
     1
102
RTVSPost2010Prop30
280
     1
102
RTVSPost2010PropOp30
 70
     1
102
RTVSPost2010Prop31
280
     0
102
RTVSPost2010PropOp31
 70
     1
102
RTVSPost2010Prop32
280
     0
102
RTVSPost2010PropOp32
 70
     1
102
RTVSPost2010Prop33
280
     0
102
RTVSPost2010PropOp33
 70
     1
102
RTVSPost2010Prop34
280
     0
102
RTVSPost2010PropOp34
 70
     1
102
RTVSPost2010Prop35
280
     0
102
RTVSPost2010PropOp35
 70
     1
102
RTVSPost2010Prop36
280
     0
102
RTVSPost2010PropOp36
 70
     1
102
RTVSPost2010Prop37
 90
       50
102
RTVSPost2010PropOp37
 70
     1
102
RTVSPost2010Prop38
140
0.0
102
RTVSPost2010PropOp38
 70
     1
102
RTVSPost2010Prop39
140
1.0
102
RTVSPost2010PropOp39
 70
     1
102
RTVSPost2010Prop40
 90
        0
102
RTVSPost2010PropOp40
 70
     1
102
RTVSPost2010Prop41ColorIndex
 90
       18
102
RTVSPost2010Prop41ColorRGB
 90
        0
102
RTVSPost2010PropOp41
 70
     1
102
RTVSPost2010Prop42
 90
       50
102
RTVSPost2010PropOp42
 70
     1
102
RTVSPost2010Prop43
 90
        3
102
RTVSPost2010PropOp43
 70
     1
102
RTVSPost2010Prop44ColorIndex
 90
        5
102
RTVSPost2010Prop44ColorRGB
 90
      255
102
RTVSPost2010PropOp44
 70
     1
102
RTVSPost2010Prop45
280
     0
102
RTVSPost2010PropOp45
 70
     1
102
RTVSPost2010Prop46
 90
       50
102
RTVSPost2010PropOp46
 70
     1
102
RTVSPost2010Prop47
 90
       50
102
RTVSPost2010PropOp47
 70
     1
102
RTVSPost2010Prop48
 90
       50
102
RTVSPost2010PropOp48
 70
     1
102
RTVSPost2010Prop49
280
     0
102
RTVSPost2010PropOp49
 70
     1
102
RTVSPost2010Prop50
 90
       50
102
RTVSPost2010PropOp50
 70
     1
102
RTVSPost2010Prop51ColorIndex
 90
      256
102
RTVSPost2010Prop51ColorRGB
 90
-16777216
102
RTVSPost2010PropOp51
 70
     0
102
RTVSPost2010Prop52
140
1.0
102
RTVSPost2010PropOp52
 70
     0
102
RTVSPost2010Prop53
 90
        2
102
RTVSPost2010PropOp53
 70
     1
102
RTVSPost2010Prop54
  1
strokes_ogs.tif
102
RTVSPost2010PropOp54
 70
     1
102
RTVSPost2010Prop55
280
     0
102
RTVSPost2010PropOp55
 70
     1
102
RTVSPost2010Prop56
140
1.0
102
RTVSPost2010PropOp56
 70
     1
102
RTVSPost2010Prop57
140
1.0
102
RTVSPost2010PropOp57
 70
     1
102
RTVSPropertyOp0
 70
     1
102
RTVSPropertyOp1
 70
     1
102
RTVSPropertyOp2
 70
     1
102
RTVSPropertyOp3
 70
     1
102
RTVSPropertyOp4
 70
     1
102
RTVSPropertyOp5
 70
     1
102
RTVSPropertyOp6
 70
     1
102
RTVSPropertyOp7
 70
     1
102
RTVSPropertyOp8
 70
     1
102
RTVSPropertyOp9
 70
     1
102
RTVSPropertyOp10
 70
     1
102
RTVSPropertyOp11
 70
     1
102
RTVSPropertyOp12
 70
     1
102
RTVSPropertyOp13
 70
     1
102
RTVSPropertyOp14
 70
     1
102
RTVSPropertyOp15
 70
     1
102
RTVSPropertyOp16
 70
     1
102
RTVSPropertyOp17
 70
     1
102
RTVSPropertyOp18
 70
     1
102
RTVSPropertyOp19
 70
     1
102
RTVSPropertyOp20
 70
     1
102
RTVSPropertyOp21
 70
     1
102
RTVSPropertyOp22
 70
     1
102
RTVSPropertyOp23
 70
     1
102
RTVSPropertyOp24
 70
     1
102
RTVSPropertyOp25
 70
     1
102
RTVSPropertyOp26
 70
     1
102
RTVSPropertyOp27
 70
     1
102
RTVSPropertyOp28
 70
     1
102
RTVSPropertyOp29
 70
     1
102
RTVSPropertyOp30
 70
     1
102
RTVSPropertyOp31
 70
     1
102
RTVSPropertyOp32
 70
     1
102
RTVSPropertyOp33
 70
     1
102
RTVSPropertyOp34
 70
     1
102
RTVSPropertyOp35
 70
     1
102
RTVSPropertyOp36
 70
     1
102
RTVSPropertyOp37
 70
     1
102
RTVSPropertyOp38
 70
     1
102
RTVSPropertyOp39
 70
     1
102
RTVSPropertyOp40
 70
     1
102
RTVSPropertyOp41
 70
     1
102
RTVSPropertyOp42
 70
     1
102
RTVSPropertyOp43
 70
     1
102
RTVSPropertyOp44
 70
     1
102
RTVSPropertyOp45
 70
     1
102
RTVSPropertyOp46
 70
     1
102
RTVSPropertyOp47
 70
     1
102
RTVSPropertyOp48
 70
     1
102
RTVSPropertyOp49
 70
     1
102
RTVSPropertyOp50
 70
     1
102
RTVSPropertyOp51
 70
     0
102
RTVSPropertyOp52
 70
     0
102
RTVSPropertyOp53
 70
     1
102
RTVSPropertyOp54
 70
     1
102
RTVSPropertyOp55
 70
     1
102
RTVSPropertyOp56
 70
     1
102
RTVSPropertyOp57
 70
     1
102
RTVSPropertyOp58
 70
     1
102
RTVSPropertyOp59
 70
     1
102
RTVSPropertyOp60
 70
     1
102
RTVSPropertyOp61
 70
     1
102
RTVSPropertyOp62
 70
     1
  0
XRECORD
  5
19F13
102
{ACAD_REACTORS
330
19F12
102
}
330
19F12
100
AcDbXrecord
280
     1
102
RTVSPost2010Prop28
280
     0
102
RTVSPost2010PropOp28
 70
     1
102
RTVSPost2010Prop29
280
     1
102
RTVSPost2010PropOp29
 70
     1
102
RTVSPost2010Prop30
280
     1
102
RTVSPost2010PropOp30
 70
     1
102
RTVSPost2010Prop31
280
     0
102
RTVSPost2010PropOp31
 70
     1
102
RTVSPost2010Prop32
280
     0
102
RTVSPost2010PropOp32
 70
     1
102
RTVSPost2010Prop33
280
     0
102
RTVSPost2010PropOp33
 70
     1
102
RTVSPost2010Prop34
280
     0
102
RTVSPost2010PropOp34
 70
     1
102
RTVSPost2010Prop35
280
     0
102
RTVSPost2010PropOp35
 70
     1
102
RTVSPost2010Prop36
280
     0
102
RTVSPost2010PropOp36
 70
     1
102
RTVSPost2010Prop37
 90
       50
102
RTVSPost2010PropOp37
 70
     1
102
RTVSPost2010Prop38
140
0.0
102
RTVSPost2010PropOp38
 70
     1
102
RTVSPost2010Prop39
140
1.0
102
RTVSPost2010PropOp39
 70
     1
102
RTVSPost2010Prop40
 90
        0
102
RTVSPost2010PropOp40
 70
     1
102
RTVSPost2010Prop41ColorIndex
 90
       18
102
RTVSPost2010Prop41ColorRGB
 90
        0
102
RTVSPost2010PropOp41
 70
     1
102
RTVSPost2010Prop42
 90
       50
102
RTVSPost2010PropOp42
 70
     1
102
RTVSPost2010Prop43
 90
        3
102
RTVSPost2010PropOp43
 70
     1
102
RTVSPost2010Prop44ColorIndex
 90
        5
102
RTVSPost2010Prop44ColorRGB
 90
      255
102
RTVSPost2010PropOp44
 70
     1
102
RTVSPost2010Prop45
280
     0
102
RTVSPost2010PropOp45
 70
     1
102
RTVSPost2010Prop46
 90
       50
102
RTVSPost2010PropOp46
 70
     1
102
RTVSPost2010Prop47
 90
       50
102
RTVSPost2010PropOp47
 70
     1
102
RTVSPost2010Prop48
 90
       50
102
RTVSPost2010PropOp48
 70
     1
102
RTVSPost2010Prop49
280
     0
102
RTVSPost2010PropOp49
 70
     1
102
RTVSPost2010Prop50
 90
       50
102
RTVSPost2010PropOp50
 70
     1
102
RTVSPost2010Prop51ColorIndex
 90
      256
102
RTVSPost2010Prop51ColorRGB
 90
-16777216
102
RTVSPost2010PropOp51
 70
     0
102
RTVSPost2010Prop52
140
1.0
102
RTVSPost2010PropOp52
 70
     0
102
RTVSPost2010Prop53
 90
        2
102
RTVSPost2010PropOp53
 70
     1
102
RTVSPost2010Prop54
  1
strokes_ogs.tif
102
RTVSPost2010PropOp54
 70
     1
102
RTVSPost2010Prop55
280
     0
102
RTVSPost2010PropOp55
 70
     1
102
RTVSPost2010Prop56
140
1.0
102
RTVSPost2010PropOp56
 70
     1
102
RTVSPost2010Prop57
140
1.0
102
RTVSPost2010PropOp57
 70
     1
102
RTVSPropertyOp0
 70
     1
102
RTVSPropertyOp1
 70
     1
102
RTVSPropertyOp2
 70
     1
102
RTVSPropertyOp3
 70
     1
102
RTVSPropertyOp4
 70
     1
102
RTVSPropertyOp5
 70
     1
102
RTVSPropertyOp6
 70
     1
102
RTVSPropertyOp7
 70
     1
102
RTVSPropertyOp8
 70
     1
102
RTVSPropertyOp9
 70
     1
102
RTVSPropertyOp10
 70
     1
102
RTVSPropertyOp11
 70
     1
102
RTVSPropertyOp12
 70
     1
102
RTVSPropertyOp13
 70
     1
102
RTVSPropertyOp14
 70
     1
102
RTVSPropertyOp15
 70
     1
102
RTVSPropertyOp16
 70
     1
102
RTVSPropertyOp17
 70
     1
102
RTVSPropertyOp18
 70
     1
102
RTVSPropertyOp19
 70
     1
102
RTVSPropertyOp20
 70
     1
102
RTVSPropertyOp21
 70
     1
102
RTVSPropertyOp22
 70
     1
102
RTVSPropertyOp23
 70
     1
102
RTVSPropertyOp24
 70
     1
102
RTVSPropertyOp25
 70
     1
102
RTVSPropertyOp26
 70
     1
102
RTVSPropertyOp27
 70
     1
102
RTVSPropertyOp28
 70
     1
102
RTVSPropertyOp29
 70
     1
102
RTVSPropertyOp30
 70
     1
102
RTVSPropertyOp31
 70
     1
102
RTVSPropertyOp32
 70
     1
102
RTVSPropertyOp33
 70
     1
102
RTVSPropertyOp34
 70
     1
102
RTVSPropertyOp35
 70
     1
102
RTVSPropertyOp36
 70
     1
102
RTVSPropertyOp37
 70
     1
102
RTVSPropertyOp38
 70
     1
102
RTVSPropertyOp39
 70
     1
102
RTVSPropertyOp40
 70
     1
102
RTVSPropertyOp41
 70
     1
102
RTVSPropertyOp42
 70
     1
102
RTVSPropertyOp43
 70
     1
102
RTVSPropertyOp44
 70
     1
102
RTVSPropertyOp45
 70
     1
102
RTVSPropertyOp46
 70
     1
102
RTVSPropertyOp47
 70
     1
102
RTVSPropertyOp48
 70
     1
102
RTVSPropertyOp49
 70
     1
102
RTVSPropertyOp50
 70
     1
102
RTVSPropertyOp51
 70
     0
102
RTVSPropertyOp52
 70
     0
102
RTVSPropertyOp53
 70
     1
102
RTVSPropertyOp54
 70
     1
102
RTVSPropertyOp55
 70
     1
102
RTVSPropertyOp56
 70
     1
102
RTVSPropertyOp57
 70
     1
102
RTVSPropertyOp58
 70
     1
102
RTVSPropertyOp59
 70
     1
102
RTVSPropertyOp60
 70
     1
102
RTVSPropertyOp61
 70
     1
102
RTVSPropertyOp62
 70
     1
  0
XRECORD
  5
19F07
102
{ACAD_REACTORS
330
19F06
102
}
330
19F06
100
AcDbXrecord
280
     1
102
RTVSPost2010Prop28
280
     0
102
RTVSPost2010PropOp28
 70
     1
102
RTVSPost2010Prop29
280
     1
102
RTVSPost2010PropOp29
 70
     1
102
RTVSPost2010Prop30
280
     1
102
RTVSPost2010PropOp30
 70
     1
102
RTVSPost2010Prop31
280
     0
102
RTVSPost2010PropOp31
 70
     1
102
RTVSPost2010Prop32
280
     0
102
RTVSPost2010PropOp32
 70
     1
102
RTVSPost2010Prop33
280
     0
102
RTVSPost2010PropOp33
 70
     1
102
RTVSPost2010Prop34
280
     0
102
RTVSPost2010PropOp34
 70
     1
102
RTVSPost2010Prop35
280
     0
102
RTVSPost2010PropOp35
 70
     1
102
RTVSPost2010Prop36
280
     0
102
RTVSPost2010PropOp36
 70
     1
102
RTVSPost2010Prop37
 90
       50
102
RTVSPost2010PropOp37
 70
     1
102
RTVSPost2010Prop38
140
0.0
102
RTVSPost2010PropOp38
 70
     1
102
RTVSPost2010Prop39
140
1.0
102
RTVSPost2010PropOp39
 70
     1
102
RTVSPost2010Prop40
 90
        0
102
RTVSPost2010PropOp40
 70
     1
102
RTVSPost2010Prop41ColorIndex
 90
       18
102
RTVSPost2010Prop41ColorRGB
 90
        0
102
RTVSPost2010PropOp41
 70
     1
102
RTVSPost2010Prop42
 90
       50
102
RTVSPost2010PropOp42
 70
     1
102
RTVSPost2010Prop43
 90
        3
102
RTVSPost2010PropOp43
 70
     1
102
RTVSPost2010Prop44ColorIndex
 90
        5
102
RTVSPost2010Prop44ColorRGB
 90
      255
102
RTVSPost2010PropOp44
 70
     1
102
RTVSPost2010Prop45
280
     0
102
RTVSPost2010PropOp45
 70
     1
102
RTVSPost2010Prop46
 90
       50
102
RTVSPost2010PropOp46
 70
     1
102
RTVSPost2010Prop47
 90
       50
102
RTVSPost2010PropOp47
 70
     1
102
RTVSPost2010Prop48
 90
       50
102
RTVSPost2010PropOp48
 70
     1
102
RTVSPost2010Prop49
280
     0
102
RTVSPost2010PropOp49
 70
     1
102
RTVSPost2010Prop50
 90
       50
102
RTVSPost2010PropOp50
 70
     1
102
RTVSPost2010Prop51ColorIndex
 90
      256
102
RTVSPost2010Prop51ColorRGB
 90
-16777216
102
RTVSPost2010PropOp51
 70
     0
102
RTVSPost2010Prop52
140
1.0
102
RTVSPost2010PropOp52
 70
     0
102
RTVSPost2010Prop53
 90
        2
102
RTVSPost2010PropOp53
 70
     1
102
RTVSPost2010Prop54
  1
strokes_ogs.tif
102
RTVSPost2010PropOp54
 70
     1
102
RTVSPost2010Prop55
280
     0
102
RTVSPost2010PropOp55
 70
     1
102
RTVSPost2010Prop56
140
1.0
102
RTVSPost2010PropOp56
 70
     1
102
RTVSPost2010Prop57
140
1.0
102
RTVSPost2010PropOp57
 70
     1
102
RTVSPropertyOp0
 70
     1
102
RTVSPropertyOp1
 70
     1
102
RTVSPropertyOp2
 70
     1
102
RTVSPropertyOp3
 70
     1
102
RTVSPropertyOp4
 70
     1
102
RTVSPropertyOp5
 70
     1
102
RTVSPropertyOp6
 70
     1
102
RTVSPropertyOp7
 70
     1
102
RTVSPropertyOp8
 70
     1
102
RTVSPropertyOp9
 70
     1
102
RTVSPropertyOp10
 70
     1
102
RTVSPropertyOp11
 70
     1
102
RTVSPropertyOp12
 70
     1
102
RTVSPropertyOp13
 70
     1
102
RTVSPropertyOp14
 70
     1
102
RTVSPropertyOp15
 70
     1
102
RTVSPropertyOp16
 70
     1
102
RTVSPropertyOp17
 70
     1
102
RTVSPropertyOp18
 70
     1
102
RTVSPropertyOp19
 70
     1
102
RTVSPropertyOp20
 70
     1
102
RTVSPropertyOp21
 70
     1
102
RTVSPropertyOp22
 70
     1
102
RTVSPropertyOp23
 70
     1
102
RTVSPropertyOp24
 70
     1
102
RTVSPropertyOp25
 70
     1
102
RTVSPropertyOp26
 70
     1
102
RTVSPropertyOp27
 70
     1
102
RTVSPropertyOp28
 70
     1
102
RTVSPropertyOp29
 70
     1
102
RTVSPropertyOp30
 70
     1
102
RTVSPropertyOp31
 70
     1
102
RTVSPropertyOp32
 70
     1
102
RTVSPropertyOp33
 70
     1
102
RTVSPropertyOp34
 70
     1
102
RTVSPropertyOp35
 70
     1
102
RTVSPropertyOp36
 70
     1
102
RTVSPropertyOp37
 70
     1
102
RTVSPropertyOp38
 70
     1
102
RTVSPropertyOp39
 70
     1
102
RTVSPropertyOp40
 70
     1
102
RTVSPropertyOp41
 70
     1
102
RTVSPropertyOp42
 70
     1
102
RTVSPropertyOp43
 70
     1
102
RTVSPropertyOp44
 70
     1
102
RTVSPropertyOp45
 70
     1
102
RTVSPropertyOp46
 70
     1
102
RTVSPropertyOp47
 70
     1
102
RTVSPropertyOp48
 70
     1
102
RTVSPropertyOp49
 70
     1
102
RTVSPropertyOp50
 70
     1
102
RTVSPropertyOp51
 70
     0
102
RTVSPropertyOp52
 70
     0
102
RTVSPropertyOp53
 70
     1
102
RTVSPropertyOp54
 70
     1
102
RTVSPropertyOp55
 70
     1
102
RTVSPropertyOp56
 70
     1
102
RTVSPropertyOp57
 70
     1
102
RTVSPropertyOp58
 70
     1
102
RTVSPropertyOp59
 70
     1
102
RTVSPropertyOp60
 70
     1
102
RTVSPropertyOp61
 70
     1
102
RTVSPropertyOp62
 70
     1
  0
XRECORD
  5
19F27
102
{ACAD_REACTORS
330
19F26
102
}
330
19F26
100
AcDbXrecord
280
     1
102
RTVSPost2010Prop28
280
     0
102
RTVSPost2010PropOp28
 70
     1
102
RTVSPost2010Prop29
280
     1
102
RTVSPost2010PropOp29
 70
     1
102
RTVSPost2010Prop30
280
     1
102
RTVSPost2010PropOp30
 70
     1
102
RTVSPost2010Prop31
280
     0
102
RTVSPost2010PropOp31
 70
     1
102
RTVSPost2010Prop32
280
     0
102
RTVSPost2010PropOp32
 70
     1
102
RTVSPost2010Prop33
280
     0
102
RTVSPost2010PropOp33
 70
     1
102
RTVSPost2010Prop34
280
     0
102
RTVSPost2010PropOp34
 70
     1
102
RTVSPost2010Prop35
280
     0
102
RTVSPost2010PropOp35
 70
     1
102
RTVSPost2010Prop36
280
     0
102
RTVSPost2010PropOp36
 70
     1
102
RTVSPost2010Prop37
 90
       50
102
RTVSPost2010PropOp37
 70
     1
102
RTVSPost2010Prop38
140
0.0
102
RTVSPost2010PropOp38
 70
     1
102
RTVSPost2010Prop39
140
1.0
102
RTVSPost2010PropOp39
 70
     1
102
RTVSPost2010Prop40
 90
        0
102
RTVSPost2010PropOp40
 70
     1
102
RTVSPost2010Prop41ColorIndex
 90
       18
102
RTVSPost2010Prop41ColorRGB
 90
        0
102
RTVSPost2010PropOp41
 70
     1
102
RTVSPost2010Prop42
 90
       50
102
RTVSPost2010PropOp42
 70
     1
102
RTVSPost2010Prop43
 90
        3
102
RTVSPost2010PropOp43
 70
     1
102
RTVSPost2010Prop44ColorIndex
 90
        5
102
RTVSPost2010Prop44ColorRGB
 90
      255
102
RTVSPost2010PropOp44
 70
     1
102
RTVSPost2010Prop45
280
     0
102
RTVSPost2010PropOp45
 70
     1
102
RTVSPost2010Prop46
 90
       50
102
RTVSPost2010PropOp46
 70
     1
102
RTVSPost2010Prop47
 90
       50
102
RTVSPost2010PropOp47
 70
     1
102
RTVSPost2010Prop48
 90
       50
102
RTVSPost2010PropOp48
 70
     1
102
RTVSPost2010Prop49
280
     0
102
RTVSPost2010PropOp49
 70
     1
102
RTVSPost2010Prop50
 90
       50
102
RTVSPost2010PropOp50
 70
     1
102
RTVSPost2010Prop51ColorIndex
 90
      256
102
RTVSPost2010Prop51ColorRGB
 90
-16777216
102
RTVSPost2010PropOp51
 70
     0
102
RTVSPost2010Prop52
140
1.0
102
RTVSPost2010PropOp52
 70
     0
102
RTVSPost2010Prop53
 90
        2
102
RTVSPost2010PropOp53
 70
     1
102
RTVSPost2010Prop54
  1
strokes_ogs.tif
102
RTVSPost2010PropOp54
 70
     1
102
RTVSPost2010Prop55
280
     0
102
RTVSPost2010PropOp55
 70
     1
102
RTVSPost2010Prop56
140
1.0
102
RTVSPost2010PropOp56
 70
     1
102
RTVSPost2010Prop57
140
1.0
102
RTVSPost2010PropOp57
 70
     1
102
RTVSPropertyOp0
 70
     1
102
RTVSPropertyOp1
 70
     1
102
RTVSPropertyOp2
 70
     1
102
RTVSPropertyOp3
 70
     1
102
RTVSPropertyOp4
 70
     1
102
RTVSPropertyOp5
 70
     1
102
RTVSPropertyOp6
 70
     1
102
RTVSPropertyOp7
 70
     1
102
RTVSPropertyOp8
 70
     1
102
RTVSPropertyOp9
 70
     1
102
RTVSPropertyOp10
 70
     1
102
RTVSPropertyOp11
 70
     1
102
RTVSPropertyOp12
 70
     1
102
RTVSPropertyOp13
 70
     1
102
RTVSPropertyOp14
 70
     1
102
RTVSPropertyOp15
 70
     1
102
RTVSPropertyOp16
 70
     1
102
RTVSPropertyOp17
 70
     1
102
RTVSPropertyOp18
 70
     1
102
RTVSPropertyOp19
 70
     1
102
RTVSPropertyOp20
 70
     1
102
RTVSPropertyOp21
 70
     1
102
RTVSPropertyOp22
 70
     1
102
RTVSPropertyOp23
 70
     1
102
RTVSPropertyOp24
 70
     1
102
RTVSPropertyOp25
 70
     1
102
RTVSPropertyOp26
 70
     1
102
RTVSPropertyOp27
 70
     1
102
RTVSPropertyOp28
 70
     1
102
RTVSPropertyOp29
 70
     1
102
RTVSPropertyOp30
 70
     1
102
RTVSPropertyOp31
 70
     1
102
RTVSPropertyOp32
 70
     1
102
RTVSPropertyOp33
 70
     1
102
RTVSPropertyOp34
 70
     1
102
RTVSPropertyOp35
 70
     1
102
RTVSPropertyOp36
 70
     1
102
RTVSPropertyOp37
 70
     1
102
RTVSPropertyOp38
 70
     1
102
RTVSPropertyOp39
 70
     1
102
RTVSPropertyOp40
 70
     1
102
RTVSPropertyOp41
 70
     1
102
RTVSPropertyOp42
 70
     1
102
RTVSPropertyOp43
 70
     1
102
RTVSPropertyOp44
 70
     1
102
RTVSPropertyOp45
 70
     1
102
RTVSPropertyOp46
 70
     1
102
RTVSPropertyOp47
 70
     1
102
RTVSPropertyOp48
 70
     1
102
RTVSPropertyOp49
 70
     1
102
RTVSPropertyOp50
 70
     1
102
RTVSPropertyOp51
 70
     0
102
RTVSPropertyOp52
 70
     0
102
RTVSPropertyOp53
 70
     1
102
RTVSPropertyOp54
 70
     1
102
RTVSPropertyOp55
 70
     1
102
RTVSPropertyOp56
 70
     1
102
RTVSPropertyOp57
 70
     1
102
RTVSPropertyOp58
 70
     1
102
RTVSPropertyOp59
 70
     1
102
RTVSPropertyOp60
 70
     1
102
RTVSPropertyOp61
 70
     1
102
RTVSPropertyOp62
 70
     1
  0
ENDSEC
  0
EOF
