  0
SECTION
  2
HEADER
  9
$ACADVER
  1
AC1015
  9
$ACADMAINTVER
 70
    18
  9
$DWGCODEPAGE
  3
ANSI_1252
  9
$INSBASE
 10
0.0
 20
0.0
 30
0.0
  9
$EXTMIN
 10
-209.5129387191414
 20
-510.1605833984918
 30
-0.0015258207003583
  9
$EXTMAX
 10
209.5193488773882
 20
179.5205846611883
 30
0.0000000349246037
  9
$LIMMIN
 10
0.0
 20
0.0
  9
$LIMMAX
 10
420.0
 20
297.0
  9
$ORTHOMODE
 70
     0
  9
$REGENMODE
 70
     1
  9
$FILLMODE
 70
     1
  9
$QTEXTMODE
 70
     0
  9
$MIRRTEXT
 70
     0
  9
$LTSCALE
 40
1.0
  9
$ATTMODE
 70
     1
  9
$TEXTSIZE
 40
2.5
  9
$TRACEWID
 40
1.0
  9
$TEXTSTYLE
  7
Standard
  9
$CLAYER
  8
0
  9
$CELTYPE
  6
ByLayer
  9
$CECOLOR
 62
   256
  9
$CELTSCALE
 40
1.0
  9
$DISPSILH
 70
     0
  9
$DIMSCALE
 40
1.0
  9
$DIMASZ
 40
2.5
  9
$DIMEXO
 40
0.625
  9
$DIMDLI
 40
3.75
  9
$DIMRND
 40
0.0
  9
$DIMDLE
 40
0.0
  9
$DIMEXE
 40
1.25
  9
$DIMTP
 40
0.0
  9
$DIMTM
 40
0.0
  9
$DIMTXT
 40
2.5
  9
$DIMCEN
 40
2.5
  9
$DIMTSZ
 40
0.0
  9
$DIMTOL
 70
     0
  9
$DIMLIM
 70
     0
  9
$DIMTIH
 70
     0
  9
$DIMTOH
 70
     0
  9
$DIMSE1
 70
     0
  9
$DIMSE2
 70
     0
  9
$DIMTAD
 70
     1
  9
$DIMZIN
 70
     8
  9
$DIMBLK
  1

  9
$DIMASO
 70
     1
  9
$DIMSHO
 70
     1
  9
$DIMPOST
  1

  9
$DIMAPOST
  1

  9
$DIMALT
 70
     0
  9
$DIMALTD
 70
     3
  9
$DIMALTF
 40
0.03937007874016
  9
$DIMLFAC
 40
1.0
  9
$DIMTOFL
 70
     1
  9
$DIMTVP
 40
0.0
  9
$DIMTIX
 70
     0
  9
$DIMSOXD
 70
     0
  9
$DIMSAH
 70
     0
  9
$DIMBLK1
  1

  9
$DIMBLK2
  1

  9
$DIMSTYLE
  2
ISO-25
  9
$DIMCLRD
 70
     0
  9
$DIMCLRE
 70
     0
  9
$DIMCLRT
 70
     0
  9
$DIMTFAC
 40
1.0
  9
$DIMGAP
 40
0.625
  9
$DIMJUST
 70
     0
  9
$DIMSD1
 70
     0
  9
$DIMSD2
 70
     0
  9
$DIMTOLJ
 70
     0
  9
$DIMTZIN
 70
     8
  9
$DIMALTZ
 70
     0
  9
$DIMALTTZ
 70
     0
  9
$DIMUPT
 70
     0
  9
$DIMDEC
 70
     2
  9
$DIMTDEC
 70
     2
  9
$DIMALTU
 70
     2
  9
$DIMALTTD
 70
     3
  9
$DIMTXSTY
  7
Standard
  9
$DIMAUNIT
 70
     0
  9
$DIMADEC
 70
     0
  9
$DIMALTRND
 40
0.0
  9
$DIMAZIN
 70
     0
  9
$DIMDSEP
 70
    44
  9
$DIMATFIT
 70
     3
  9
$DIMFRAC
 70
     0
  9
$DIMLDRBLK
  1

  9
$DIMLUNIT
 70
     2
  9
$DIMLWD
 70
    -2
  9
$DIMLWE
 70
    -2
  9
$DIMTMOVE
 70
     0
  9
$LUNITS
 70
     2
  9
$LUPREC
 70
     4
  9
$SKETCHINC
 40
1.0
  9
$FILLETRAD
 40
0.0
  9
$AUNITS
 70
     0
  9
$AUPREC
 70
     0
  9
$MENU
  1
.
  9
$ELEVATION
 40
0.0
  9
$PELEVATION
 40
0.0
  9
$THICKNESS
 40
0.0
  9
$LIMCHECK
 70
     0
  9
$CHAMFERA
 40
0.0
  9
$CHAMFERB
 40
0.0
  9
$CHAMFERC
 40
0.0
  9
$CHAMFERD
 40
0.0
  9
$SKPOLY
 70
     0
  9
$TDCREATE
 40
2460286.622500000
  9
$TDUCREATE
 40
2460286.330833334
  9
$TDUPDATE
 40
2460286.631875000
  9
$TDUUPDATE
 40
2460286.340208333
  9
$TDINDWG
 40
0.0033796296
  9
$TDUSRTIMER
 40
0.0033796296
  9
$USRTIMER
 70
     1
  9
$ANGBASE
 50
0.0
  9
$ANGDIR
 70
     0
  9
$PDMODE
 70
     0
  9
$PDSIZE
 40
0.0
  9
$PLINEWID
 40
0.0
  9
$SPLFRAME
 70
     0
  9
$SPLINETYPE
 70
     6
  9
$SPLINESEGS
 70
     8
  9
$HANDSEED
  5
16CE
  9
$SURFTAB1
 70
     6
  9
$SURFTAB2
 70
     6
  9
$SURFTYPE
 70
     6
  9
$SURFU
 70
     6
  9
$SURFV
 70
     6
  9
$UCSBASE
  2

  9
$UCSNAME
  2

  9
$UCSORG
 10
0.0
 20
0.0
 30
0.0
  9
$UCSXDIR
 10
1.0
 20
0.0
 30
0.0
  9
$UCSYDIR
 10
0.0
 20
1.0
 30
0.0
  9
$UCSORTHOREF
  2

  9
$UCSORTHOVIEW
 70
     0
  9
$UCSORGTOP
 10
0.0
 20
0.0
 30
0.0
  9
$UCSORGBOTTOM
 10
0.0
 20
0.0
 30
0.0
  9
$UCSORGLEFT
 10
0.0
 20
0.0
 30
0.0
  9
$UCSORGRIGHT
 10
0.0
 20
0.0
 30
0.0
  9
$UCSORGFRONT
 10
0.0
 20
0.0
 30
0.0
  9
$UCSORGBACK
 10
0.0
 20
0.0
 30
0.0
  9
$PUCSBASE
  2

  9
$PUCSNAME
  2

  9
$PUCSORG
 10
0.0
 20
0.0
 30
0.0
  9
$PUCSXDIR
 10
1.0
 20
0.0
 30
0.0
  9
$PUCSYDIR
 10
0.0
 20
1.0
 30
0.0
  9
$PUCSORTHOREF
  2

  9
$PUCSORTHOVIEW
 70
     0
  9
$PUCSORGTOP
 10
0.0
 20
0.0
 30
0.0
  9
$PUCSORGBOTTOM
 10
0.0
 20
0.0
 30
0.0
  9
$PUCSORGLEFT
 10
0.0
 20
0.0
 30
0.0
  9
$PUCSORGRIGHT
 10
0.0
 20
0.0
 30
0.0
  9
$PUCSORGFRONT
 10
0.0
 20
0.0
 30
0.0
  9
$PUCSORGBACK
 10
0.0
 20
0.0
 30
0.0
  9
$USERI1
 70
     0
  9
$USERI2
 70
     0
  9
$USERI3
 70
     0
  9
$USERI4
 70
     0
  9
$USERI5
 70
     0
  9
$USERR1
 40
0.0
  9
$USERR2
 40
0.0
  9
$USERR3
 40
0.0
  9
$USERR4
 40
0.0
  9
$USERR5
 40
0.0
  9
$WORLDVIEW
 70
     1
  9
$SHADEDGE
 70
     3
  9
$SHADEDIF
 70
    70
  9
$TILEMODE
 70
     1
  9
$MAXACTVP
 70
    48
  9
$PINSBASE
 10
0.0
 20
0.0
 30
0.0
  9
$PLIMCHECK
 70
     0
  9
$PEXTMIN
 10
0.0
 20
0.0
 30
0.0
  9
$PEXTMAX
 10
0.0
 20
0.0
 30
0.0
  9
$PLIMMIN
 10
0.0
 20
0.0
  9
$PLIMMAX
 10
12.0
 20
9.0
  9
$UNITMODE
 70
     0
  9
$VISRETAIN
 70
     1
  9
$PLINEGEN
 70
     0
  9
$PSLTSCALE
 70
     1
  9
$TREEDEPTH
 70
  3020
  9
$CMLSTYLE
  2
Standard
  9
$CMLJUST
 70
     0
  9
$CMLSCALE
 40
20.0
  9
$PROXYGRAPHICS
 70
     1
  9
$MEASUREMENT
 70
     1
  9
$CELWEIGHT
370
    -1
  9
$ENDCAPS
280
     0
  9
$JOINSTYLE
280
     0
  9
$LWDISPLAY
290
     0
  9
$INSUNITS
 70
     4
  9
$HYPERLINKBASE
  1

  9
$STYLESHEET
  1

  9
$XEDIT
290
     1
  9
$CEPSNTYPE
380
     0
  9
$PSTYLEMODE
290
     1
  9
$FINGERPRINTGUID
  2
{F076C30E-3F10-754B-AD36-B589FE558AAC}
  9
$VERSIONGUID
  2
{DE4E59FF-B919-3F42-B495-DB9196DE06F0}
  9
$EXTNAMES
290
     1
  9
$PSVPSCALE
 40
0.0
  9
$OLESTARTUP
290
     0
  0
ENDSEC
  0
SECTION
  2
CLASSES
  0
CLASS
  1
ACDBDICTIONARYWDFLT
  2
AcDbDictionaryWithDefault
  3
ObjectDBX Classes
 90
        0
280
     0
281
     0
  0
CLASS
  1
ACDBPLACEHOLDER
  2
AcDbPlaceHolder
  3
ObjectDBX Classes
 90
        0
280
     0
281
     0
  0
CLASS
  1
LAYOUT
  2
AcDbLayout
  3
ObjectDBX Classes
 90
        0
280
     0
281
     0
  0
CLASS
  1
DICTIONARYVAR
  2
AcDbDictionaryVar
  3
ObjectDBX Classes
 90
        0
280
     0
281
     0
  0
CLASS
  1
TABLESTYLE
  2
AcDbTableStyle
  3
ObjectDBX Classes
 90
     4095
280
     0
281
     0
  0
CLASS
  1
MATERIAL
  2
AcDbMaterial
  3
ObjectDBX Classes
 90
     1153
280
     0
281
     0
  0
CLASS
  1
VISUALSTYLE
  2
AcDbVisualStyle
  3
ObjectDBX Classes
 90
     4095
280
     0
281
     0
  0
CLASS
  1
SCALE
  2
AcDbScale
  3
ObjectDBX Classes
 90
     1153
280
     0
281
     0
  0
CLASS
  1
MLEADERSTYLE
  2
AcDbMLeaderStyle
  3
ACDB_MLEADERSTYLE_CLASS
 90
     4095
280
     0
281
     0
  0
CLASS
  1
CELLSTYLEMAP
  2
AcDbCellStyleMap
  3
ObjectDBX Classes
 90
     1152
280
     0
281
     0
  0
CLASS
  1
EXACXREFPANELOBJECT
  2
ExAcXREFPanelObject
  3
EXAC_ESW
 90
    33793
280
     0
281
     0
  0
CLASS
  1
NPOCOLLECTION
  2
AcDbImpNonPersistentObjectsCollection
  3
ObjectDBX Classes
 90
    33921
280
     0
281
     0
  0
CLASS
  1
LAYER_INDEX
  2
AcDbLayerIndex
  3
ObjectDBX Classes
 90
    32768
280
     0
281
     0
  0
CLASS
  1
SPATIAL_INDEX
  2
AcDbSpatialIndex
  3
ObjectDBX Classes
 90
    32768
280
     0
281
     0
  0
CLASS
  1
IDBUFFER
  2
AcDbIdBuffer
  3
ObjectDBX Classes
 90
    32768
280
     0
281
     0
  0
CLASS
  1
ACDBSECTIONVIEWSTYLE
  2
AcDbSectionViewStyle
  3
ObjectDBX Classes
 90
     1025
280
     0
281
     0
  0
CLASS
  1
ACDBDETAILVIEWSTYLE
  2
AcDbDetailViewStyle
  3
ObjectDBX Classes
 90
     1025
280
     0
281
     0
  0
CLASS
  1
XRECORD
  2
AcDbXrecord
  3
ObjectDBX Classes
 90
        0
280
     0
281
     0
  0
ENDSEC
  0
SECTION
  2
TABLES
  0
TABLE
  2
VPORT
  5
8
102
{ACAD_XDICTIONARY
360
15DC
102
}
330
0
100
AcDbSymbolTable
 70
     1
  0
VPORT
  5
EA
330
8
100
AcDbSymbolTableRecord
100
AcDbViewportTableRecord
  2
*Active
 70
     0
 10
0.0
 20
0.0
 11
1.0
 21
1.0
 12
0.0032050791234326
 22
-165.3199993686518
 13
0.0
 23
0.0
 14
10.0
 24
10.0
 15
10.0
 25
10.0
 16
0.0
 26
0.0
 36
1.0
 17
0.0
 27
0.0
 37
0.0
 40
733.4134210370588
 41
0.9846153846153846
 42
50.0
 43
0.0
 44
0.0
 50
0.0
 51
0.0
 71
     0
 72
  1000
 73
     1
 74
     3
 75
     0
 76
     1
 77
     0
 78
     0
281
     0
 65
     1
110
0.0
120
0.0
130
0.0
111
1.0
121
0.0
131
0.0
112
0.0
122
1.0
132
0.0
 79
     0
146
0.0
1001
ACAD_NAV_VCDISPLAY
1070
     3
  0
ENDTAB
  0
TABLE
  2
LTYPE
  5
5
330
0
100
AcDbSymbolTable
 70
     1
  0
LTYPE
  5
14
330
5
100
AcDbSymbolTableRecord
100
AcDbLinetypeTableRecord
  2
ByBlock
 70
     0
  3

 72
    65
 73
     0
 40
0.0
  0
LTYPE
  5
15
330
5
100
AcDbSymbolTableRecord
100
AcDbLinetypeTableRecord
  2
ByLayer
 70
     0
  3

 72
    65
 73
     0
 40
0.0
  0
LTYPE
  5
16
330
5
100
AcDbSymbolTableRecord
100
AcDbLinetypeTableRecord
  2
Continuous
 70
     0
  3
Solid line
 72
    65
 73
     0
 40
0.0
  0
ENDTAB
  0
TABLE
  2
LAYER
  5
2
102
{ACAD_XDICTIONARY
360
1FF
102
}
330
0
100
AcDbSymbolTable
 70
     1
  0
LAYER
  5
10
102
{ACAD_XDICTIONARY
360
13C
102
}
330
2
100
AcDbSymbolTableRecord
100
AcDbLayerTableRecord
  2
0
 70
     0
 62
     7
  6
Continuous
370
    -3
390
F
  0
ENDTAB
  0
TABLE
  2
STYLE
  5
3
330
0
100
AcDbSymbolTable
 70
     1
  0
STYLE
  5
11
330
3
100
AcDbSymbolTableRecord
100
AcDbTextStyleTableRecord
  2
Standard
 70
     0
 40
0.0
 41
1.0
 50
0.0
 71
     0
 42
2.5
  3
arial.ttf
  4

1001
ACAD
1000
Arial
1071
       34
  0
ENDTAB
  0
TABLE
  2
VIEW
  5
6
330
0
100
AcDbSymbolTable
 70
     0
  0
ENDTAB
  0
TABLE
  2
UCS
  5
7
330
0
100
AcDbSymbolTable
 70
     0
  0
ENDTAB
  0
TABLE
  2
APPID
  5
9
330
0
100
AcDbSymbolTable
 70
     8
  0
APPID
  5
12
330
9
100
AcDbSymbolTableRecord
100
AcDbRegAppTableRecord
  2
ACAD
 70
     0
  0
APPID
  5
9E
330
9
100
AcDbSymbolTableRecord
100
AcDbRegAppTableRecord
  2
ACAD_PSEXT
 70
     0
  0
APPID
  5
133
330
9
100
AcDbSymbolTableRecord
100
AcDbRegAppTableRecord
  2
AcadAnnoPO
 70
     0
  0
APPID
  5
134
330
9
100
AcDbSymbolTableRecord
100
AcDbRegAppTableRecord
  2
AcadAnnotative
 70
     0
  0
APPID
  5
135
330
9
100
AcDbSymbolTableRecord
100
AcDbRegAppTableRecord
  2
ACAD_DSTYLE_DIMJAG
 70
     0
  0
APPID
  5
136
330
9
100
AcDbSymbolTableRecord
100
AcDbRegAppTableRecord
  2
ACAD_DSTYLE_DIMTALN
 70
     0
  0
APPID
  5
165
330
9
100
AcDbSymbolTableRecord
100
AcDbRegAppTableRecord
  2
ACAD_MLEADERVER
 70
     0
  0
APPID
  5
217
330
9
100
AcDbSymbolTableRecord
100
AcDbRegAppTableRecord
  2
ACAD_NAV_VCDISPLAY
 70
     0
  0
ENDTAB
  0
TABLE
  2
DIMSTYLE
  5
A
330
0
100
AcDbSymbolTable
 70
     1
100
AcDbDimStyleTable
 71
     0
  0
DIMSTYLE
105
27
330
A
100
AcDbSymbolTableRecord
100
AcDbDimStyleTableRecord
  2
ISO-25
 70
     0
 41
2.5
 42
0.625
 43
3.75
 44
1.25
 73
     0
 74
     0
 77
     1
 78
     8
140
2.5
141
2.5
143
0.03937007874016
147
0.625
171
     3
172
     1
271
     2
272
     2
274
     3
278
    44
283
     0
284
     8
340
11
  0
ENDTAB
  0
TABLE
  2
BLOCK_RECORD
  5
1
330
0
100
AcDbSymbolTable
 70
     7
  0
BLOCK_RECORD
  5
1F
102
{ACAD_XDICTIONARY
360
1CE
102
}
330
1
100
AcDbSymbolTableRecord
100
AcDbBlockTableRecord
  2
*Model_Space
340
22
  0
BLOCK_RECORD
  5
D2
102
{ACAD_XDICTIONARY
360
158F
102
}
330
1
100
AcDbSymbolTableRecord
100
AcDbBlockTableRecord
  2
*Paper_Space
340
D3
  0
BLOCK_RECORD
  5
D6
102
{ACAD_XDICTIONARY
360
1591
102
}
330
1
100
AcDbSymbolTableRecord
100
AcDbBlockTableRecord
  2
*Paper_Space0
340
D7
  0
BLOCK_RECORD
  5
1311
330
1
100
AcDbSymbolTableRecord
100
AcDbBlockTableRecord
  2
CBH220S-Front
340
0
102
{BLKREFS
331
1585
102
}
  0
BLOCK_RECORD
  5
138B
330
1
100
AcDbSymbolTableRecord
100
AcDbBlockTableRecord
  2
CBH220S-Left
340
0
102
{BLKREFS
331
1586
102
}
  0
BLOCK_RECORD
  5
13E3
330
1
100
AcDbSymbolTableRecord
100
AcDbBlockTableRecord
  2
CBH220S-Right
340
0
102
{BLKREFS
331
1587
102
}
  0
BLOCK_RECORD
  5
1433
330
1
100
AcDbSymbolTableRecord
100
AcDbBlockTableRecord
  2
CBH220S-Top
340
0
102
{BLKREFS
331
1588
102
}
  0
BLOCK_RECORD
  5
1466
330
1
100
AcDbSymbolTableRecord
100
AcDbBlockTableRecord
  2
CBH220S-Bottom
340
0
102
{BLKREFS
331
1589
102
}
  0
BLOCK_RECORD
  5
148C
330
1
100
AcDbSymbolTableRecord
100
AcDbBlockTableRecord
  2
CBH220S-ISO
340
0
102
{BLKREFS
331
158A
102
}
  0
ENDTAB
  0
ENDSEC
  0
SECTION
  2
BLOCKS
  0
BLOCK
  5
20
330
1F
100
AcDbEntity
  8
0
100
AcDbBlockBegin
  2
*Model_Space
 70
     0
 10
0.0
 20
0.0
 30
0.0
  3
*Model_Space
  1

  0
ENDBLK
  5
21
330
1F
100
AcDbEntity
  8
0
100
AcDbBlockEnd
  0
BLOCK
  5
D4
330
D2
100
AcDbEntity
 67
     1
  8
0
100
AcDbBlockBegin
  2
*Paper_Space
 70
     0
 10
0.0
 20
0.0
 30
0.0
  3
*Paper_Space
  1

  0
ENDBLK
  5
D5
330
D2
100
AcDbEntity
 67
     1
  8
0
100
AcDbBlockEnd
  0
BLOCK
  5
D8
330
D6
100
AcDbEntity
 67
     1
  8
0
100
AcDbBlockBegin
  2
*Paper_Space0
 70
     0
 10
0.0
 20
0.0
 30
0.0
  3
*Paper_Space0
  1

  0
ENDBLK
  5
D9
330
D6
100
AcDbEntity
 67
     1
  8
0
100
AcDbBlockEnd
  0
BLOCK
  5
1312
330
1311
100
AcDbEntity
  8
0
100
AcDbBlockBegin
  2
CBH220S-Front
 70
     0
 10
0.0
 20
0.0
 30
0.0
  3
CBH220S-Front
  1

  0
LINE
  5
1314
330
1311
100
AcDbEntity
  8
0
100
AcDbLine
 10
3.749999999999979
 20
-16.00000000000001
 30
0.0
 11
1.249999999999987
 21
-16.00000000000001
 31
0.0
  0
LINE
  5
1315
330
1311
100
AcDbEntity
  8
0
100
AcDbLine
 10
1.249999999999987
 20
-8.000000000000007
 30
0.0
 11
3.749999999999978
 21
-8.000000000000007
 31
0.0
  0
LINE
  5
1316
330
1311
100
AcDbEntity
  8
0
100
AcDbLine
 10
3.749999999999989
 20
0.0
 30
0.0
 11
1.249999999999987
 21
0.0
 31
0.0
  0
LINE
  5
1317
330
1311
100
AcDbEntity
  8
0
100
AcDbLine
 10
3.749999999999979
 20
-8.000000000000007
 30
0.0
 11
8.000000000000003
 21
-8.000000000000007
 31
0.0
  0
ARC
  5
1318
330
1311
100
AcDbEntity
  8
0
100
AcDbCircle
 10
1.249999999999987
 20
-13.50000000000001
 30
0.0
 40
2.499999999999982
100
AcDbArc
 50
270.0
 51
0.0
  0
ARC
  5
1319
330
1311
100
AcDbEntity
  8
0
100
AcDbCircle
 10
1.249999999999987
 20
-10.5
 30
0.0
 40
2.5
100
AcDbArc
 50
0.0
 51
90.0
  0
LINE
  5
131A
330
1311
100
AcDbEntity
  8
0
100
AcDbLine
 10
8.000000000000005
 20
-16.00000000000001
 30
0.0
 11
3.749999999999979
 21
-16.00000000000001
 31
0.0
  0
ARC
  5
131B
330
1311
100
AcDbEntity
  8
0
100
AcDbCircle
 10
8.000000000000003
 20
-12.00000000000001
 30
0.0
 40
4.0
100
AcDbArc
 50
270.0
 51
90.0
  0
LINE
  5
131C
330
1311
100
AcDbEntity
  8
0
100
AcDbLine
 10
3.749999999999987
 20
-195.5
 30
0.0
 11
3.749999999999987
 21
-24.49999999999999
 31
0.0
  0
LINE
  5
131D
330
1311
100
AcDbEntity
  8
0
100
AcDbLine
 10
3.749999999999987
 20
-195.5
 30
0.0
 11
3.749999999999987
 21
-197.0
 31
0.0
  0
LINE
  5
131E
330
1311
100
AcDbEntity
  8
0
100
AcDbLine
 10
3.749999999999987
 20
-22.99999999999999
 30
0.0
 11
3.749999999999987
 21
-24.49999999999999
 31
0.0
  0
ARC
  5
131F
330
1311
100
AcDbEntity
  8
0
100
AcDbCircle
 10
1.249999999999987
 20
-197.0
 30
0.0
 40
2.5
100
AcDbArc
 50
270.0
 51
0.0
  0
ARC
  5
1320
330
1311
100
AcDbEntity
  8
0
100
AcDbCircle
 10
1.249999999999987
 20
-22.99999999999999
 30
0.0
 40
2.5
100
AcDbArc
 50
0.0
 51
90.00000000000003
  0
LINE
  5
1321
330
1311
100
AcDbEntity
  8
0
100
AcDbLine
 10
-26.00000000000148
 20
-220.0
 30
0.0
 11
-30.00000000000146
 21
-216.0
 31
0.0
  0
LINE
  5
1322
330
1311
100
AcDbEntity
  8
0
100
AcDbLine
 10
-30.00000000000145
 20
-116.5
 30
0.0
 11
-26.00000000000146
 21
-112.5
 31
0.0
  0
LINE
  5
1323
330
1311
100
AcDbEntity
  8
0
100
AcDbLine
 10
30.00000000000144
 20
-103.5
 30
0.0
 11
26.00000000000144
 21
-107.5
 31
0.0
  0
LINE
  5
1324
330
1311
100
AcDbEntity
  8
0
100
AcDbLine
 10
1.249999999999987
 20
-220.0
 30
0.0
 11
1.249999999999987
 21
-216.0
 31
0.0
  0
LINE
  5
1325
330
1311
100
AcDbEntity
  8
0
100
AcDbLine
 10
1.249999999999987
 20
-216.0
 30
0.0
 11
-1.250000000000012
 21
-216.0
 31
0.0
  0
LINE
  5
1326
330
1311
100
AcDbEntity
  8
0
100
AcDbLine
 10
-1.250000000000012
 20
-216.0
 30
0.0
 11
-1.250000000000012
 21
-220.0
 31
0.0
  0
LINE
  5
1327
330
1311
100
AcDbEntity
  8
0
100
AcDbLine
 10
-1.250000000000012
 20
-220.0
 30
0.0
 11
1.249999999999987
 21
-220.0
 31
0.0
  0
LINE
  5
1328
330
1311
100
AcDbEntity
  8
0
100
AcDbLine
 10
-1.250000000000012
 20
0.0
 30
0.0
 11
-1.250000000000012
 21
-4.000000000000003
 31
0.0
  0
LINE
  5
1329
330
1311
100
AcDbEntity
  8
0
100
AcDbLine
 10
-1.250000000000012
 20
-4.000000000000003
 30
0.0
 11
1.249999999999987
 21
-4.000000000000003
 31
0.0
  0
LINE
  5
132A
330
1311
100
AcDbEntity
  8
0
100
AcDbLine
 10
1.249999999999987
 20
-4.000000000000003
 30
0.0
 11
1.249999999999987
 21
0.0
 31
0.0
  0
LINE
  5
132B
330
1311
100
AcDbEntity
  8
0
100
AcDbLine
 10
1.249999999999987
 20
0.0
 30
0.0
 11
-1.250000000000012
 21
0.0
 31
0.0
  0
LINE
  5
132C
330
1311
100
AcDbEntity
  8
0
100
AcDbLine
 10
26.00000000000143
 20
0.0
 30
0.0
 11
30.00000000000144
 21
-4.000000000000021
 31
0.0
  0
LINE
  5
132D
330
1311
100
AcDbEntity
  8
0
100
AcDbLine
 10
-30.00000000000146
 20
-216.0
 30
0.0
 11
-30.00000000000145
 21
-116.5
 31
0.0
  0
LINE
  5
132E
330
1311
100
AcDbEntity
  8
0
100
AcDbLine
 10
-3.750000000000027
 20
-220.0
 30
0.0
 11
-26.00000000000148
 21
-220.0
 31
0.0
  0
ARC
  5
132F
330
1311
100
AcDbEntity
  8
0
100
AcDbCircle
 10
-2.000000000001454
 20
-202.5
 30
0.0
 40
2.499999999999995
100
AcDbArc
 50
134.4270040007601
 51
225.5729959992408
  0
LINE
  5
1330
330
1311
100
AcDbEntity
  8
0
100
AcDbLine
 10
9.999999999998541
 20
-200.0
 30
0.0
 11
1.249999999999962
 21
-200.0
 31
0.0
  0
ARC
  5
1331
330
1311
100
AcDbEntity
  8
0
100
AcDbCircle
 10
9.999999999998545
 20
-180.0
 30
0.0
 40
20.0
100
AcDbArc
 50
270.0
 51
90.0
  0
LINE
  5
1332
330
1311
100
AcDbEntity
  8
0
100
AcDbLine
 10
3.749999999999971
 20
-160.0
 30
0.0
 11
9.999999999998532
 21
-159.9999999999999
 31
0.0
  0
ARC
  5
1333
330
1311
100
AcDbEntity
  8
0
100
AcDbCircle
 10
-2.000000000001461
 20
-157.5
 30
0.0
 40
2.5
100
AcDbArc
 50
134.4270040007585
 51
225.5729959992408
  0
LINE
  5
1334
330
1311
100
AcDbEntity
  8
0
100
AcDbLine
 10
-26.00000000000146
 20
-112.5
 30
0.0
 11
-3.750000000000004
 21
-112.5
 31
0.0
  0
CIRCLE
  5
1335
330
1311
100
AcDbEntity
  8
0
100
AcDbCircle
 10
-22.50000000000006
 20
-119.9999999999999
 30
0.0
 40
2.5
  0
CIRCLE
  5
1336
330
1311
100
AcDbEntity
  8
0
100
AcDbCircle
 10
-12.50000000000008
 20
-130.0
 30
0.0
 40
2.5
  0
CIRCLE
  5
1337
330
1311
100
AcDbEntity
  8
0
100
AcDbCircle
 10
-22.50000000000007
 20
-139.9999999999999
 30
0.0
 40
2.5
  0
CIRCLE
  5
1338
330
1311
100
AcDbEntity
  8
0
100
AcDbCircle
 10
-12.50000000000008
 20
-150.0
 30
0.0
 40
2.5
  0
CIRCLE
  5
1339
330
1311
100
AcDbEntity
  8
0
100
AcDbCircle
 10
-22.50000000000008
 20
-159.9999999999999
 30
0.0
 40
2.5
  0
CIRCLE
  5
133A
330
1311
100
AcDbEntity
  8
0
100
AcDbCircle
 10
-12.5000000000001
 20
-169.0
 30
0.0
 40
2.5
  0
CIRCLE
  5
133B
330
1311
100
AcDbEntity
  8
0
100
AcDbCircle
 10
12.49999999999989
 20
-167.75
 30
0.0
 40
2.5
  0
CIRCLE
  5
133C
330
1311
100
AcDbEntity
  8
0
100
AcDbCircle
 10
22.4999999999999
 20
-180.0
 30
0.0
 40
2.5
  0
CIRCLE
  5
133D
330
1311
100
AcDbEntity
  8
0
100
AcDbCircle
 10
12.49999999999989
 20
-192.2499999999999
 30
0.0
 40
2.5
  0
CIRCLE
  5
133E
330
1311
100
AcDbEntity
  8
0
100
AcDbCircle
 10
-22.50000000000009
 20
-192.5
 30
0.0
 40
2.5
  0
CIRCLE
  5
133F
330
1311
100
AcDbEntity
  8
0
100
AcDbCircle
 10
-12.50000000000009
 20
-202.5
 30
0.0
 40
2.5
  0
CIRCLE
  5
1340
330
1311
100
AcDbEntity
  8
0
100
AcDbCircle
 10
-22.50000000000009
 20
-212.5
 30
0.0
 40
2.5
  0
ARC
  5
1341
330
1311
100
AcDbEntity
  8
0
100
AcDbCircle
 10
-0.0000000000014792
 20
-125.7500000000001
 30
0.0
 40
51.50000000000002
100
AcDbArc
 50
256.2997665116283
 51
263.8693415946374
  0
LINE
  5
1342
330
1311
100
AcDbEntity
  8
0
100
AcDbLine
 10
-5.50000000000155
 20
-176.9554684579685
 30
0.0
 11
-5.50000000000155
 21
-176.75
 31
0.0
  0
ARC
  5
1343
330
1311
100
AcDbEntity
  8
0
100
AcDbCircle
 10
-0.0000000000015443
 20
-176.75
 30
0.0
 40
5.5
100
AcDbArc
 50
132.9858860801687
 51
180.0
  0
ARC
  5
1344
330
1311
100
AcDbEntity
  8
0
100
AcDbCircle
 10
-0.0000000000015443
 20
-176.75
 30
0.0
 40
5.5
100
AcDbArc
 50
0.0
 51
47.01411391978787
  0
LINE
  5
1345
330
1311
100
AcDbEntity
  8
0
100
AcDbLine
 10
5.499999999998463
 20
-176.75
 30
0.0
 11
5.499999999998463
 21
-182.75
 31
0.0
  0
ARC
  5
1346
330
1311
100
AcDbEntity
  8
0
100
AcDbCircle
 10
-0.0000000000015457
 20
-182.75
 30
0.0
 40
5.5
100
AcDbArc
 50
312.9858860802121
 51
0.0
  0
ARC
  5
1347
330
1311
100
AcDbEntity
  8
0
100
AcDbCircle
 10
-0.0000000000014792
 20
-125.7500000000001
 30
0.0
 40
62.5
100
AcDbArc
 50
256.2997665116284
 51
266.5601872324862
  0
ARC
  5
1348
330
1311
100
AcDbEntity
  8
0
100
AcDbCircle
 10
-13.50000000000156
 20
-181.1282448259242
 30
0.0
 40
5.500000000000002
100
AcDbArc
 50
76.29976651162833
 51
256.2997665116281
  0
LINE
  5
1349
330
1311
100
AcDbEntity
  8
0
100
AcDbLine
 10
30.00000000000144
 20
-4.000000000000021
 30
0.0
 11
30.00000000000144
 21
-103.5
 31
0.0
  0
LINE
  5
134A
330
1311
100
AcDbEntity
  8
0
100
AcDbLine
 10
-1.250000000000012
 20
-4.000000000000003
 30
0.0
 11
-1.250000000000012
 21
-216.0
 31
0.0
  0
LINE
  5
134B
330
1311
100
AcDbEntity
  8
0
100
AcDbLine
 10
1.249999999999987
 20
-216.0
 30
0.0
 11
1.249999999999987
 21
-4.000000000000021
 31
0.0
  0
LINE
  5
134C
330
1311
100
AcDbEntity
  8
0
100
AcDbLine
 10
3.749999999999989
 20
0.0
 30
0.0
 11
26.00000000000143
 21
0.0
 31
0.0
  0
ARC
  5
134D
330
1311
100
AcDbEntity
  8
0
100
AcDbCircle
 10
2.000000000001424
 20
-27.5
 30
0.0
 40
2.5
100
AcDbArc
 50
314.4270040007591
 51
45.57299599924027
  0
LINE
  5
134E
330
1311
100
AcDbEntity
  8
0
100
AcDbLine
 10
-9.999999999998568
 20
-30.00000000000003
 30
0.0
 11
-1.250000000000037
 21
-30.00000000000003
 31
0.0
  0
ARC
  5
134F
330
1311
100
AcDbEntity
  8
0
100
AcDbCircle
 10
-9.999999999998546
 20
-50.00000000000003
 30
0.0
 40
20.00000000000001
100
AcDbArc
 50
90.00000000000005
 51
269.9999999999999
  0
LINE
  5
1350
330
1311
100
AcDbEntity
  8
0
100
AcDbLine
 10
-3.750000000000035
 20
-70.00000000000003
 30
0.0
 11
-9.999999999998564
 21
-70.00000000000003
 31
0.0
  0
LINE
  5
1351
330
1311
100
AcDbEntity
  8
0
100
AcDbLine
 10
26.00000000000144
 20
-107.5
 30
0.0
 11
3.749999999999982
 21
-107.5
 31
0.0
  0
CIRCLE
  5
1352
330
1311
100
AcDbEntity
  8
0
100
AcDbCircle
 10
22.50000000000003
 20
-7.5
 30
0.0
 40
2.5
  0
CIRCLE
  5
1353
330
1311
100
AcDbEntity
  8
0
100
AcDbCircle
 10
22.50000000000003
 20
-27.5
 30
0.0
 40
2.5
  0
CIRCLE
  5
1354
330
1311
100
AcDbEntity
  8
0
100
AcDbCircle
 10
12.50000000000002
 20
-37.5
 30
0.0
 40
2.5
  0
CIRCLE
  5
1355
330
1311
100
AcDbEntity
  8
0
100
AcDbCircle
 10
-12.50000000000004
 20
-37.75000000000002
 30
0.0
 40
2.5
  0
CIRCLE
  5
1356
330
1311
100
AcDbEntity
  8
0
100
AcDbCircle
 10
-22.50000000000004
 20
-50.0
 30
0.0
 40
2.5
  0
CIRCLE
  5
1357
330
1311
100
AcDbEntity
  8
0
100
AcDbCircle
 10
-12.50000000000002
 20
-62.25000000000001
 30
0.0
 40
2.5
  0
CIRCLE
  5
1358
330
1311
100
AcDbEntity
  8
0
100
AcDbCircle
 10
22.50000000000003
 20
-70.0
 30
0.0
 40
2.5
  0
CIRCLE
  5
1359
330
1311
100
AcDbEntity
  8
0
100
AcDbCircle
 10
12.50000000000005
 20
-80.0
 30
0.0
 40
2.5
  0
CIRCLE
  5
135A
330
1311
100
AcDbEntity
  8
0
100
AcDbCircle
 10
22.50000000000003
 20
-90.0
 30
0.0
 40
2.5
  0
CIRCLE
  5
135B
330
1311
100
AcDbEntity
  8
0
100
AcDbCircle
 10
12.50000000000005
 20
-100.0
 30
0.0
 40
2.5
  0
LINE
  5
135C
330
1311
100
AcDbEntity
  8
0
100
AcDbLine
 10
-5.499999999998519
 20
-53.00000000000004
 30
0.0
 11
-5.499999999998519
 21
-47.00000000000002
 31
0.0
  0
ARC
  5
135D
330
1311
100
AcDbEntity
  8
0
100
AcDbCircle
 10
0.0000000000014868
 20
-53.00000000000004
 30
0.0
 40
5.5
100
AcDbArc
 50
180.0
 51
256.8634412130389
  0
ARC
  5
135E
330
1311
100
AcDbEntity
  8
0
100
AcDbCircle
 10
-1.962756537019867
 20
-109.9625843382975
 30
0.0
 40
51.5
100
AcDbArc
 50
74.25976397937913
 51
83.63122624389321
  0
ARC
  5
135F
330
1311
100
AcDbEntity
  8
0
100
AcDbCircle
 10
13.50000000000148
 20
-55.10000000000004
 30
0.0
 40
5.5
100
AcDbArc
 50
254.2597639793791
 51
81.93184949994773
  0
ARC
  5
1360
330
1311
100
AcDbEntity
  8
0
100
AcDbCircle
 10
5.500000000001517
 20
-111.5358042380899
 30
0.0
 40
62.5
100
AcDbArc
 50
81.93184949994769
 51
90.00000000000003
  0
LINE
  5
1361
330
1311
100
AcDbEntity
  8
0
100
AcDbLine
 10
5.500000000001512
 20
-47.00000000000002
 30
0.0
 11
5.500000000001512
 21
-49.03580423808989
 31
0.0
  0
ARC
  5
1362
330
1311
100
AcDbEntity
  8
0
100
AcDbCircle
 10
0.0000000000014329
 20
-47.00000000000002
 30
0.0
 40
5.5
100
AcDbArc
 50
132.9858860802109
 51
180.0
  0
ARC
  5
1363
330
1311
100
AcDbEntity
  8
0
100
AcDbCircle
 10
0.0000000000014329
 20
-47.00000000000002
 30
0.0
 40
5.5
100
AcDbArc
 50
0.0
 51
47.01411391983046
  0
ARC
  5
1364
330
1311
100
AcDbEntity
  8
0
100
AcDbCircle
 10
2.000000000001445
 20
-72.50000000000003
 30
0.0
 40
2.5
100
AcDbArc
 50
314.4270040007588
 51
45.57299599924147
  0
LINE
  5
1365
330
1311
100
AcDbEntity
  8
0
100
AcDbLine
 10
-3.750000000000013
 20
-37.25000000000001
 30
0.0
 11
-3.750000000000013
 21
-52.74999999999999
 31
0.0
  0
LINE
  5
1366
330
1311
100
AcDbEntity
  8
0
100
AcDbLine
 10
-3.750000000000013
 20
-67.25
 30
0.0
 11
-3.750000000000013
 21
-82.75
 31
0.0
  0
LINE
  5
1367
330
1311
100
AcDbEntity
  8
0
100
AcDbLine
 10
-3.750000000000013
 20
-97.25000000000001
 30
0.0
 11
-3.750000000000013
 21
-112.75
 31
0.0
  0
LINE
  5
1368
330
1311
100
AcDbEntity
  8
0
100
AcDbLine
 10
-3.750000000000013
 20
-127.25
 30
0.0
 11
-3.750000000000013
 21
-142.75
 31
0.0
  0
LINE
  5
1369
330
1311
100
AcDbEntity
  8
0
100
AcDbLine
 10
-3.750000000000013
 20
-157.25
 30
0.0
 11
-3.750000000000013
 21
-172.75
 31
0.0
  0
LINE
  5
136A
330
1311
100
AcDbEntity
  8
0
100
AcDbLine
 10
-3.250000000000012
 20
-52.74999999999999
 30
0.0
 11
-3.750000000000013
 21
-52.74999999999999
 31
0.0
  0
LINE
  5
136B
330
1311
100
AcDbEntity
  8
0
100
AcDbLine
 10
-3.250000000000012
 20
-37.25000000000001
 30
0.0
 11
-3.750000000000013
 21
-37.25000000000001
 31
0.0
  0
LINE
  5
136C
330
1311
100
AcDbEntity
  8
0
100
AcDbLine
 10
-3.250000000000012
 20
-82.75
 30
0.0
 11
-3.750000000000013
 21
-82.75
 31
0.0
  0
LINE
  5
136D
330
1311
100
AcDbEntity
  8
0
100
AcDbLine
 10
-3.250000000000012
 20
-67.25
 30
0.0
 11
-3.750000000000013
 21
-67.25
 31
0.0
  0
LINE
  5
136E
330
1311
100
AcDbEntity
  8
0
100
AcDbLine
 10
-3.250000000000012
 20
-112.75
 30
0.0
 11
-3.750000000000013
 21
-112.75
 31
0.0
  0
LINE
  5
136F
330
1311
100
AcDbEntity
  8
0
100
AcDbLine
 10
-3.250000000000012
 20
-97.25000000000001
 30
0.0
 11
-3.750000000000013
 21
-97.25000000000001
 31
0.0
  0
LINE
  5
1370
330
1311
100
AcDbEntity
  8
0
100
AcDbLine
 10
-3.250000000000012
 20
-142.75
 30
0.0
 11
-3.750000000000013
 21
-142.75
 31
0.0
  0
LINE
  5
1371
330
1311
100
AcDbEntity
  8
0
100
AcDbLine
 10
-3.250000000000012
 20
-127.25
 30
0.0
 11
-3.750000000000013
 21
-127.25
 31
0.0
  0
LINE
  5
1372
330
1311
100
AcDbEntity
  8
0
100
AcDbLine
 10
-3.250000000000012
 20
-172.75
 30
0.0
 11
-3.750000000000013
 21
-172.75
 31
0.0
  0
LINE
  5
1373
330
1311
100
AcDbEntity
  8
0
100
AcDbLine
 10
-3.250000000000012
 20
-157.25
 30
0.0
 11
-3.750000000000013
 21
-157.25
 31
0.0
  0
LINE
  5
1374
330
1311
100
AcDbEntity
  8
0
100
AcDbLine
 10
-3.750000000000012
 20
-187.25
 30
0.0
 11
-3.750000000000012
 21
-202.75
 31
0.0
  0
LINE
  5
1375
330
1311
100
AcDbEntity
  8
0
100
AcDbLine
 10
-3.250000000000012
 20
-202.75
 30
0.0
 11
-3.750000000000012
 21
-202.75
 31
0.0
  0
LINE
  5
1376
330
1311
100
AcDbEntity
  8
0
100
AcDbLine
 10
-3.250000000000012
 20
-187.25
 30
0.0
 11
-3.750000000000012
 21
-187.25
 31
0.0
  0
LINE
  5
1377
330
1311
100
AcDbEntity
  8
0
100
AcDbLine
 10
3.749999999999987
 20
-10.50000000000001
 30
0.0
 11
3.749999999999987
 21
-13.50000000000001
 31
0.0
  0
LINE
  5
1378
330
1311
100
AcDbEntity
  8
0
100
AcDbLine
 10
-2.50000000000095
 20
-155.0
 30
0.0
 11
-1.250000000000012
 21
-155.0
 31
0.0
  0
SPLINE
  5
1379
330
1311
100
AcDbEntity
  8
0
100
AcDbSpline
210
0.0
220
0.0
230
1.0
 70
     8
 71
     3
 72
    12
 73
     8
 74
     0
 42
0.000000001
 43
0.0000000001
 40
0.0
 40
0.0
 40
0.0
 40
0.0
 40
0.0373203676590487
 40
0.0373203676590487
 40
0.0541955352958087
 40
0.0541955352958087
 40
0.0700894530142404
 40
0.0700894530142404
 40
0.0700894530142404
 40
0.0700894530142404
 10
-3.75000000000001
 20
-155.7146428928628
 30
0.0
 10
-3.674366527647655
 20
-155.6158742603253
 30
0.0
 10
-3.496805981481996
 20
-155.4004551554172
 30
0.0
 10
-3.113386347721078
 20
-155.1570025335458
 30
0.0
 10
-2.987563523963818
 20
-155.0973201918143
 30
0.0
 10
-2.737610273360702
 20
-155.0194542030248
 30
0.0
 10
-2.616846522123807
 20
-154.9999959154825
 30
0.0
 10
-2.50000000000095
 20
-155.0
 30
0.0
  0
SPLINE
  5
137A
330
1311
100
AcDbEntity
  8
0
100
AcDbSpline
210
0.0
220
0.0
230
1.0
 70
     8
 71
     3
 72
    10
 73
     6
 74
     0
 42
0.000000001
 43
0.0000000001
 40
0.0
 40
0.0
 40
0.0
 40
0.0
 40
0.136571610503552
 40
0.136571610503552
 40
0.3426352983127025
 40
0.3426352983127025
 40
0.3426352983127025
 40
0.3426352983127025
 10
-1.250000000001887
 20
-155.0
 30
0.0
 10
-1.644248280431629
 20
-154.9999967918876
 30
0.0
 10
-2.06736021138158
 20
-155.0543170582465
 30
0.0
 10
-3.135930009283529
 20
-155.3393874858991
 30
0.0
 10
-3.588820113506025
 20
-155.6095878156104
 30
0.0
 10
-3.749999999999995
 20
-155.7146428928628
 30
0.0
  0
LINE
  5
137B
330
1311
100
AcDbEntity
  8
0
100
AcDbLine
 10
-3.750000000000027
 20
-219.9999999999999
 30
0.0
 11
-1.250000000000004
 21
-219.9999999999999
 31
0.0
  0
LINE
  5
137C
330
1311
100
AcDbEntity
  8
0
100
AcDbLine
 10
-1.250000000000013
 20
-205.0
 30
0.0
 11
-2.500000000000946
 21
-205.0
 31
0.0
  0
SPLINE
  5
137D
330
1311
100
AcDbEntity
  8
0
100
AcDbSpline
210
0.0
220
0.0
230
1.0
 70
     8
 71
     3
 72
    10
 73
     6
 74
     0
 42
0.000000001
 43
0.0000000001
 40
0.0
 40
0.0
 40
0.0
 40
0.0
 40
0.0575824048776929
 40
0.0575824048776929
 40
0.0969870129543648
 40
0.0969870129543648
 40
0.0969870129543648
 40
0.0969870129543648
 10
-3.749999999999995
 20
-204.2853571071371
 30
0.0
 10
-3.589199486016165
 20
-204.3901649140307
 30
0.0
 10
-3.144309372968954
 20
-204.6556464676629
 30
0.0
 10
-2.08018338893669
 20
-204.9440616857523
 30
0.0
 10
-1.650237554455019
 20
-205.0000032568491
 30
0.0
 10
-1.250000000001864
 20
-205.0
 30
0.0
  0
SPLINE
  5
137E
330
1311
100
AcDbEntity
  8
0
100
AcDbSpline
210
0.0
220
0.0
230
1.0
 70
     8
 71
     3
 72
    12
 73
     8
 74
     0
 42
0.000000001
 43
0.0000000001
 40
0.0
 40
0.0
 40
0.0
 40
0.0
 40
0.0483939315753229
 40
0.0483939315753229
 40
0.0973081656969073
 40
0.0973081656969073
 40
0.1727322110594462
 40
0.1727322110594462
 40
0.1727322110594462
 40
0.1727322110594462
 10
-2.500000000000941
 20
-205.0
 30
0.0
 10
-2.639701247047745
 20
-205.0000048834331
 30
0.0
 10
-2.78457523764428
 20
-204.972235116372
 30
0.0
 10
-3.07442494389575
 20
-204.865170431607
 30
0.0
 10
-3.214606868942145
 20
-204.7870554509049
 30
0.0
 10
-3.545328278129693
 20
-204.5403585081244
 30
0.0
 10
-3.682883553022465
 20
-204.3730034822481
 30
0.0
 10
-3.750000000000019
 20
-204.2853571071371
 30
0.0
  0
ARC
  5
137F
330
1311
100
AcDbEntity
  8
0
100
AcDbCircle
 10
-3.250000000000012
 20
-54.75
 30
0.0
 40
2.0
100
AcDbArc
 50
0.0
 51
90.00000000000005
  0
ARC
  5
1380
330
1311
100
AcDbEntity
  8
0
100
AcDbCircle
 10
-3.250000000000012
 20
-35.25
 30
0.0
 40
2.0
100
AcDbArc
 50
270.0
 51
0.0
  0
ARC
  5
1381
330
1311
100
AcDbEntity
  8
0
100
AcDbCircle
 10
-3.250000000000012
 20
-84.74999999999999
 30
0.0
 40
2.0
100
AcDbArc
 50
0.0
 51
90.00000000000005
  0
ARC
  5
1382
330
1311
100
AcDbEntity
  8
0
100
AcDbCircle
 10
-3.250000000000012
 20
-65.25
 30
0.0
 40
2.0
100
AcDbArc
 50
270.0
 51
0.0
  0
ARC
  5
1383
330
1311
100
AcDbEntity
  8
0
100
AcDbCircle
 10
-3.250000000000012
 20
-114.75
 30
0.0
 40
2.0
100
AcDbArc
 50
0.0
 51
90.00000000000005
  0
ARC
  5
1384
330
1311
100
AcDbEntity
  8
0
100
AcDbCircle
 10
-3.250000000000012
 20
-95.25
 30
0.0
 40
2.0
100
AcDbArc
 50
270.0
 51
0.0
  0
ARC
  5
1385
330
1311
100
AcDbEntity
  8
0
100
AcDbCircle
 10
-3.250000000000012
 20
-144.75
 30
0.0
 40
2.0
100
AcDbArc
 50
0.0
 51
90.00000000000005
  0
ARC
  5
1386
330
1311
100
AcDbEntity
  8
0
100
AcDbCircle
 10
-3.250000000000012
 20
-125.25
 30
0.0
 40
2.0
100
AcDbArc
 50
270.0
 51
0.0
  0
ARC
  5
1387
330
1311
100
AcDbEntity
  8
0
100
AcDbCircle
 10
-3.250000000000012
 20
-174.75
 30
0.0
 40
2.0
100
AcDbArc
 50
0.0
 51
90.00000000000005
  0
ARC
  5
1388
330
1311
100
AcDbEntity
  8
0
100
AcDbCircle
 10
-3.250000000000012
 20
-155.25
 30
0.0
 40
2.0
100
AcDbArc
 50
270.0
 51
0.0
  0
ARC
  5
1389
330
1311
100
AcDbEntity
  8
0
100
AcDbCircle
 10
-3.250000000000012
 20
-204.75
 30
0.0
 40
2.0
100
AcDbArc
 50
0.0
 51
90.00000000000005
  0
ARC
  5
138A
330
1311
100
AcDbEntity
  8
0
100
AcDbCircle
 10
-3.250000000000012
 20
-185.25
 30
0.0
 40
2.0
100
AcDbArc
 50
270.0
 51
0.0
  0
ENDBLK
  5
1313
330
1311
100
AcDbEntity
  8
0
100
AcDbBlockEnd
  0
BLOCK
  5
138C
330
138B
100
AcDbEntity
  8
0
100
AcDbBlockBegin
  2
CBH220S-Left
 70
     0
 10
0.0
 20
0.0
 30
0.0
  3
CBH220S-Left
  1

  0
LINE
  5
138E
330
138B
100
AcDbEntity
  8
0
100
AcDbLine
 10
2.500000000000017
 20
-13.50000000000003
 30
0.0
 11
2.500000000000017
 21
-10.49999999999999
 31
0.0
  0
LINE
  5
138F
330
138B
100
AcDbEntity
  8
0
100
AcDbLine
 10
2.500000000000016
 20
-13.50000000000003
 30
0.0
 11
5.000000000000008
 21
-13.50000000000003
 31
0.0
  0
LINE
  5
1390
330
138B
100
AcDbEntity
  8
0
100
AcDbLine
 10
5.000000000000008
 20
-10.49999999999999
 30
0.0
 11
2.500000000000016
 21
-10.49999999999999
 31
0.0
  0
LINE
  5
1391
330
138B
100
AcDbEntity
  8
0
100
AcDbLine
 10
30.50000000000001
 20
-13.50000000000001
 30
0.0
 11
5.000000000000008
 21
-13.50000000000003
 31
0.0
  0
ARC
  5
1392
330
138B
100
AcDbEntity
  8
0
100
AcDbCircle
 10
30.50000000000001
 20
-12.00000000000001
 30
0.0
 40
1.499999999999994
100
AcDbArc
 50
270.0
 51
90.0
  0
LINE
  5
1393
330
138B
100
AcDbEntity
  8
0
100
AcDbLine
 10
5.00000000000001
 20
-10.49999999999999
 30
0.0
 11
30.5
 21
-10.49999999999999
 31
0.0
  0
LINE
  5
1394
330
138B
100
AcDbEntity
  8
0
100
AcDbLine
 10
0.0
 20
-216.0
 30
0.0
 11
0.0
 21
-220.0
 31
0.0
  0
LINE
  5
1395
330
138B
100
AcDbEntity
  8
0
100
AcDbLine
 10
0.0
 20
-220.0
 30
0.0
 11
2.499999999999993
 21
-220.0
 31
0.0
  0
LINE
  5
1396
330
138B
100
AcDbEntity
  8
0
100
AcDbLine
 10
2.499999999999993
 20
-220.0
 30
0.0
 11
2.499999999999984
 21
-216.0
 31
0.0
  0
LINE
  5
1397
330
138B
100
AcDbEntity
  8
0
100
AcDbLine
 10
2.499999999999984
 20
-216.0
 30
0.0
 11
0.0
 21
-216.0
 31
0.0
  0
LINE
  5
1398
330
138B
100
AcDbEntity
  8
0
100
AcDbLine
 10
0.0
 20
-116.5
 30
0.0
 11
2.499999999999966
 21
-116.5
 31
0.0
  0
LINE
  5
1399
330
138B
100
AcDbEntity
  8
0
100
AcDbLine
 10
2.499999999999966
 20
-116.5
 30
0.0
 11
2.499999999999974
 21
-112.5
 31
0.0
  0
LINE
  5
139A
330
138B
100
AcDbEntity
  8
0
100
AcDbLine
 10
0.0
 20
-112.5
 30
0.0
 11
0.0
 21
-116.5
 31
0.0
  0
LINE
  5
139B
330
138B
100
AcDbEntity
  8
0
100
AcDbLine
 10
2.499999999999974
 20
-112.5
 30
0.0
 11
0.0
 21
-112.5
 31
0.0
  0
LINE
  5
139C
330
138B
100
AcDbEntity
  8
0
100
AcDbLine
 10
113.4999999999986
 20
-216.0
 30
0.0
 11
109.4999999999986
 21
-220.0
 31
0.0
  0
LINE
  5
139D
330
138B
100
AcDbEntity
  8
0
100
AcDbLine
 10
109.5
 20
0.0
 30
0.0
 11
113.5
 21
-4.000000000000003
 31
0.0
  0
LINE
  5
139E
330
138B
100
AcDbEntity
  8
0
100
AcDbLine
 10
2.499999999999984
 20
-216.0
 30
0.0
 11
2.499999999999966
 21
-116.5
 31
0.0
  0
LINE
  5
139F
330
138B
100
AcDbEntity
  8
0
100
AcDbLine
 10
0.0
 20
-116.5
 30
0.0
 11
0.0
 21
-216.0
 31
0.0
  0
LINE
  5
13A0
330
138B
100
AcDbEntity
  8
0
100
AcDbLine
 10
0.0
 20
-70.00000000000003
 30
0.0
 11
0.0
 21
-74.28535710713719
 31
0.0
  0
LINE
  5
13A1
330
138B
100
AcDbEntity
  8
0
100
AcDbLine
 10
0.0
 20
-70.00000000000004
 30
0.0
 11
0.0
 21
-30.00000000000003
 31
0.0
  0
LINE
  5
13A2
330
138B
100
AcDbEntity
  8
0
100
AcDbLine
 10
0.0
 20
-25.71464289286288
 30
0.0
 11
0.0
 21
-30.0
 31
0.0
  0
LINE
  5
13A3
330
138B
100
AcDbEntity
  8
0
100
AcDbLine
 10
113.5
 20
-4.000000000000003
 30
0.0
 11
113.4999999999986
 21
-216.0
 31
0.0
  0
LINE
  5
13A4
330
138B
100
AcDbEntity
  8
0
100
AcDbLine
 10
104.5698511713309
 20
0.0
 30
0.0
 11
109.5
 21
0.0
 31
0.0
  0
LINE
  5
13A5
330
138B
100
AcDbEntity
  8
0
100
AcDbLine
 10
102.7499999999999
 20
-5.0
 30
0.0
 11
104.5698511713309
 21
0.0
 31
0.0
  0
LINE
  5
13A6
330
138B
100
AcDbEntity
  8
0
100
AcDbLine
 10
102.7499999999999
 20
-10.25658350974741
 30
0.0
 11
102.7499999999999
 21
-5.0
 31
0.0
  0
ARC
  5
13A7
330
138B
100
AcDbEntity
  8
0
100
AcDbCircle
 10
100.5
 20
-15.0
 30
0.0
 40
5.25
100
AcDbArc
 50
270.0
 51
64.62306647484837
  0
LINE
  5
13A8
330
138B
100
AcDbEntity
  8
0
100
AcDbLine
 10
97.5
 20
-20.24999999999999
 30
0.0
 11
100.5
 21
-20.24999999999999
 31
0.0
  0
ARC
  5
13A9
330
138B
100
AcDbEntity
  8
0
100
AcDbCircle
 10
97.5
 20
-15.0
 30
0.0
 40
5.25
100
AcDbArc
 50
180.0
 51
270.0000000000002
  0
LINE
  5
13AA
330
138B
100
AcDbEntity
  8
0
100
AcDbLine
 10
92.24999999999997
 20
0.0
 30
0.0
 11
92.24999999999997
 21
-15.0
 31
0.0
  0
LINE
  5
13AB
330
138B
100
AcDbEntity
  8
0
100
AcDbLine
 10
5.000000000000017
 20
0.0
 30
0.0
 11
92.24999999999997
 21
0.0
 31
0.0
  0
LINE
  5
13AC
330
138B
100
AcDbEntity
  8
0
100
AcDbLine
 10
13.59999999999859
 20
-25.0
 30
0.0
 11
5.000000000000017
 21
-25.0
 31
0.0
  0
ARC
  5
13AD
330
138B
100
AcDbEntity
  8
0
100
AcDbCircle
 10
13.59999999999857
 20
-50.00000000000003
 30
0.0
 40
25.0
100
AcDbArc
 50
270.0
 51
90.0
  0
LINE
  5
13AE
330
138B
100
AcDbEntity
  8
0
100
AcDbLine
 10
5.000000000000017
 20
-75.00000000000003
 30
0.0
 11
13.59999999999857
 21
-75.00000000000003
 31
0.0
  0
LINE
  5
13AF
330
138B
100
AcDbEntity
  8
0
100
AcDbLine
 10
9.699999999998585
 20
-107.5
 30
0.0
 11
5.000000000000017
 21
-107.5
 31
0.0
  0
ARC
  5
13B0
330
138B
100
AcDbEntity
  8
0
100
AcDbCircle
 10
9.699999999998585
 20
-110.0
 30
0.0
 40
2.499999999999996
100
AcDbArc
 50
270.0
 51
90.0
  0
LINE
  5
13B1
330
138B
100
AcDbEntity
  8
0
100
AcDbLine
 10
5.000000000000035
 20
-112.5
 30
0.0
 11
9.699999999998585
 21
-112.5
 31
0.0
  0
LINE
  5
13B2
330
138B
100
AcDbEntity
  8
0
100
AcDbLine
 10
13.59999999999855
 20
-155.0
 30
0.0
 11
5.000000000000035
 21
-155.0
 31
0.0
  0
ARC
  5
13B3
330
138B
100
AcDbEntity
  8
0
100
AcDbCircle
 10
13.59999999999855
 20
-180.0
 30
0.0
 40
25.0
100
AcDbArc
 50
270.0
 51
90.0
  0
LINE
  5
13B4
330
138B
100
AcDbEntity
  8
0
100
AcDbLine
 10
5.000000000000035
 20
-205.0
 30
0.0
 11
13.59999999999855
 21
-205.0
 31
0.0
  0
LINE
  5
13B5
330
138B
100
AcDbEntity
  8
0
100
AcDbLine
 10
109.4999999999986
 20
-220.0
 30
0.0
 11
5.000000000000035
 21
-220.0
 31
0.0
  0
LINE
  5
13B6
330
138B
100
AcDbEntity
  8
0
100
AcDbLine
 10
2.500000000000018
 20
-30.0
 30
0.0
 11
2.500000000000019
 21
-25.71464289286288
 31
0.0
  0
LINE
  5
13B7
330
138B
100
AcDbEntity
  8
0
100
AcDbLine
 10
0.0
 20
-30.00000000000003
 30
0.0
 11
2.500000000000009
 21
-30.00000000000003
 31
0.0
  0
LINE
  5
13B8
330
138B
100
AcDbEntity
  8
0
100
AcDbLine
 10
2.500000000000009
 20
-30.00000000000003
 30
0.0
 11
2.500000000000013
 21
-70.00000000000004
 31
0.0
  0
LINE
  5
13B9
330
138B
100
AcDbEntity
  8
0
100
AcDbLine
 10
0.0
 20
-70.00000000000003
 30
0.0
 11
2.500000000000012
 21
-70.00000000000003
 31
0.0
  0
LINE
  5
13BA
330
138B
100
AcDbEntity
  8
0
100
AcDbLine
 10
2.500000000000023
 20
-74.28535710713719
 30
0.0
 11
2.500000000000022
 21
-70.00000000000003
 31
0.0
  0
LINE
  5
13BB
330
138B
100
AcDbEntity
  8
0
100
AcDbLine
 10
0.0
 20
-107.5
 30
0.0
 11
0.0
 21
-74.28535710713717
 31
0.0
  0
LINE
  5
13BC
330
138B
100
AcDbEntity
  8
0
100
AcDbLine
 10
0.0
 20
-25.7146428928629
 30
0.0
 11
0.0
 21
-16.00000000000003
 31
0.0
  0
LINE
  5
13BD
330
138B
100
AcDbEntity
  8
0
100
AcDbLine
 10
0.0
 20
-7.999999999999989
 30
0.0
 11
0.0
 21
0.0
 31
0.0
  0
LINE
  5
13BE
330
138B
100
AcDbEntity
  8
0
100
AcDbLine
 10
0.0
 20
0.0
 30
0.0
 11
5.000000000000018
 21
0.0
 31
0.0
  0
SPLINE
  5
13BF
330
138B
100
AcDbEntity
  8
0
100
AcDbSpline
210
0.0
220
0.0
230
1.0
 70
     8
 71
     3
 72
    12
 73
     8
 74
     0
 42
0.000000001
 43
0.0000000001
 40
0.0
 40
0.0
 40
0.0
 40
0.0
 40
0.0483939315710593
 40
0.0483939315710593
 40
0.0973081656924015
 40
0.0973081656924015
 40
0.1727322110508216
 40
0.1727322110508216
 40
0.1727322110508216
 40
0.1727322110508216
 10
2.834936490538382
 20
-25.0
 30
0.0
 10
2.754279937956969
 20
-24.99999511656673
 30
0.0
 10
2.688885986766373
 20
-25.02776488362372
 30
0.0
 10
2.588072377999682
 20
-25.13482956837993
 30
0.0
 10
2.554445198876812
 20
-25.21294454908029
 30
0.0
 10
2.500111425961002
 20
-25.45964149186304
 30
0.0
 10
2.500000000000017
 20
-25.6269965177354
 30
0.0
 10
2.500000000000018
 20
-25.71464289286292
 30
0.0
  0
LINE
  5
13C0
330
138B
100
AcDbEntity
  8
0
100
AcDbLine
 10
5.000000000000017
 20
-107.5000000000001
 30
0.0
 11
0.0
 21
-107.5000000000001
 31
0.0
  0
LINE
  5
13C1
330
138B
100
AcDbEntity
  8
0
100
AcDbLine
 10
0.6698729810767396
 20
-75.00000000000003
 30
0.0
 11
5.000000000000017
 21
-75.00000000000003
 31
0.0
  0
SPLINE
  5
13C2
330
138B
100
AcDbEntity
  8
0
100
AcDbSpline
210
0.0
220
0.0
230
1.0
 70
     8
 71
     3
 72
    10
 73
     6
 74
     0
 42
0.000000001
 43
0.0000000001
 40
0.0
 40
0.0
 40
0.0
 40
0.0
 40
0.1365716105019043
 40
0.1365716105019043
 40
0.34263529831129
 40
0.34263529831129
 40
0.34263529831129
 40
0.34263529831129
 10
0.6698729810767407
 20
-75.00000000000003
 30
0.0
 10
0.4422536302460573
 20
-75.00000320811267
 30
0.0
 10
0.2711135565679785
 20
-74.94568294175315
 30
0.0
 10
-0.006372185484362
 20
-74.66061251409927
 30
0.0
 10
0.0000000000000231
 20
-74.39041218437984
 30
0.0
 10
0.000000000000023
 20
-74.28535710713717
 30
0.0
  0
SPLINE
  5
13C3
330
138B
100
AcDbEntity
  8
0
100
AcDbSpline
210
0.0
220
0.0
230
1.0
 70
     8
 71
     3
 72
    12
 73
     8
 74
     0
 42
0.000000001
 43
0.0000000001
 40
0.0
 40
0.0
 40
0.0
 40
0.0
 40
0.037320367657879
 40
0.037320367657879
 40
0.0541955352940359
 40
0.0541955352940359
 40
0.0700894530122672
 40
0.0700894530122672
 40
0.0700894530122672
 40
0.0700894530122672
 10
2.500000000000022
 20
-74.28535710713716
 30
0.0
 10
2.500000000000022
 20
-74.3841257396716
 30
0.0
 10
2.498255977977519
 20
-74.59954484458203
 30
0.0
 10
2.579336079331766
 20
-74.84299746645383
 30
0.0
 10
2.615116159469393
 20
-74.90267980818561
 30
0.0
 10
2.710479480040266
 20
-74.9805457969761
 30
0.0
 10
2.76747511953835
 20
-75.00000408451761
 30
0.0
 10
2.834936490538381
 20
-75.00000000000001
 30
0.0
  0
LINE
  5
13C4
330
138B
100
AcDbEntity
  8
0
100
AcDbLine
 10
1.674298417745133
 20
-74.28535710713717
 30
0.0
 11
2.500000000000022
 21
-74.28535710713717
 31
0.0
  0
LINE
  5
13C5
330
138B
100
AcDbEntity
  8
0
100
AcDbLine
 10
0.0
 20
-74.28535710713717
 30
0.0
 11
1.674298417745133
 21
-74.28535710713717
 31
0.0
  0
SPLINE
  5
13C6
330
138B
100
AcDbEntity
  8
0
100
AcDbSpline
210
0.0
220
0.0
230
1.0
 70
     8
 71
     3
 72
    10
 73
     6
 74
     0
 42
0.000000001
 43
0.0000000001
 40
0.0
 40
0.0
 40
0.0
 40
0.0
 40
0.0575824048729463
 40
0.0575824048729463
 40
0.0969870129457863
 40
0.0969870129457863
 40
0.0969870129457863
 40
0.0969870129457863
 10
0.0000000000000194
 20
-25.7146428928629
 30
0.0
 10
0.0000000000000192
 20
-25.6098350859779
 30
0.0
 10
-0.0058302025890196
 20
-25.34435353233871
 30
0.0
 10
0.2659924112185414
 20
-25.05593831424832
 30
0.0
 10
0.4387957212708895
 20
-24.99999674315092
 30
0.0
 10
0.669872981076747
 20
-24.99999999999998
 30
0.0
  0
LINE
  5
13C7
330
138B
100
AcDbEntity
  8
0
100
AcDbLine
 10
1.674298417752725
 20
-25.7146428928629
 30
0.0
 11
0.0
 21
-25.7146428928629
 31
0.0
  0
LINE
  5
13C8
330
138B
100
AcDbEntity
  8
0
100
AcDbLine
 10
2.500000000000018
 20
-25.7146428928629
 30
0.0
 11
1.674298417752725
 21
-25.7146428928629
 31
0.0
  0
LINE
  5
13C9
330
138B
100
AcDbEntity
  8
0
100
AcDbLine
 10
5.000000000000018
 20
-25.00000000000062
 30
0.0
 11
0.6698729810767512
 21
-25.00000000000062
 31
0.0
  0
LINE
  5
13CA
330
138B
100
AcDbEntity
  8
0
100
AcDbLine
 10
0.0
 20
-8.000000000000015
 30
0.0
 11
0.0
 21
-16.0
 31
0.0
  0
LINE
  5
13CB
330
138B
100
AcDbEntity
  8
0
100
AcDbLine
 10
69.74999999999991
 20
-24.49999999999999
 30
0.0
 11
69.75000000000005
 21
-195.5
 31
0.0
  0
ARC
  5
13CC
330
138B
100
AcDbEntity
  8
0
100
AcDbCircle
 10
68.25000000000002
 20
-195.5
 30
0.0
 40
1.499999999999994
100
AcDbArc
 50
180.0
 51
0.0
  0
LINE
  5
13CD
330
138B
100
AcDbEntity
  8
0
100
AcDbLine
 10
66.75000000000008
 20
-195.5
 30
0.0
 11
66.75000000000008
 21
-24.49999999999999
 31
0.0
  0
ARC
  5
13CE
330
138B
100
AcDbEntity
  8
0
100
AcDbCircle
 10
68.25000000000002
 20
-24.49999999999999
 30
0.0
 40
1.499999999999994
100
AcDbArc
 50
0.0
 51
180.0
  0
ARC
  5
13CF
330
138B
100
AcDbEntity
  8
0
100
AcDbCircle
 10
2.500000000000018
 20
-16.00000000000003
 30
0.0
 40
2.5
100
AcDbArc
 50
90.0
 51
180.0
  0
ARC
  5
13D0
330
138B
100
AcDbEntity
  8
0
100
AcDbCircle
 10
2.500000000000017
 20
-7.999999999999989
 30
0.0
 40
2.5
100
AcDbArc
 50
180.0
 51
270.0
  0
CIRCLE
  5
13D1
330
138B
100
AcDbEntity
  8
0
100
AcDbCircle
 10
97.50000000000001
 20
-45.0
 30
0.0
 40
5.249999999999999
  0
CIRCLE
  5
13D2
330
138B
100
AcDbEntity
  8
0
100
AcDbCircle
 10
97.50000000000001
 20
-45.0
 30
0.0
 40
7.749999999999995
  0
CIRCLE
  5
13D3
330
138B
100
AcDbEntity
  8
0
100
AcDbCircle
 10
97.50000000000001
 20
-75.0
 30
0.0
 40
5.249999999999999
  0
CIRCLE
  5
13D4
330
138B
100
AcDbEntity
  8
0
100
AcDbCircle
 10
97.50000000000001
 20
-75.0
 30
0.0
 40
7.749999999999995
  0
CIRCLE
  5
13D5
330
138B
100
AcDbEntity
  8
0
100
AcDbCircle
 10
97.50000000000001
 20
-105.0
 30
0.0
 40
5.249999999999999
  0
CIRCLE
  5
13D6
330
138B
100
AcDbEntity
  8
0
100
AcDbCircle
 10
97.50000000000001
 20
-105.0
 30
0.0
 40
7.749999999999995
  0
CIRCLE
  5
13D7
330
138B
100
AcDbEntity
  8
0
100
AcDbCircle
 10
97.50000000000001
 20
-135.0
 30
0.0
 40
5.249999999999999
  0
CIRCLE
  5
13D8
330
138B
100
AcDbEntity
  8
0
100
AcDbCircle
 10
97.50000000000001
 20
-135.0
 30
0.0
 40
7.749999999999995
  0
CIRCLE
  5
13D9
330
138B
100
AcDbEntity
  8
0
100
AcDbCircle
 10
97.50000000000001
 20
-165.0
 30
0.0
 40
5.249999999999999
  0
CIRCLE
  5
13DA
330
138B
100
AcDbEntity
  8
0
100
AcDbCircle
 10
97.50000000000001
 20
-165.0
 30
0.0
 40
7.749999999999995
  0
CIRCLE
  5
13DB
330
138B
100
AcDbEntity
  8
0
100
AcDbCircle
 10
97.50000000000001
 20
-195.0
 30
0.0
 40
5.249999999999999
  0
CIRCLE
  5
13DC
330
138B
100
AcDbEntity
  8
0
100
AcDbCircle
 10
97.50000000000001
 20
-195.0
 30
0.0
 40
7.749999999999995
  0
LINE
  5
13DD
330
138B
100
AcDbEntity
  8
0
100
AcDbLine
 10
2.834936490538387
 20
-155.0
 30
0.0
 11
5.000000000000035
 21
-155.0
 31
0.0
  0
LINE
  5
13DE
330
138B
100
AcDbEntity
  8
0
100
AcDbLine
 10
5.000000000000036
 20
-112.5
 30
0.0
 11
2.500000000000018
 21
-112.5
 31
0.0
  0
SPLINE
  5
13DF
330
138B
100
AcDbEntity
  8
0
100
AcDbSpline
210
0.0
220
0.0
230
1.0
 70
     8
 71
     3
 72
    12
 73
     8
 74
     0
 42
0.000000001
 43
0.0000000001
 40
0.0
 40
0.0
 40
0.0
 40
0.0
 40
0.0373203676590487
 40
0.0373203676590487
 40
0.0541955352958087
 40
0.0541955352958087
 40
0.0700894530142404
 40
0.0700894530142404
 40
0.0700894530142404
 40
0.0700894530142404
 10
2.500000000000026
 20
-155.7146428928628
 30
0.0
 10
2.500000000000026
 20
-155.6158742603253
 30
0.0
 10
2.498255977977698
 20
-155.4004551554172
 30
0.0
 10
2.579336079331951
 20
-155.1570025335458
 30
0.0
 10
2.615116159469477
 20
-155.0973201918143
 30
0.0
 10
2.710479480039305
 20
-155.0194542030248
 30
0.0
 10
2.767475119536952
 20
-154.9999959154825
 30
0.0
 10
2.834936490538388
 20
-155.0
 30
0.0
  0
LINE
  5
13E0
330
138B
100
AcDbEntity
  8
0
100
AcDbLine
 10
2.500000000000031
 20
-219.9999999999999
 30
0.0
 11
5.000000000000036
 21
-219.9999999999999
 31
0.0
  0
LINE
  5
13E1
330
138B
100
AcDbEntity
  8
0
100
AcDbLine
 10
5.000000000000035
 20
-205.0
 30
0.0
 11
2.8349364905384
 21
-205.0
 31
0.0
  0
SPLINE
  5
13E2
330
138B
100
AcDbEntity
  8
0
100
AcDbSpline
210
0.0
220
0.0
230
1.0
 70
     8
 71
     3
 72
    12
 73
     8
 74
     0
 42
0.000000001
 43
0.0000000001
 40
0.0
 40
0.0
 40
0.0
 40
0.0
 40
0.0483939315753229
 40
0.0483939315753229
 40
0.0973081656969073
 40
0.0973081656969073
 40
0.1727322110594462
 40
0.1727322110594462
 40
0.1727322110594462
 40
0.1727322110594462
 10
2.834936490538398
 20
-205.0
 30
0.0
 10
2.754279937949879
 20
-205.0000048834331
 30
0.0
 10
2.688885986756949
 20
-204.972235116372
 30
0.0
 10
2.58807237799282
 20
-204.865170431607
 30
0.0
 10
2.554445198872303
 20
-204.7870554509049
 30
0.0
 10
2.500111425960157
 20
-204.5403585081244
 30
0.0
 10
2.50000000000003
 20
-204.3730034822481
 30
0.0
 10
2.50000000000003
 20
-204.2853571071371
 30
0.0
  0
ENDBLK
  5
138D
330
138B
100
AcDbEntity
  8
0
100
AcDbBlockEnd
  0
BLOCK
  5
13E4
330
13E3
100
AcDbEntity
  8
0
100
AcDbBlockBegin
  2
CBH220S-Right
 70
     0
 10
0.0
 20
0.0
 30
0.0
  3
CBH220S-Right
  1

  0
LINE
  5
13E6
330
13E3
100
AcDbEntity
  8
0
100
AcDbLine
 10
-2.500000000000017
 20
-16.00000000000001
 30
0.0
 11
-5.000000000000009
 21
-16.00000000000001
 31
0.0
  0
LINE
  5
13E7
330
13E3
100
AcDbEntity
  8
0
100
AcDbLine
 10
-5.00000000000001
 20
-8.000000000000007
 30
0.0
 11
-2.500000000000016
 21
-8.000000000000007
 31
0.0
  0
LINE
  5
13E8
330
13E3
100
AcDbEntity
  8
0
100
AcDbLine
 10
-2.500000000000016
 20
0.0
 30
0.0
 11
-5.000000000000017
 21
0.0
 31
0.0
  0
LINE
  5
13E9
330
13E3
100
AcDbEntity
  8
0
100
AcDbLine
 10
-5.000000000000018
 20
-25.00000000000003
 30
0.0
 11
-2.834936490538385
 21
-25.00000000000003
 31
0.0
  0
SPLINE
  5
13EA
330
13E3
100
AcDbEntity
  8
0
100
AcDbSpline
210
0.0
220
0.0
230
1.0
 70
     8
 71
     3
 72
    12
 73
     8
 74
     0
 42
0.000000001
 43
0.0000000001
 40
0.0
 40
0.0
 40
0.0
 40
0.0
 40
0.0483939315710593
 40
0.0483939315710593
 40
0.0973081656924015
 40
0.0973081656924015
 40
0.1727322110508216
 40
0.1727322110508216
 40
0.1727322110508216
 40
0.1727322110508216
 10
-2.834936490538382
 20
-25.0
 30
0.0
 10
-2.754279937956969
 20
-24.99999511656673
 30
0.0
 10
-2.688885986766373
 20
-25.02776488362372
 30
0.0
 10
-2.588072377999682
 20
-25.13482956837993
 30
0.0
 10
-2.554445198876812
 20
-25.21294454908029
 30
0.0
 10
-2.500111425961002
 20
-25.45964149186304
 30
0.0
 10
-2.500000000000017
 20
-25.6269965177354
 30
0.0
 10
-2.500000000000018
 20
-25.71464289286292
 30
0.0
  0
LINE
  5
13EB
330
13E3
100
AcDbEntity
  8
0
100
AcDbLine
 10
-5.000000000000017
 20
-107.5
 30
0.0
 11
-2.500000000000025
 21
-107.5
 31
0.0
  0
SPLINE
  5
13EC
330
13E3
100
AcDbEntity
  8
0
100
AcDbSpline
210
0.0
220
0.0
230
1.0
 70
     8
 71
     3
 72
    12
 73
     8
 74
     0
 42
0.000000001
 43
0.0000000001
 40
0.0
 40
0.0
 40
0.0
 40
0.0
 40
0.037320367657879
 40
0.037320367657879
 40
0.0541955352940359
 40
0.0541955352940359
 40
0.0700894530122672
 40
0.0700894530122672
 40
0.0700894530122672
 40
0.0700894530122672
 10
-2.500000000000022
 20
-74.28535710713716
 30
0.0
 10
-2.500000000000022
 20
-74.3841257396716
 30
0.0
 10
-2.498255977977519
 20
-74.59954484458203
 30
0.0
 10
-2.579336079331766
 20
-74.84299746645383
 30
0.0
 10
-2.615116159469393
 20
-74.90267980818561
 30
0.0
 10
-2.710479480040266
 20
-74.9805457969761
 30
0.0
 10
-2.76747511953835
 20
-75.00000408451761
 30
0.0
 10
-2.834936490538381
 20
-75.00000000000001
 30
0.0
  0
LINE
  5
13ED
330
13E3
100
AcDbEntity
  8
0
100
AcDbLine
 10
-2.83493649053838
 20
-75.00000000000001
 30
0.0
 11
-5.000000000000017
 21
-75.00000000000001
 31
0.0
  0
ARC
  5
13EE
330
13E3
100
AcDbEntity
  8
0
100
AcDbCircle
 10
-2.500000000000023
 20
-10.5
 30
0.0
 40
2.5
100
AcDbArc
 50
89.99999999999998
 51
180.0
  0
LINE
  5
13EF
330
13E3
100
AcDbEntity
  8
0
100
AcDbLine
 10
-5.00000000000001
 20
-16.00000000000001
 30
0.0
 11
-30.5
 21
-15.99999999999999
 31
0.0
  0
ARC
  5
13F0
330
13E3
100
AcDbEntity
  8
0
100
AcDbCircle
 10
-30.50000000000001
 20
-12.00000000000001
 30
0.0
 40
4.0
100
AcDbArc
 50
90.0
 51
270.0
  0
LINE
  5
13F1
330
13E3
100
AcDbEntity
  8
0
100
AcDbLine
 10
-30.50000000000001
 20
-7.999999999999989
 30
0.0
 11
-5.000000000000013
 21
-8.000000000000007
 31
0.0
  0
LINE
  5
13F2
330
13E3
100
AcDbEntity
  8
0
100
AcDbLine
 10
-72.25
 20
-195.5
 30
0.0
 11
-72.24999999999988
 21
-24.49999999999999
 31
0.0
  0
ARC
  5
13F3
330
13E3
100
AcDbEntity
  8
0
100
AcDbCircle
 10
-68.25000000000002
 20
-24.49999999999999
 30
0.0
 40
4.0
100
AcDbArc
 50
0.0
 51
180.0
  0
LINE
  5
13F4
330
13E3
100
AcDbEntity
  8
0
100
AcDbLine
 10
-64.25000000000013
 20
-24.49999999999999
 30
0.0
 11
-64.25000000000013
 21
-195.5
 31
0.0
  0
ARC
  5
13F5
330
13E3
100
AcDbEntity
  8
0
100
AcDbCircle
 10
-68.25000000000002
 20
-195.5
 30
0.0
 40
4.0
100
AcDbArc
 50
180.0
 51
0.0
  0
ARC
  5
13F6
330
13E3
100
AcDbEntity
  8
0
100
AcDbCircle
 10
-2.500000000000023
 20
-13.50000000000001
 30
0.0
 40
2.5
100
AcDbArc
 50
180.0
 51
270.0
  0
LINE
  5
13F7
330
13E3
100
AcDbEntity
  8
0
100
AcDbLine
 10
-5.000000000000022
 20
-13.50000000000001
 30
0.0
 11
-5.000000000000022
 21
-10.50000000000001
 31
0.0
  0
LINE
  5
13F8
330
13E3
100
AcDbEntity
  8
0
100
AcDbLine
 10
-2.500000000000038
 20
-200.0
 30
0.0
 11
-2.500000000000035
 21
-204.2853571071371
 31
0.0
  0
LINE
  5
13F9
330
13E3
100
AcDbEntity
  8
0
100
AcDbLine
 10
-2.500000000000061
 20
-200.0
 30
0.0
 11
-2.500000000000053
 21
-160.0
 31
0.0
  0
LINE
  5
13FA
330
13E3
100
AcDbEntity
  8
0
100
AcDbLine
 10
-2.500000000000026
 20
-155.7146428928628
 30
0.0
 11
-2.500000000000031
 21
-160.0
 31
0.0
  0
LINE
  5
13FB
330
13E3
100
AcDbEntity
  8
0
100
AcDbLine
 10
0.0
 20
-103.5
 30
0.0
 11
0.0
 21
-4.000000000000021
 31
0.0
  0
LINE
  5
13FC
330
13E3
100
AcDbEntity
  8
0
100
AcDbLine
 10
-2.500000000000035
 20
-4.000000000000021
 30
0.0
 11
-2.500000000000044
 21
-103.5
 31
0.0
  0
LINE
  5
13FD
330
13E3
100
AcDbEntity
  8
0
100
AcDbLine
 10
-113.4999999999986
 20
-216.0
 30
0.0
 11
-113.5
 21
-4.000000000000021
 31
0.0
  0
LINE
  5
13FE
330
13E3
100
AcDbEntity
  8
0
100
AcDbLine
 10
-5.000000000000035
 20
-220.0
 30
0.0
 11
-109.4999999999986
 21
-220.0
 31
0.0
  0
LINE
  5
13FF
330
13E3
100
AcDbEntity
  8
0
100
AcDbLine
 10
-13.59999999999855
 20
-205.0
 30
0.0
 11
-5.000000000000035
 21
-205.0
 31
0.0
  0
ARC
  5
1400
330
13E3
100
AcDbEntity
  8
0
100
AcDbCircle
 10
-13.59999999999855
 20
-180.0
 30
0.0
 40
25.0
100
AcDbArc
 50
89.99999999999998
 51
270.0
  0
LINE
  5
1401
330
13E3
100
AcDbEntity
  8
0
100
AcDbLine
 10
-5.000000000000035
 20
-155.0
 30
0.0
 11
-13.59999999999855
 21
-155.0
 31
0.0
  0
LINE
  5
1402
330
13E3
100
AcDbEntity
  8
0
100
AcDbLine
 10
-9.699999999998585
 20
-112.5
 30
0.0
 11
-5.000000000000035
 21
-112.5
 31
0.0
  0
ARC
  5
1403
330
13E3
100
AcDbEntity
  8
0
100
AcDbCircle
 10
-9.699999999998585
 20
-110.0
 30
0.0
 40
2.499999999999996
100
AcDbArc
 50
90.0
 51
270.0
  0
LINE
  5
1404
330
13E3
100
AcDbEntity
  8
0
100
AcDbLine
 10
-5.000000000000017
 20
-107.5
 30
0.0
 11
-9.699999999998585
 21
-107.5
 31
0.0
  0
LINE
  5
1405
330
13E3
100
AcDbEntity
  8
0
100
AcDbLine
 10
-13.59999999999857
 20
-75.00000000000003
 30
0.0
 11
-5.000000000000017
 21
-75.00000000000003
 31
0.0
  0
ARC
  5
1406
330
13E3
100
AcDbEntity
  8
0
100
AcDbCircle
 10
-13.59999999999857
 20
-50.00000000000003
 30
0.0
 40
25.0
100
AcDbArc
 50
90.00000000000005
 51
270.0
  0
LINE
  5
1407
330
13E3
100
AcDbEntity
  8
0
100
AcDbLine
 10
-5.000000000000017
 20
-25.0
 30
0.0
 11
-13.59999999999859
 21
-25.0
 31
0.0
  0
LINE
  5
1408
330
13E3
100
AcDbEntity
  8
0
100
AcDbLine
 10
-92.24999999999997
 20
0.0
 30
0.0
 11
-5.000000000000017
 21
0.0
 31
0.0
  0
LINE
  5
1409
330
13E3
100
AcDbEntity
  8
0
100
AcDbLine
 10
-92.24999999999997
 20
-15.0
 30
0.0
 11
-92.24999999999997
 21
0.0
 31
0.0
  0
ARC
  5
140A
330
13E3
100
AcDbEntity
  8
0
100
AcDbCircle
 10
-97.5
 20
-15.0
 30
0.0
 40
5.25
100
AcDbArc
 50
269.9999999999998
 51
0.0
  0
LINE
  5
140B
330
13E3
100
AcDbEntity
  8
0
100
AcDbLine
 10
-100.5
 20
-20.24999999999999
 30
0.0
 11
-97.5
 21
-20.24999999999999
 31
0.0
  0
ARC
  5
140C
330
13E3
100
AcDbEntity
  8
0
100
AcDbCircle
 10
-100.5
 20
-15.0
 30
0.0
 40
5.25
100
AcDbArc
 50
115.3769335251516
 51
270.0
  0
LINE
  5
140D
330
13E3
100
AcDbEntity
  8
0
100
AcDbLine
 10
-102.7499999999999
 20
-5.0
 30
0.0
 11
-102.7499999999999
 21
-10.25658350974741
 31
0.0
  0
LINE
  5
140E
330
13E3
100
AcDbEntity
  8
0
100
AcDbLine
 10
-104.5698511713309
 20
0.0
 30
0.0
 11
-102.7499999999999
 21
-5.0
 31
0.0
  0
LINE
  5
140F
330
13E3
100
AcDbEntity
  8
0
100
AcDbLine
 10
-109.5
 20
0.0
 30
0.0
 11
-104.5698511713309
 21
0.0
 31
0.0
  0
LINE
  5
1410
330
13E3
100
AcDbEntity
  8
0
100
AcDbLine
 10
0.0
 20
-160.0
 30
0.0
 11
0.0
 21
-155.7146428928628
 31
0.0
  0
LINE
  5
1411
330
13E3
100
AcDbEntity
  8
0
100
AcDbLine
 10
-2.500000000000055
 20
-159.9999999999999
 30
0.0
 11
0.0
 21
-159.9999999999999
 31
0.0
  0
LINE
  5
1412
330
13E3
100
AcDbEntity
  8
0
100
AcDbLine
 10
0.0
 20
-160.0
 30
0.0
 11
0.0
 21
-200.0
 31
0.0
  0
LINE
  5
1413
330
13E3
100
AcDbEntity
  8
0
100
AcDbLine
 10
-2.500000000000062
 20
-200.0
 30
0.0
 11
0.0
 21
-200.0
 31
0.0
  0
LINE
  5
1414
330
13E3
100
AcDbEntity
  8
0
100
AcDbLine
 10
0.0
 20
-204.2853571071371
 30
0.0
 11
0.0
 21
-200.0
 31
0.0
  0
LINE
  5
1415
330
13E3
100
AcDbEntity
  8
0
100
AcDbLine
 10
-2.500000000000044
 20
-103.5
 30
0.0
 11
-2.500000000000041
 21
-107.5
 31
0.0
  0
LINE
  5
1416
330
13E3
100
AcDbEntity
  8
0
100
AcDbLine
 10
-2.500000000000041
 20
-107.5
 30
0.0
 11
0.0
 21
-107.5
 31
0.0
  0
LINE
  5
1417
330
13E3
100
AcDbEntity
  8
0
100
AcDbLine
 10
0.0
 20
-107.5
 30
0.0
 11
0.0
 21
-103.5
 31
0.0
  0
LINE
  5
1418
330
13E3
100
AcDbEntity
  8
0
100
AcDbLine
 10
0.0
 20
-103.5
 30
0.0
 11
-2.500000000000044
 21
-103.5
 31
0.0
  0
LINE
  5
1419
330
13E3
100
AcDbEntity
  8
0
100
AcDbLine
 10
-2.500000000000035
 20
-4.000000000000021
 30
0.0
 11
0.0
 21
-4.000000000000021
 31
0.0
  0
LINE
  5
141A
330
13E3
100
AcDbEntity
  8
0
100
AcDbLine
 10
0.0
 20
-4.000000000000021
 30
0.0
 11
0.0
 21
0.0
 31
0.0
  0
LINE
  5
141B
330
13E3
100
AcDbEntity
  8
0
100
AcDbLine
 10
-109.4999999999986
 20
-220.0
 30
0.0
 11
-113.4999999999986
 21
-216.0
 31
0.0
  0
LINE
  5
141C
330
13E3
100
AcDbEntity
  8
0
100
AcDbLine
 10
-113.5
 20
-4.000000000000003
 30
0.0
 11
-109.5
 21
0.0
 31
0.0
  0
LINE
  5
141D
330
13E3
100
AcDbEntity
  8
0
100
AcDbLine
 10
-2.500000000000031
 20
0.0
 30
0.0
 11
-2.500000000000035
 21
-4.000000000000021
 31
0.0
  0
LINE
  5
141E
330
13E3
100
AcDbEntity
  8
0
100
AcDbLine
 10
0.0
 20
0.0
 30
0.0
 11
-2.500000000000031
 21
0.0
 31
0.0
  0
CIRCLE
  5
141F
330
13E3
100
AcDbEntity
  8
0
100
AcDbCircle
 10
-97.50000000000001
 20
-45.0
 30
0.0
 40
5.249999999999999
  0
CIRCLE
  5
1420
330
13E3
100
AcDbEntity
  8
0
100
AcDbCircle
 10
-97.50000000000001
 20
-75.0
 30
0.0
 40
5.249999999999999
  0
CIRCLE
  5
1421
330
13E3
100
AcDbEntity
  8
0
100
AcDbCircle
 10
-97.50000000000001
 20
-105.0
 30
0.0
 40
5.249999999999999
  0
CIRCLE
  5
1422
330
13E3
100
AcDbEntity
  8
0
100
AcDbCircle
 10
-97.50000000000001
 20
-135.0
 30
0.0
 40
5.249999999999999
  0
CIRCLE
  5
1423
330
13E3
100
AcDbEntity
  8
0
100
AcDbCircle
 10
-97.50000000000001
 20
-165.0
 30
0.0
 40
5.249999999999999
  0
CIRCLE
  5
1424
330
13E3
100
AcDbEntity
  8
0
100
AcDbCircle
 10
-97.50000000000001
 20
-195.0
 30
0.0
 40
5.249999999999999
  0
SPLINE
  5
1425
330
13E3
100
AcDbEntity
  8
0
100
AcDbSpline
210
0.0
220
0.0
230
1.0
 70
     8
 71
     3
 72
    12
 73
     8
 74
     0
 42
0.000000001
 43
0.0000000001
 40
0.0
 40
0.0
 40
0.0
 40
0.0
 40
0.0373203676590487
 40
0.0373203676590487
 40
0.0541955352958087
 40
0.0541955352958087
 40
0.0700894530142404
 40
0.0700894530142404
 40
0.0700894530142404
 40
0.0700894530142404
 10
-2.500000000000026
 20
-155.7146428928628
 30
0.0
 10
-2.500000000000026
 20
-155.6158742603253
 30
0.0
 10
-2.498255977977698
 20
-155.4004551554172
 30
0.0
 10
-2.579336079331951
 20
-155.1570025335458
 30
0.0
 10
-2.615116159469477
 20
-155.0973201918143
 30
0.0
 10
-2.710479480039305
 20
-155.0194542030248
 30
0.0
 10
-2.767475119536952
 20
-154.9999959154825
 30
0.0
 10
-2.834936490538388
 20
-155.0
 30
0.0
  0
SPLINE
  5
1426
330
13E3
100
AcDbEntity
  8
0
100
AcDbSpline
210
0.0
220
0.0
230
1.0
 70
     8
 71
     3
 72
    10
 73
     6
 74
     0
 42
0.000000001
 43
0.0000000001
 40
0.0
 40
0.0
 40
0.0
 40
0.0
 40
0.136571610503552
 40
0.136571610503552
 40
0.3426352983127025
 40
0.3426352983127025
 40
0.3426352983127025
 40
0.3426352983127025
 10
-0.6698729810767518
 20
-155.0
 30
0.0
 10
-0.4422536302433209
 20
-154.9999967918876
 30
0.0
 10
-0.2711135565683791
 20
-155.0543170582465
 30
0.0
 10
0.0063721854827418
 20
-155.3393874858991
 30
0.0
 10
-0.0000000000000272
 20
-155.6095878156104
 30
0.0
 10
-0.0000000000000264
 20
-155.7146428928628
 30
0.0
  0
LINE
  5
1427
330
13E3
100
AcDbEntity
  8
0
100
AcDbLine
 10
0.0
 20
-112.5
 30
0.0
 11
0.0
 21
-155.7146428928628
 31
0.0
  0
LINE
  5
1428
330
13E3
100
AcDbEntity
  8
0
100
AcDbLine
 10
-5.000000000000036
 20
-112.5
 30
0.0
 11
0.0
 21
-112.5
 31
0.0
  0
LINE
  5
1429
330
13E3
100
AcDbEntity
  8
0
100
AcDbLine
 10
-0.6698729810767485
 20
-155.0
 30
0.0
 11
-5.000000000000035
 21
-155.0
 31
0.0
  0
LINE
  5
142A
330
13E3
100
AcDbEntity
  8
0
100
AcDbLine
 10
-1.67429841774918
 20
-155.7146428928628
 30
0.0
 11
-2.500000000000027
 21
-155.7146428928628
 31
0.0
  0
LINE
  5
142B
330
13E3
100
AcDbEntity
  8
0
100
AcDbLine
 10
0.0
 20
-155.7146428928628
 30
0.0
 11
-1.67429841774918
 21
-155.7146428928628
 31
0.0
  0
LINE
  5
142C
330
13E3
100
AcDbEntity
  8
0
100
AcDbLine
 10
0.0
 20
-220.0
 30
0.0
 11
-5.000000000000036
 21
-220.0
 31
0.0
  0
LINE
  5
142D
330
13E3
100
AcDbEntity
  8
0
100
AcDbLine
 10
-5.000000000000036
 20
-205.0
 30
0.0
 11
-0.6698729810767734
 21
-205.0
 31
0.0
  0
SPLINE
  5
142E
330
13E3
100
AcDbEntity
  8
0
100
AcDbSpline
210
0.0
220
0.0
230
1.0
 70
     8
 71
     3
 72
    10
 73
     6
 74
     0
 42
0.000000001
 43
0.0000000001
 40
0.0
 40
0.0
 40
0.0
 40
0.0
 40
0.0575824048776929
 40
0.0575824048776929
 40
0.0969870129543648
 40
0.0969870129543648
 40
0.0969870129543648
 40
0.0969870129543648
 10
-0.00000000000003
 20
-204.2853571071371
 30
0.0
 10
-0.0000000000000305
 20
-204.3901649140307
 30
0.0
 10
0.0058302025876393
 20
-204.6556464676629
 30
0.0
 10
-0.2659924112192624
 20
-204.9440616857523
 30
0.0
 10
-0.4387957212736683
 20
-205.0000032568491
 30
0.0
 10
-0.6698729810767668
 20
-205.0
 30
0.0
  0
LINE
  5
142F
330
13E3
100
AcDbEntity
  8
0
100
AcDbLine
 10
-1.674298417752719
 20
-204.2853571071371
 30
0.0
 11
0.0
 21
-204.2853571071371
 31
0.0
  0
LINE
  5
1430
330
13E3
100
AcDbEntity
  8
0
100
AcDbLine
 10
-2.500000000000035
 20
-204.2853571071371
 30
0.0
 11
-1.674298417752719
 21
-204.2853571071371
 31
0.0
  0
SPLINE
  5
1431
330
13E3
100
AcDbEntity
  8
0
100
AcDbSpline
210
0.0
220
0.0
230
1.0
 70
     8
 71
     3
 72
    12
 73
     8
 74
     0
 42
0.000000001
 43
0.0000000001
 40
0.0
 40
0.0
 40
0.0
 40
0.0
 40
0.0483939315753229
 40
0.0483939315753229
 40
0.0973081656969073
 40
0.0973081656969073
 40
0.1727322110594462
 40
0.1727322110594462
 40
0.1727322110594462
 40
0.1727322110594462
 10
-2.834936490538398
 20
-205.0
 30
0.0
 10
-2.754279937949879
 20
-205.0000048834331
 30
0.0
 10
-2.688885986756949
 20
-204.972235116372
 30
0.0
 10
-2.58807237799282
 20
-204.865170431607
 30
0.0
 10
-2.554445198872303
 20
-204.7870554509049
 30
0.0
 10
-2.500111425960157
 20
-204.5403585081244
 30
0.0
 10
-2.50000000000003
 20
-204.3730034822481
 30
0.0
 10
-2.50000000000003
 20
-204.2853571071371
 30
0.0
  0
LINE
  5
1432
330
13E3
100
AcDbEntity
  8
0
100
AcDbLine
 10
0.0
 20
-204.2853571071371
 30
0.0
 11
0.0
 21
-220.0
 31
0.0
  0
ENDBLK
  5
13E5
330
13E3
100
AcDbEntity
  8
0
100
AcDbBlockEnd
  0
BLOCK
  5
1434
330
1433
100
AcDbEntity
  8
0
100
AcDbBlockBegin
  2
CBH220S-Top
 70
     0
 10
0.0
 20
0.0
 30
0.0
  3
CBH220S-Top
  1

  0
LINE
  5
1436
330
1433
100
AcDbEntity
  8
0
100
AcDbLine
 10
3.749999999999988
 20
-5.000000000000016
 30
0.0
 11
7.999999999999996
 21
-5.000000000000022
 31
0.0
  0
LINE
  5
1437
330
1433
100
AcDbEntity
  8
0
100
AcDbLine
 10
9.499999999999998
 20
-5.000000000000024
 30
0.0
 11
7.999999999999996
 21
-5.000000000000022
 31
0.0
  0
LINE
  5
1438
330
1433
100
AcDbEntity
  8
0
100
AcDbLine
 10
3.749999999999987
 20
-30.50000000000001
 30
0.0
 11
3.749999999999987
 21
-32.0
 31
0.0
  0
LINE
  5
1439
330
1433
100
AcDbEntity
  8
0
100
AcDbLine
 10
3.749999999999987
 20
-30.50000000000001
 30
0.0
 11
3.749999999999988
 21
-5.000000000000017
 31
0.0
  0
LINE
  5
143A
330
1433
100
AcDbEntity
  8
0
100
AcDbLine
 10
30.00000000000144
 20
-2.500000000000035
 30
0.0
 11
30.00000000000144
 21
0.0
 31
0.0
  0
LINE
  5
143B
330
1433
100
AcDbEntity
  8
0
100
AcDbLine
 10
30.00000000000144
 20
0.0
 30
0.0
 11
26.00000000000143
 21
0.0
 31
0.0
  0
LINE
  5
143C
330
1433
100
AcDbEntity
  8
0
100
AcDbLine
 10
-1.250000000000012
 20
-109.5
 30
0.0
 11
-1.250000000000012
 21
-113.5
 31
0.0
  0
LINE
  5
143D
330
1433
100
AcDbEntity
  8
0
100
AcDbLine
 10
-1.250000000000012
 20
-113.5
 30
0.0
 11
1.249999999999987
 21
-113.5
 31
0.0
  0
LINE
  5
143E
330
1433
100
AcDbEntity
  8
0
100
AcDbLine
 10
1.249999999999987
 20
-113.5
 30
0.0
 11
1.249999999999987
 21
-109.5
 31
0.0
  0
LINE
  5
143F
330
1433
100
AcDbEntity
  8
0
100
AcDbLine
 10
1.249999999999987
 20
-109.5
 30
0.0
 11
-1.250000000000012
 21
-109.5
 31
0.0
  0
LINE
  5
1440
330
1433
100
AcDbEntity
  8
0
100
AcDbLine
 10
26.00000000000143
 20
-2.500000000000032
 30
0.0
 11
30.00000000000144
 21
-2.500000000000035
 31
0.0
  0
LINE
  5
1441
330
1433
100
AcDbEntity
  8
0
100
AcDbLine
 10
26.00000000000143
 20
0.0
 30
0.0
 11
26.00000000000143
 21
-2.500000000000031
 31
0.0
  0
LINE
  5
1442
330
1433
100
AcDbEntity
  8
0
100
AcDbLine
 10
-29.99999999999857
 20
0.0
 30
0.0
 11
-9.999999999998564
 21
0.0
 31
0.0
  0
LINE
  5
1443
330
1433
100
AcDbEntity
  8
0
100
AcDbLine
 10
2.000000000001427
 20
0.0
 30
0.0
 11
-9.999999999998564
 21
0.0
 31
0.0
  0
LINE
  5
1444
330
1433
100
AcDbEntity
  8
0
100
AcDbLine
 10
3.749999999999982
 20
0.0
 30
0.0
 11
2.000000000001428
 21
0.0
 31
0.0
  0
LINE
  5
1445
330
1433
100
AcDbEntity
  8
0
100
AcDbLine
 10
26.00000000000143
 20
0.0
 30
0.0
 11
3.749999999999991
 21
0.0
 31
0.0
  0
LINE
  5
1446
330
1433
100
AcDbEntity
  8
0
100
AcDbLine
 10
-1.250000000000012
 20
-104.5698511713309
 30
0.0
 11
-1.250000000000012
 21
-109.5
 31
0.0
  0
LINE
  5
1447
330
1433
100
AcDbEntity
  8
0
100
AcDbLine
 10
-1.250000000000012
 20
-102.7499999999999
 30
0.0
 11
-1.250000000000012
 21
-104.5698511713309
 31
0.0
  0
LINE
  5
1448
330
1433
100
AcDbEntity
  8
0
100
AcDbLine
 10
-1.250000000000012
 20
-100.5
 30
0.0
 11
-1.250000000000012
 21
-102.7499999999999
 31
0.0
  0
LINE
  5
1449
330
1433
100
AcDbEntity
  8
0
100
AcDbLine
 10
-1.250000000000012
 20
-97.5
 30
0.0
 11
-1.250000000000012
 21
-100.5
 31
0.0
  0
LINE
  5
144A
330
1433
100
AcDbEntity
  8
0
100
AcDbLine
 10
-1.250000000000012
 20
-92.24999999999997
 30
0.0
 11
-1.250000000000012
 21
-97.5
 31
0.0
  0
LINE
  5
144B
330
1433
100
AcDbEntity
  8
0
100
AcDbLine
 10
-1.250000000000012
 20
-5.000000000000017
 30
0.0
 11
-1.250000000000012
 21
-92.24999999999997
 31
0.0
  0
LINE
  5
144C
330
1433
100
AcDbEntity
  8
0
100
AcDbLine
 10
3.749999999999989
 20
-2.500000000000017
 30
0.0
 11
26.00000000000143
 21
-2.500000000000032
 31
0.0
  0
LINE
  5
144D
330
1433
100
AcDbEntity
  8
0
100
AcDbLine
 10
1.249999999999987
 20
-92.24999999999997
 30
0.0
 11
1.249999999999987
 21
-5.000000000000017
 31
0.0
  0
LINE
  5
144E
330
1433
100
AcDbEntity
  8
0
100
AcDbLine
 10
1.249999999999987
 20
-97.5
 30
0.0
 11
1.249999999999987
 21
-92.24999999999997
 31
0.0
  0
LINE
  5
144F
330
1433
100
AcDbEntity
  8
0
100
AcDbLine
 10
1.249999999999987
 20
-100.5
 30
0.0
 11
1.249999999999987
 21
-97.5
 31
0.0
  0
LINE
  5
1450
330
1433
100
AcDbEntity
  8
0
100
AcDbLine
 10
1.249999999999987
 20
-102.7499999999999
 30
0.0
 11
1.249999999999987
 21
-100.5
 31
0.0
  0
LINE
  5
1451
330
1433
100
AcDbEntity
  8
0
100
AcDbLine
 10
1.249999999999987
 20
-104.5698511713309
 30
0.0
 11
1.249999999999987
 21
-102.7499999999999
 31
0.0
  0
LINE
  5
1452
330
1433
100
AcDbEntity
  8
0
100
AcDbLine
 10
1.249999999999987
 20
-109.5
 30
0.0
 11
1.249999999999987
 21
-104.5698511713309
 31
0.0
  0
LINE
  5
1453
330
1433
100
AcDbEntity
  8
0
100
AcDbLine
 10
-1.250000000000012
 20
-104.5698511713309
 30
0.0
 11
1.249999999999987
 21
-104.5698511713309
 31
0.0
  0
LINE
  5
1454
330
1433
100
AcDbEntity
  8
0
100
AcDbLine
 10
-1.250000000000012
 20
-102.7499999999999
 30
0.0
 11
1.249999999999987
 21
-102.7499999999999
 31
0.0
  0
LINE
  5
1455
330
1433
100
AcDbEntity
  8
0
100
AcDbLine
 10
-1.250000000000012
 20
-92.24999999999997
 30
0.0
 11
1.249999999999987
 21
-92.24999999999997
 31
0.0
  0
LINE
  5
1456
330
1433
100
AcDbEntity
  8
0
100
AcDbLine
 10
-9.999999999998568
 20
-2.500000000000009
 30
0.0
 11
-0.5801270189222063
 21
-2.500000000000016
 31
0.0
  0
LINE
  5
1457
330
1433
100
AcDbEntity
  8
0
100
AcDbLine
 10
-9.999999999998566
 20
-2.500000000000009
 30
0.0
 11
-29.99999999999856
 21
-2.499999999999997
 31
0.0
  0
LINE
  5
1458
330
1433
100
AcDbEntity
  8
0
100
AcDbLine
 10
-29.99999999999858
 20
0.0
 30
0.0
 11
-29.99999999999858
 21
-2.499999999999996
 31
0.0
  0
LINE
  5
1459
330
1433
100
AcDbEntity
  8
0
100
AcDbLine
 10
-3.750000000000013
 20
-89.75000000000001
 30
0.0
 11
-3.750000000000013
 21
-105.25
 31
0.0
  0
LINE
  5
145A
330
1433
100
AcDbEntity
  8
0
100
AcDbLine
 10
-3.250000000000012
 20
-105.25
 30
0.0
 11
-3.750000000000013
 21
-105.25
 31
0.0
  0
LINE
  5
145B
330
1433
100
AcDbEntity
  8
0
100
AcDbLine
 10
-3.250000000000012
 20
-89.75000000000001
 30
0.0
 11
-3.750000000000013
 21
-89.75000000000001
 31
0.0
  0
ARC
  5
145C
330
1433
100
AcDbEntity
  8
0
100
AcDbCircle
 10
3.749999999999987
 20
-5.000000000000016
 30
0.0
 40
5.0
100
AcDbArc
 50
89.99999999999992
 51
180.0
  0
ARC
  5
145D
330
1433
100
AcDbEntity
  8
0
100
AcDbCircle
 10
3.749999999999987
 20
-5.000000000000016
 30
0.0
 40
2.5
100
AcDbArc
 50
89.99999999999992
 51
180.0
  0
ARC
  5
145E
330
1433
100
AcDbEntity
  8
0
100
AcDbCircle
 10
1.249999999999987
 20
-69.74999999999988
 30
0.0
 40
2.5
100
AcDbArc
 50
270.0
 51
0.0
  0
ARC
  5
145F
330
1433
100
AcDbEntity
  8
0
100
AcDbCircle
 10
1.249999999999987
 20
-66.75000000000013
 30
0.0
 40
2.5
100
AcDbArc
 50
0.0
 51
90.00000000000003
  0
LINE
  5
1460
330
1433
100
AcDbEntity
  8
0
100
AcDbLine
 10
3.749999999999987
 20
-66.75000000000003
 30
0.0
 11
3.749999999999987
 21
-69.75000000000003
 31
0.0
  0
ARC
  5
1461
330
1433
100
AcDbEntity
  8
0
100
AcDbCircle
 10
1.249999999999987
 20
-32.0
 30
0.0
 40
2.5
100
AcDbArc
 50
270.0
 51
0.0
  0
ARC
  5
1462
330
1433
100
AcDbEntity
  8
0
100
AcDbCircle
 10
9.500000000000003
 20
-2.500000000000025
 30
0.0
 40
2.5
100
AcDbArc
 50
269.9999999999999
 51
0.0
  0
ARC
  5
1463
330
1433
100
AcDbEntity
  8
0
100
AcDbCircle
 10
-3.750000000000012
 20
-5.000000000000018
 30
0.0
 40
2.499999999999999
100
AcDbArc
 50
0.0
 51
89.99999999999976
  0
ARC
  5
1464
330
1433
100
AcDbEntity
  8
0
100
AcDbCircle
 10
-3.250000000000012
 20
-107.25
 30
0.0
 40
2.0
100
AcDbArc
 50
0.0
 51
90.00000000000005
  0
ARC
  5
1465
330
1433
100
AcDbEntity
  8
0
100
AcDbCircle
 10
-3.250000000000012
 20
-87.75000000000003
 30
0.0
 40
2.0
100
AcDbArc
 50
270.0
 51
0.0
  0
ENDBLK
  5
1435
330
1433
100
AcDbEntity
  8
0
100
AcDbBlockEnd
  0
BLOCK
  5
1467
330
1466
100
AcDbEntity
  8
0
100
AcDbBlockBegin
  2
CBH220S-Bottom
 70
     0
 10
0.0
 20
0.0
 30
0.0
  3
CBH220S-Bottom
  1

  0
LINE
  5
1469
330
1466
100
AcDbEntity
  8
0
100
AcDbLine
 10
3.749999999999987
 20
5.000000000000017
 30
0.0
 11
3.749999999999987
 21
30.50000000000001
 31
0.0
  0
LINE
  5
146A
330
1466
100
AcDbEntity
  8
0
100
AcDbLine
 10
7.999999999999998
 20
5.000000000000023
 30
0.0
 11
3.749999999999987
 21
5.000000000000017
 31
0.0
  0
LINE
  5
146B
330
1466
100
AcDbEntity
  8
0
100
AcDbLine
 10
7.999999999999998
 20
5.000000000000022
 30
0.0
 11
9.499999999999998
 21
5.000000000000024
 31
0.0
  0
LINE
  5
146C
330
1466
100
AcDbEntity
  8
0
100
AcDbLine
 10
3.749999999999987
 20
32.0
 30
0.0
 11
3.749999999999987
 21
30.50000000000001
 31
0.0
  0
LINE
  5
146D
330
1466
100
AcDbEntity
  8
0
100
AcDbLine
 10
-30.00000000000146
 20
0.0
 30
0.0
 11
-26.00000000000148
 21
0.0
 31
0.0
  0
LINE
  5
146E
330
1466
100
AcDbEntity
  8
0
100
AcDbLine
 10
-26.00000000000148
 20
0.0
 30
0.0
 11
-26.00000000000148
 21
2.499999999999993
 31
0.0
  0
LINE
  5
146F
330
1466
100
AcDbEntity
  8
0
100
AcDbLine
 10
-26.00000000000148
 20
2.499999999999993
 30
0.0
 11
-30.00000000000146
 21
2.499999999999984
 31
0.0
  0
LINE
  5
1470
330
1466
100
AcDbEntity
  8
0
100
AcDbLine
 10
-30.00000000000146
 20
2.499999999999984
 30
0.0
 11
-30.00000000000146
 21
0.0
 31
0.0
  0
LINE
  5
1471
330
1466
100
AcDbEntity
  8
0
100
AcDbLine
 10
1.249999999999987
 20
109.4999999999986
 30
0.0
 11
1.249999999999987
 21
113.4999999999986
 31
0.0
  0
LINE
  5
1472
330
1466
100
AcDbEntity
  8
0
100
AcDbLine
 10
1.249999999999987
 20
113.4999999999986
 30
0.0
 11
-1.250000000000012
 21
113.4999999999986
 31
0.0
  0
LINE
  5
1473
330
1466
100
AcDbEntity
  8
0
100
AcDbLine
 10
-1.250000000000012
 20
113.4999999999986
 30
0.0
 11
-1.250000000000012
 21
109.4999999999986
 31
0.0
  0
LINE
  5
1474
330
1466
100
AcDbEntity
  8
0
100
AcDbLine
 10
-1.250000000000012
 20
109.4999999999986
 30
0.0
 11
1.249999999999987
 21
109.4999999999986
 31
0.0
  0
LINE
  5
1475
330
1466
100
AcDbEntity
  8
0
100
AcDbLine
 10
-3.750000000000027
 20
2.500000000000039
 30
0.0
 11
-26.00000000000148
 21
2.499999999999993
 31
0.0
  0
LINE
  5
1476
330
1466
100
AcDbEntity
  8
0
100
AcDbLine
 10
9.999999999998541
 20
2.500000000000062
 30
0.0
 11
0.580127018922183
 21
2.500000000000043
 31
0.0
  0
LINE
  5
1477
330
1466
100
AcDbEntity
  8
0
100
AcDbLine
 10
9.999999999998546
 20
2.500000000000061
 30
0.0
 11
29.99999999999854
 21
2.500000000000097
 31
0.0
  0
LINE
  5
1478
330
1466
100
AcDbEntity
  8
0
100
AcDbLine
 10
-1.250000000000012
 20
109.4999999999986
 30
0.0
 11
-1.250000000000012
 21
5.000000000000035
 31
0.0
  0
LINE
  5
1479
330
1466
100
AcDbEntity
  8
0
100
AcDbLine
 10
1.249999999999987
 20
5.000000000000035
 30
0.0
 11
1.249999999999987
 21
109.4999999999986
 31
0.0
  0
LINE
  5
147A
330
1466
100
AcDbEntity
  8
0
100
AcDbLine
 10
29.99999999999855
 20
0.0
 30
0.0
 11
9.999999999998552
 21
0.0
 31
0.0
  0
LINE
  5
147B
330
1466
100
AcDbEntity
  8
0
100
AcDbLine
 10
-2.00000000000145
 20
0.0
 30
0.0
 11
9.999999999998545
 21
0.0
 31
0.0
  0
LINE
  5
147C
330
1466
100
AcDbEntity
  8
0
100
AcDbLine
 10
-26.00000000000148
 20
0.0
 30
0.0
 11
-3.750000000000008
 21
0.0
 31
0.0
  0
LINE
  5
147D
330
1466
100
AcDbEntity
  8
0
100
AcDbLine
 10
-3.749999999999992
 20
0.0
 30
0.0
 11
-2.000000000001449
 21
0.0
 31
0.0
  0
LINE
  5
147E
330
1466
100
AcDbEntity
  8
0
100
AcDbLine
 10
29.99999999999854
 20
2.500000000000097
 30
0.0
 11
29.99999999999855
 21
0.0
 31
0.0
  0
LINE
  5
147F
330
1466
100
AcDbEntity
  8
0
100
AcDbLine
 10
-3.750000000000012
 20
105.25
 30
0.0
 11
-3.750000000000012
 21
89.75000000000001
 31
0.0
  0
LINE
  5
1480
330
1466
100
AcDbEntity
  8
0
100
AcDbLine
 10
-3.250000000000012
 20
89.75000000000001
 30
0.0
 11
-3.750000000000012
 21
89.75000000000001
 31
0.0
  0
LINE
  5
1481
330
1466
100
AcDbEntity
  8
0
100
AcDbLine
 10
-3.250000000000012
 20
105.25
 30
0.0
 11
-3.750000000000012
 21
105.25
 31
0.0
  0
ARC
  5
1482
330
1466
100
AcDbEntity
  8
0
100
AcDbCircle
 10
1.249999999999987
 20
69.75
 30
0.0
 40
2.5
100
AcDbArc
 50
0.0
 51
90.00000000000003
  0
ARC
  5
1483
330
1466
100
AcDbEntity
  8
0
100
AcDbCircle
 10
1.249999999999987
 20
66.75000000000003
 30
0.0
 40
2.499999999999893
100
AcDbArc
 50
270.0
 51
0.0
  0
LINE
  5
1484
330
1466
100
AcDbEntity
  8
0
100
AcDbLine
 10
3.749999999999987
 20
69.75000000000003
 30
0.0
 11
3.749999999999987
 21
66.75000000000003
 31
0.0
  0
ARC
  5
1485
330
1466
100
AcDbEntity
  8
0
100
AcDbCircle
 10
1.249999999999987
 20
32.0
 30
0.0
 40
2.5
100
AcDbArc
 50
0.0
 51
90.00000000000003
  0
ARC
  5
1486
330
1466
100
AcDbEntity
  8
0
100
AcDbCircle
 10
9.500000000000003
 20
2.500000000000025
 30
0.0
 40
2.5
100
AcDbArc
 50
0.0
 51
90.0000000000001
  0
ARC
  5
1487
330
1466
100
AcDbEntity
  8
0
100
AcDbCircle
 10
3.749999999999987
 20
5.000000000000025
 30
0.0
 40
2.5
100
AcDbArc
 50
180.0
 51
269.9999999999999
  0
ARC
  5
1488
330
1466
100
AcDbEntity
  8
0
100
AcDbCircle
 10
-3.750000000000012
 20
5.000000000000039
 30
0.0
 40
5.0
100
AcDbArc
 50
270.0000000000001
 51
0.0
  0
ARC
  5
1489
330
1466
100
AcDbEntity
  8
0
100
AcDbCircle
 10
-3.750000000000012
 20
5.000000000000039
 30
0.0
 40
2.500000000000007
100
AcDbArc
 50
269.9999999999997
 51
0.0
  0
ARC
  5
148A
330
1466
100
AcDbEntity
  8
0
100
AcDbCircle
 10
-3.250000000000012
 20
87.75000000000003
 30
0.0
 40
2.0
100
AcDbArc
 50
0.0
 51
90.00000000000003
  0
ARC
  5
148B
330
1466
100
AcDbEntity
  8
0
100
AcDbCircle
 10
-3.250000000000012
 20
107.25
 30
0.0
 40
2.0
100
AcDbArc
 50
270.0
 51
0.0
  0
ENDBLK
  5
1468
330
1466
100
AcDbEntity
  8
0
100
AcDbBlockEnd
  0
BLOCK
  5
148D
330
148C
100
AcDbEntity
  8
0
100
AcDbBlockBegin
  2
CBH220S-ISO
 70
     0
 10
0.0
 20
0.0
 30
0.0
  3
CBH220S-ISO
  1

  0
ELLIPSE
  5
148F
330
148C
100
AcDbEntity
  8
0
100
AcDbEllipse
 10
37.47313521666189
 20
99.40642403808489
 30
0.0
 11
1.25
 21
-2.165063509461095
 31
0.0
210
0.0
220
0.0
230
1.0
 40
0.5773502691896259
 41
0.0
 42
0.7853981633974528
  0
ELLIPSE
  5
1490
330
148C
100
AcDbEntity
  8
0
100
AcDbEllipse
 10
41.00866912259463
 20
99.40642403808485
 30
0.0
 11
-1.250000000000002
 21
-2.165063509461095
 31
0.0
210
0.0
220
0.0
230
1.0
 40
0.5773502691896266
 41
5.497787143782135
 42
6.283185307179585
  0
ELLIPSE
  5
1491
330
148C
100
AcDbEntity
  8
0
100
AcDbEllipse
 10
41.00866912259463
 20
101.855913780868
 30
0.0
 11
-1.249999999999873
 21
-2.165063509461169
 31
0.0
210
0.0
220
0.0
230
1.0
 40
0.5773502691896264
 41
3.926990816986998
 42
5.497787143781902
  0
ELLIPSE
  5
1492
330
148C
100
AcDbEntity
  8
0
100
AcDbEllipse
 10
37.47313521666189
 20
101.855913780868
 30
0.0
 11
1.249999999999869
 21
-2.165063509461171
 31
0.0
210
0.0
220
0.0
230
1.0
 40
0.5773502691896261
 41
0.7853981633976863
 42
2.356194490192585
  0
ELLIPSE
  5
1493
330
148C
100
AcDbEntity
  8
0
100
AcDbEllipse
 10
44.01387294263743
 20
100.1208585463966
 30
0.0
 11
-1.249999999999873
 21
-2.165063509461169
 31
0.0
210
0.0
220
0.0
230
1.0
 40
0.5773502691896267
 41
3.926990816987
 42
5.497787143781901
  0
LINE
  5
1494
330
148C
100
AcDbEntity
  8
0
100
AcDbLine
 10
41.00866912259459
 20
103.8971552331873
 30
0.0
 11
44.01387294263743
 21
102.1620999987159
 31
0.0
  0
ELLIPSE
  5
1495
330
148C
100
AcDbEntity
  8
0
100
AcDbEllipse
 10
19.44191229640491
 20
88.99609263125638
 30
0.0
 11
1.249999999999991
 21
-2.165063509461081
 31
0.0
210
0.0
220
0.0
230
1.0
 40
0.5773502691896259
 41
0.0
 42
0.7853981633974492
  0
ELLIPSE
  5
1496
330
148C
100
AcDbEntity
  8
0
100
AcDbEllipse
 10
19.44191229640491
 20
90.22083750264796
 30
0.0
 11
-1.999999999999999
 21
-3.464101615137755
 31
0.0
210
0.0
220
0.0
230
1.0
 40
0.577350269189626
 41
3.926990816987238
 42
6.283185307179584
  0
LINE
  5
1497
330
148C
100
AcDbEntity
  8
0
100
AcDbLine
 10
19.44191229640491
 20
93.48682382635887
 30
0.0
 11
37.47313521666187
 21
103.8971552331873
 31
0.0
  0
LINE
  5
1498
330
148C
100
AcDbEntity
  8
0
100
AcDbLine
 10
-10.07979581813345
 20
-76.65065122445604
 30
0.0
 11
-10.07979581813337
 21
62.97026411418517
 31
0.0
  0
ELLIPSE
  5
1499
330
148C
100
AcDbEntity
  8
0
100
AcDbEllipse
 10
-7.251368693387281
 20
64.60325727604057
 30
0.0
 11
2.000000000000207
 21
3.464101615137636
 31
0.0
210
0.0
220
0.0
230
1.0
 40
0.5773502691896259
 41
0.0
 42
2.356194490192589
  0
ELLIPSE
  5
149A
330
148C
100
AcDbEntity
  8
0
100
AcDbEllipse
 10
-7.251368693387281
 20
-75.0176580626006
 30
0.0
 11
-2.000000000000004
 21
-3.464101615137753
 31
0.0
210
0.0
220
0.0
230
1.0
 40
0.5773502691896259
 41
5.497787143782144
 42
6.283185307179591
  0
ELLIPSE
  5
149B
330
148C
100
AcDbEntity
  8
0
100
AcDbEllipse
 10
19.44191229640491
 20
91.44558237403956
 30
0.0
 11
-1.25000000000013
 21
2.165063509461021
 31
0.0
210
0.0
220
0.0
230
1.0
 40
0.5773502691896259
 41
3.926990816987004
 42
5.497787143781899
  0
ELLIPSE
  5
149C
330
148C
100
AcDbEntity
  8
0
100
AcDbEllipse
 10
44.01387294263743
 20
97.67136880361343
 30
0.0
 11
-1.250000000000002
 21
-2.165063509461095
 31
0.0
210
0.0
220
0.0
230
1.0
 40
0.5773502691896267
 41
5.497787143782143
 42
6.283185307179595
  0
ELLIPSE
  5
149D
330
148C
100
AcDbEntity
  8
0
100
AcDbEllipse
 10
44.01387294263743
 20
98.89611367500505
 30
0.0
 11
1.999999999999788
 21
-3.464101615137876
 31
0.0
210
0.0
220
0.0
230
1.0
 40
0.577350269189625
 41
0.0
 42
2.356194490192587
  0
ELLIPSE
  5
149E
330
148C
100
AcDbEntity
  8
0
100
AcDbEllipse
 10
-8.312028865167011
 20
63.99088484034482
 30
0.0
 11
-2.5
 21
0.000000000000149
 31
0.0
210
0.0
220
0.0
230
1.0
 40
0.5773502691896257
 41
0.7853981633976908
 42
2.356194490192587
  0
ELLIPSE
  5
149F
330
148C
100
AcDbEntity
  8
0
100
AcDbEllipse
 10
-8.312028865167091
 20
-75.63003049829639
 30
0.0
 11
2.5
 21
0.000000000000149
 31
0.0
210
0.0
220
0.0
230
1.0
 40
0.5773502691896257
 41
3.926990816987
 42
5.497787143781896
  0
LINE
  5
14A0
330
148C
100
AcDbEntity
  8
0
100
AcDbLine
 10
-6.544261912200726
 20
-76.65065122445604
 30
0.0
 11
-6.544261912200646
 21
62.97026411418517
 31
0.0
  0
ELLIPSE
  5
14A1
330
148C
100
AcDbEntity
  8
0
100
AcDbEllipse
 10
-6.190708521607461
 20
-74.40528562690481
 30
0.0
 11
2.499999999999893
 21
-0.0000000000000429
 31
0.0
210
0.0
220
0.0
230
1.0
 40
0.5773502691896257
 41
5.497787143782247
 42
6.283185307179706
  0
ELLIPSE
  5
14A2
330
148C
100
AcDbEntity
  8
0
100
AcDbEllipse
 10
-5.483601740420915
 20
-76.03827878876025
 30
0.0
 11
-0.7500000000000783
 21
-1.299038105676613
 31
0.0
210
0.0
220
0.0
230
1.0
 40
0.5773502691896261
 41
5.497787143782386
 42
8.639379797372178
  0
ELLIPSE
  5
14A3
330
148C
100
AcDbEntity
  8
0
100
AcDbEllipse
 10
-6.190708521607533
 20
65.21562971173631
 30
0.0
 11
2.5
 21
-0.0000000000000026
 31
0.0
210
0.0
220
0.0
230
1.0
 40
0.5773502691896257
 41
5.497787143782147
 42
6.283185307179597
  0
LINE
  5
14A4
330
148C
100
AcDbEntity
  8
0
100
AcDbLine
 10
-4.422941568641167
 20
64.19500898557664
 30
0.0
 11
-4.422941568641096
 21
-75.42590635306446
 31
0.0
  0
ELLIPSE
  5
14A5
330
148C
100
AcDbEntity
  8
0
100
AcDbEllipse
 10
-5.483601740420915
 20
63.58263654988089
 30
0.0
 11
0.7500000000000783
 21
1.299038105676613
 31
0.0
210
0.0
220
0.0
230
1.0
 40
0.5773502691896261
 41
5.497787143782386
 42
8.639379797372178
  0
SPLINE
  5
14A6
330
148C
100
AcDbEntity
  8
0
100
AcDbSpline
210
0.0
220
0.0
230
1.0
 70
     8
 71
     3
 72
    28
 73
    24
 74
     0
 42
0.000000001
 43
0.0000000001
 40
3.202115928026579
 40
3.202115928026579
 40
3.202115928026579
 40
3.202115928026579
 40
3.293458456403996
 40
3.293458456403996
 40
3.435454010707174
 40
3.435454010707174
 40
3.577818157959039
 40
3.577818157959039
 40
3.725723663290883
 40
3.725723663290883
 40
3.880249013817513
 40
3.880249013817513
 40
4.038716437692247
 40
4.038716437692247
 40
4.196072480006002
 40
4.196072480006002
 40
4.347721259668329
 40
4.347721259668329
 40
4.492474312354054
 40
4.492474312354054
 40
4.633724411786519
 40
4.633724411786519
 40
4.651865705947136
 40
4.651865705947136
 40
4.651865705947136
 40
4.651865705947136
 10
38.72154348521434
 20
97.24044154204406
 30
0.0
 10
38.72317460167174
 20
97.24127565649212
 30
0.0
 10
38.72843055586917
 20
97.24386851821391
 30
0.0
 10
38.75028024276648
 20
97.25313466977594
 30
0.0
 10
38.77155241152337
 20
97.26123888539163
 30
0.0
 10
38.82695521241135
 20
97.27836347196493
 30
0.0
 10
38.86110707266002
 20
97.2873980325474
 30
0.0
 10
38.9401656072555
 20
97.30401678089364
 30
0.0
 10
38.98543401704208
 20
97.31153661085489
 30
0.0
 10
39.08390887574089
 20
97.32313660881018
 30
0.0
 10
39.137377550879
 20
97.32704987682369
 30
0.0
 10
39.2471667360372
 20
97.33001485048454
 30
0.0
 10
39.30352391723186
 20
97.32893914321964
 30
0.0
 10
39.41216924951895
 20
97.32190168958545
 30
0.0
 10
39.46448141047122
 20
97.31597092514517
 30
0.0
 10
39.55863884935994
 20
97.30097958108084
 30
0.0
 10
39.6007910286751
 20
97.29203520537152
 30
0.0
 10
39.67090203183995
 20
97.27392309557465
 30
0.0
 10
39.6994110524574
 20
97.26477716328369
 30
0.0
 10
39.74085708281328
 20
97.24959154312504
 30
0.0
 10
39.75413700746502
 20
97.24347195690166
 30
0.0
 10
39.75947031029856
 20
97.24084274974158
 30
0.0
 10
39.75993690238463
 20
97.2406072032737
 30
0.0
 10
39.7602608540421
 20
97.24044154204408
 30
0.0
  0
LINE
  5
14A7
330
148C
100
AcDbEntity
  8
0
100
AcDbLine
 10
20.69191229640491
 20
86.83102912179528
 30
0.0
 11
38.72313521666189
 21
97.24136052862379
 31
0.0
  0
SPLINE
  5
14A8
330
148C
100
AcDbEntity
  8
0
100
AcDbSpline
210
0.0
220
0.0
230
1.0
 70
     8
 71
     3
 72
    16
 73
    12
 74
     0
 42
0.000000001
 43
0.0000000001
 40
3.926990816987241
 40
3.926990816987241
 40
3.926990816987241
 40
3.926990816987241
 40
4.084070449666731
 40
4.084070449666731
 40
4.24115008234622
 40
4.24115008234622
 40
4.39822971502571
 40
4.39822971502571
 40
4.5553093477052
 40
4.5553093477052
 40
4.712388980384689
 40
4.712388980384689
 40
4.712388980384689
 40
4.712388980384689
 10
17.44191229640491
 20
86.75673588751022
 30
0.0
 10
17.67753174542415
 20
86.62070093519265
 30
0.0
 10
17.93174921897193
 20
86.51789069573617
 30
0.0
 10
18.43982802532793
 20
86.3849829811185
 30
0.0
 10
18.69304736820734
 20
86.3543597765463
 30
0.0
 10
19.17272605975313
 20
86.34908377063482
 30
0.0
 10
19.39936144366045
 20
86.37388531286097
 30
0.0
 10
19.8197214317663
 20
86.45886752480013
 30
0.0
 10
20.01377716020737
 20
86.51893316967706
 30
0.0
 10
20.37293315239793
 20
86.66060716070182
 30
0.0
 10
20.53820148925325
 20
86.7422841459089
 30
0.0
 10
20.69191229640491
 20
86.83102912179528
 30
0.0
  0
LINE
  5
14A9
330
148C
100
AcDbEntity
  8
0
100
AcDbLine
 10
39.75866912259463
 20
97.24136052862377
 30
0.0
 11
42.76387294263743
 21
95.50630529415235
 31
0.0
  0
SPLINE
  5
14AA
330
148C
100
AcDbEntity
  8
0
100
AcDbSpline
210
0.0
220
0.0
230
1.0
 70
     8
 71
     3
 72
    16
 73
    12
 74
     0
 42
0.000000001
 43
0.0000000001
 40
4.71238898038469
 40
4.71238898038469
 40
4.71238898038469
 40
4.71238898038469
 40
4.86946861306418
 40
4.86946861306418
 40
5.026548245743669
 40
5.026548245743669
 40
5.183627878423159
 40
5.183627878423159
 40
5.340707511102649
 40
5.340707511102649
 40
5.497787143782137
 40
5.497787143782137
 40
5.497787143782137
 40
5.497787143782137
 10
42.76387294263743
 20
95.50630529415235
 30
0.0
 10
42.9175837497891
 20
95.41756031826597
 30
0.0
 10
43.08285208664442
 20
95.33588333305889
 30
0.0
 10
43.44200807883497
 20
95.19420934203413
 30
0.0
 10
43.63606380727605
 20
95.1341436971572
 30
0.0
 10
44.05642379538188
 20
95.04916148521804
 30
0.0
 10
44.28305917928923
 20
95.02435994299188
 30
0.0
 10
44.76273787083499
 20
95.02963594890339
 30
0.0
 10
45.01595721371441
 20
95.06025915347557
 30
0.0
 10
45.52403602007041
 20
95.19316686809323
 30
0.0
 10
45.7782534936182
 20
95.2959771075497
 30
0.0
 10
46.01387294263743
 20
95.43201205986727
 30
0.0
  0
SPLINE
  5
14AB
330
148C
100
AcDbEntity
  8
0
100
AcDbSpline
210
0.0
220
0.0
230
1.0
 70
     8
 71
     3
 72
    22
 73
    18
 74
     0
 42
0.000000001
 43
0.0000000001
 40
3.926990816987239
 40
3.926990816987239
 40
3.926990816987239
 40
3.926990816987239
 40
4.116805541467796
 40
4.116805541467796
 40
4.320284866581095
 40
4.320284866581095
 40
4.566908685584335
 40
4.566908685584335
 40
4.894382107703334
 40
4.894382107703334
 40
5.316631577384133
 40
5.316631577384133
 40
5.766190867036893
 40
5.766190867036893
 40
6.215036425183772
 40
6.215036425183772
 40
6.283185307179586
 40
6.283185307179586
 40
6.283185307179586
 40
6.283185307179586
 10
-9.251368693387291
 20
-78.48175967773833
 30
0.0
 10
-8.966646606666461
 20
-78.64614405115088
 30
0.0
 10
-8.654922740019648
 20
-78.76125685502177
 30
0.0
 10
-8.020685900801041
 20
-78.89137602367274
 30
0.0
 10
-7.700634778552171
 20
-78.9002854141518
 30
0.0
 10
-7.053897331373759
 20
-78.83570070611085
 30
0.0
 10
-6.739031673343465
 20
-78.74659234413307
 30
0.0
 10
-6.090371099494689
 20
-78.48182929754142
 30
0.0
 10
-5.781138899725499
 20
-78.28748039258023
 30
0.0
 10
-5.160011942830466
 20
-77.7968838113022
 30
0.0
 10
-4.872175711938311
 20
-77.48516170217055
 30
0.0
 10
-4.366301794650357
 20
-76.78981967603931
 30
0.0
 10
-4.154820187505441
 20
-76.4024541417357
 30
0.0
 10
-3.835470054614216
 20
-75.56952262860062
 30
0.0
 10
-3.7253601654026
 20
-75.12465259103689
 30
0.0
 10
-3.692975766539596
 20
-74.55809062690619
 30
0.0
 10
-3.690708521607461
 20
-74.48228951068319
 30
0.0
 10
-3.690708521607461
 20
-74.40528562690481
 30
0.0
  0
LINE
  5
14AC
330
148C
100
AcDbEntity
  8
0
100
AcDbLine
 10
-3.690708521607541
 20
-74.40528562690485
 30
0.0
 11
-3.690708521607541
 21
65.21562971173631
 31
0.0
  0
SPLINE
  5
14AD
330
148C
100
AcDbEntity
  8
0
100
AcDbSpline
210
0.0
220
0.0
230
1.0
 70
     8
 71
     3
 72
    16
 73
    12
 74
     0
 42
0.000000001
 43
0.0000000001
 40
0.0
 40
0.0
 40
0.0
 40
0.0
 40
0.1570796326794895
 40
0.1570796326794895
 40
0.314159265358979
 40
0.314159265358979
 40
0.4712388980384685
 40
0.4712388980384685
 40
0.628318530717958
 40
0.628318530717958
 40
0.7853981633974475
 40
0.7853981633974475
 40
0.7853981633974475
 40
0.7853981633974475
 10
-3.690708521607461
 20
65.21562971173636
 30
0.0
 10
-3.690708521607461
 20
65.3931196635091
 30
0.0
 10
-3.702608345941262
 20
65.57708473427055
 30
0.0
 10
-3.759493066753574
 20
65.95895994294136
 30
0.0
 10
-3.804502556615991
 20
66.15704995595969
 30
0.0
 10
-3.941085796259802
 20
66.56358349036344
 30
0.0
 10
-4.032924722592587
 20
66.77225626133671
 30
0.0
 10
-4.277333223515347
 20
67.18503219091367
 30
0.0
 10
-4.430463368059855
 20
67.38901497229076
 30
0.0
 10
-4.799604228455693
 20
67.7625702684107
 30
0.0
 10
-5.01574924436805
 20
67.93132393886075
 30
0.0
 10
-5.251368693387279
 20
68.06735889117831
 30
0.0
  0
ELLIPSE
  5
14AE
330
148C
100
AcDbEntity
  8
0
100
AcDbEllipse
 10
39.24090216962824
 20
102.8765345070277
 30
0.0
 11
2.5
 21
-0.0000000000001492
 31
0.0
210
0.0
220
0.0
230
1.0
 40
0.5773502691896257
 41
0.7853981633976837
 42
2.356194490192578
  0
LINE
  5
14AF
330
148C
100
AcDbEntity
  8
0
100
AcDbLine
 10
42.77643607556098
 20
111.4497486067688
 30
0.0
 11
41.00866912259461
 21
110.4291278806091
 31
0.0
  0
LINE
  5
14B0
330
148C
100
AcDbEntity
  8
0
100
AcDbLine
 10
37.47313521666187
 20
22.65574543087862
 30
0.0
 11
37.47313521666187
 21
49.1918843110297
 31
0.0
  0
LINE
  5
14B1
330
148C
100
AcDbEntity
  8
0
100
AcDbLine
 10
37.47313521666187
 20
90.01671335741603
 30
0.0
 11
37.47313521666187
 21
96.51967269213674
 31
0.0
  0
LINE
  5
14B2
330
148C
100
AcDbEntity
  8
0
100
AcDbLine
 10
37.47313521666188
 20
103.8971552331873
 30
0.0
 11
37.47313521666187
 21
110.4291278806091
 31
0.0
  0
ELLIPSE
  5
14B3
330
148C
100
AcDbEntity
  8
0
100
AcDbEllipse
 10
39.24090216962824
 20
109.4085071544494
 30
0.0
 11
5.0
 21
-0.0000000000002989
 31
0.0
210
0.0
220
0.0
230
1.0
 40
0.5773502691896258
 41
0.7853981633976899
 42
2.356194490192587
  0
LINE
  5
14B4
330
148C
100
AcDbEntity
  8
0
100
AcDbLine
 10
41.00866912259461
 20
110.4291278806091
 30
0.0
 11
41.00866912259459
 21
103.8971552331873
 31
0.0
  0
ELLIPSE
  5
14B5
330
148C
100
AcDbEntity
  8
0
100
AcDbEllipse
 10
39.24090216962824
 20
109.4085071544494
 30
0.0
 11
-2.5
 21
-0.0000000000001496
 31
0.0
210
0.0
220
0.0
230
1.0
 40
0.5773502691896258
 41
3.926990816986993
 42
5.49778714378189
  0
ELLIPSE
  5
14B6
330
148C
100
AcDbEntity
  8
0
100
AcDbEllipse
 10
39.24090216962824
 20
88.99609263125633
 30
0.0
 11
2.5
 21
-0.0000000000001492
 31
0.0
210
0.0
220
0.0
230
1.0
 40
0.5773502691896258
 41
1.308996938995445
 42
2.356194490192592
  0
SPLINE
  5
14B7
330
148C
100
AcDbEntity
  8
0
100
AcDbSpline
210
0.0
220
0.0
230
1.0
 70
     8
 71
     3
 72
    12
 73
     8
 74
     0
 42
0.000000001
 43
0.0000000001
 40
0.0
 40
0.0
 40
0.0
 40
0.0
 40
0.0483939315710593
 40
0.0483939315710593
 40
0.0973081656924015
 40
0.0973081656924015
 40
0.1727322110508216
 40
0.1727322110508216
 40
0.1727322110508216
 40
0.1727322110508216
 10
39.88794978238558
 20
90.39028647081922
 30
0.0
 10
40.04376627678133
 20
90.36618556255435
 30
0.0
 10
40.19244816427877
 20
90.31106405248937
 30
0.0
 10
40.46868884348589
 20
90.14647243981546
 30
0.0
 10
40.59159043967805
 20
90.03919103228907
 30
0.0
 10
40.86386557008134
 20
89.7249290419643
 30
0.0
 10
40.96121062779868
 20
89.53217301917723
 30
0.0
 10
41.00866912259461
 20
89.43320987880914
 30
0.0
  0
LINE
  5
14B8
330
148C
100
AcDbEntity
  8
0
100
AcDbLine
 10
41.00866912259459
 20
96.51967269213674
 30
0.0
 11
41.00866912259459
 21
89.43320987880918
 31
0.0
  0
ELLIPSE
  5
14B9
330
148C
100
AcDbEntity
  8
0
100
AcDbEllipse
 10
39.24090216962824
 20
48.17126358487005
 30
0.0
 11
5.0
 21
-0.0000000000002986
 31
0.0
210
0.0
220
0.0
230
1.0
 40
0.5773502691896257
 41
1.308996938995433
 42
2.356194490192583
  0
SPLINE
  5
14BA
330
148C
100
AcDbEntity
  8
0
100
AcDbSpline
210
0.0
220
0.0
230
1.0
 70
     8
 71
     3
 72
     8
 73
     4
 74
     0
 42
0.000000001
 43
0.0000000001
 40
0.0
 40
0.0
 40
0.0
 40
0.0
 40
0.1086383184833989
 40
0.1086383184833989
 40
0.1086383184833989
 40
0.1086383184833989
 10
40.53499739514293
 20
50.95965126399573
 30
0.0
 10
40.88478592029332
 20
50.90553670717731
 30
0.0
 10
41.22221824022759
 20
50.85744220524595
 30
0.0
 10
41.53657769444565
 20
50.8219354799105
 30
0.0
  0
ELLIPSE
  5
14BB
330
148C
100
AcDbEntity
  8
0
100
AcDbEllipse
 10
39.24090216962823
 20
21.63512470471897
 30
0.0
 11
2.5
 21
-0.0000000000001492
 31
0.0
210
0.0
220
0.0
230
1.0
 40
0.5773502691896258
 41
0.7853981633976908
 42
2.356194490192581
  0
LINE
  5
14BC
330
148C
100
AcDbEntity
  8
0
100
AcDbLine
 10
41.00866912259459
 20
49.77538778963652
 30
0.0
 11
41.00866912259459
 21
22.65574543087862
 31
0.0
  0
SPLINE
  5
14BD
330
148C
100
AcDbEntity
  8
0
100
AcDbSpline
210
0.0
220
0.0
230
1.0
 70
     8
 71
     3
 72
    12
 73
     8
 74
     0
 42
0.000000001
 43
0.0000000001
 40
0.0
 40
0.0
 40
0.0
 40
0.0
 40
0.037320367657879
 40
0.037320367657879
 40
0.0541955352940359
 40
0.0541955352940359
 40
0.0700894530122672
 40
0.0700894530122672
 40
0.0700894530122672
 40
0.0700894530122672
 10
41.00866912259461
 20
49.77538778963654
 30
0.0
 10
40.95518818141126
 20
49.72562077465797
 30
0.0
 10
40.83086712494406
 20
49.6229325954678
 30
0.0
 10
40.50241621238452
 20
49.54758395933639
 30
0.0
 10
40.38814570318066
 20
49.53561332752222
 30
0.0
 10
40.14397001404546
 20
49.53514708856397
 30
0.0
 10
40.01827514343726
 20
49.54529268591905
 30
0.0
 10
39.88794978238558
 20
49.5654574244329
 30
0.0
  0
ELLIPSE
  5
14BE
330
148C
100
AcDbEntity
  8
0
100
AcDbEllipse
 10
39.24090216962824
 20
48.17126358487005
 30
0.0
 11
-2.5
 21
0.0000000000000002
 31
0.0
210
0.0
220
0.0
230
1.0
 40
0.5773502691896259
 41
4.450589592585103
 42
5.497787143782137
  0
LINE
  5
14BF
330
148C
100
AcDbEntity
  8
0
100
AcDbLine
 10
41.03367037281585
 20
49.78982226818184
 30
0.0
 11
41.00866912259459
 21
49.77538778963652
 31
0.0
  0
LINE
  5
14C0
330
148C
100
AcDbEntity
  8
0
100
AcDbLine
 10
39.88794978238559
 20
49.56545742443288
 30
0.0
 11
40.53499739514294
 21
50.95965126399573
 31
0.0
  0
LINE
  5
14C1
330
148C
100
AcDbEntity
  8
0
100
AcDbLine
 10
37.47313521666187
 20
49.1918843110297
 30
0.0
 11
35.7053682636955
 21
50.21250503718936
 31
0.0
  0
LINE
  5
14C2
330
148C
100
AcDbEntity
  8
0
100
AcDbLine
 10
37.47313521666187
 20
110.4291278806091
 30
0.0
 11
35.7053682636955
 21
111.4497486067688
 31
0.0
  0
LINE
  5
14C3
330
148C
100
AcDbEntity
  8
0
100
AcDbLine
 10
39.24090216962824
 20
100.8352930547084
 30
0.0
 11
42.24610598967106
 21
99.10023782023698
 31
0.0
  0
LINE
  5
14C4
330
148C
100
AcDbEntity
  8
0
100
AcDbLine
 10
39.24090216962824
 20
98.38580331192524
 30
0.0
 11
21.20967924937128
 21
87.97547190509673
 31
0.0
  0
LINE
  5
14C5
330
148C
100
AcDbEntity
  8
0
100
AcDbLine
 10
39.24090216962824
 20
100.8352930547084
 30
0.0
 11
39.24090216962824
 21
98.38580331192524
 31
0.0
  0
LINE
  5
14C6
330
148C
100
AcDbEntity
  8
0
100
AcDbLine
 10
42.24610598967106
 20
96.65074807745378
 30
0.0
 11
39.24090216962824
 21
98.38580331192524
 31
0.0
  0
ELLIPSE
  5
14C7
330
148C
100
AcDbEntity
  8
0
100
AcDbEllipse
 10
42.24610598967106
 20
97.8754929488454
 30
0.0
 11
0.7499999999999215
 21
-1.299038105676704
 31
0.0
210
0.0
220
0.0
230
1.0
 40
0.577350269189625
 41
5.497787143782377
 42
8.639379797372171
  0
ELLIPSE
  5
14C8
330
148C
100
AcDbEntity
  8
0
100
AcDbEllipse
 10
21.20967924937128
 20
89.20021677648831
 30
0.0
 11
-0.7500000000000004
 21
-1.299038105676658
 31
0.0
210
0.0
220
0.0
230
0.9999999999999998
 40
0.577350269189626
 41
3.926990816987241
 42
7.068583470577034
  0
LINE
  5
14C9
330
148C
100
AcDbEntity
  8
0
100
AcDbLine
 10
21.20967924937128
 20
90.42496164787989
 30
0.0
 11
39.24090216962824
 21
100.8352930547084
 31
0.0
  0
LINE
  5
14CA
330
148C
100
AcDbEntity
  8
0
100
AcDbLine
 10
19.9722423822938
 20
-57.05473328219003
 30
0.0
 11
17.14381525754762
 21
-52.15575379662364
 31
0.0
  0
LINE
  5
14CB
330
148C
100
AcDbEntity
  8
0
100
AcDbLine
 10
59.57022212874249
 20
15.2052141299125
 30
0.0
 11
56.7417950039963
 21
13.57222096805706
 31
0.0
  0
LINE
  5
14CC
330
148C
100
AcDbEntity
  8
0
100
AcDbLine
 10
61.33798908170884
 20
16.22583485607217
 30
0.0
 11
59.57022212874249
 21
15.2052141299125
 31
0.0
  0
LINE
  5
14CD
330
148C
100
AcDbEntity
  8
0
100
AcDbLine
 10
59.5702221287425
 20
96.44662393222127
 30
0.0
 11
61.33798908170885
 21
97.46724465838092
 31
0.0
  0
LINE
  5
14CE
330
148C
100
AcDbEntity
  8
0
100
AcDbLine
 10
61.33798908170885
 20
97.46724465838092
 30
0.0
 11
58.50956195696266
 21
102.3662241439472
 31
0.0
  0
LINE
  5
14CF
330
148C
100
AcDbEntity
  8
0
100
AcDbLine
 10
-36.41952341733137
 20
-111.8620662769636
 30
0.0
 11
-39.24795054207756
 21
-110.2290731151082
 31
0.0
  0
LINE
  5
14D0
330
148C
100
AcDbEntity
  8
0
100
AcDbLine
 10
-39.24795054207756
 20
-110.2290731151082
 30
0.0
 11
-41.01571749504393
 21
-109.2084523889485
 31
0.0
  0
LINE
  5
14D1
330
148C
100
AcDbEntity
  8
0
100
AcDbLine
 10
-38.18729037029874
 20
68.78780225329517
 30
0.0
 11
-41.01571749504492
 21
63.88882276772882
 31
0.0
  0
LINE
  5
14D2
330
148C
100
AcDbEntity
  8
0
100
AcDbLine
 10
-41.01571749504492
 20
63.88882276772882
 30
0.0
 11
-39.24795054207855
 21
62.86820204156916
 31
0.0
  0
LINE
  5
14D3
330
148C
100
AcDbEntity
  8
0
100
AcDbLine
 10
-39.24795054207855
 20
62.86820204156916
 30
0.0
 11
-36.41952341733237
 21
67.7671815271355
 31
0.0
  0
LINE
  5
14D4
330
148C
100
AcDbEntity
  8
0
100
AcDbLine
 10
-36.41952341733237
 20
67.7671815271355
 30
0.0
 11
-38.18729037029874
 21
68.78780225329517
 31
0.0
  0
LINE
  5
14D5
330
148C
100
AcDbEntity
  8
0
100
AcDbLine
 10
56.7417950039963
 20
101.3456034177876
 30
0.0
 11
59.5702221287425
 21
96.44662393222127
 31
0.0
  0
LINE
  5
14D6
330
148C
100
AcDbEntity
  8
0
100
AcDbLine
 10
58.50956195696266
 20
102.3662241439472
 30
0.0
 11
56.7417950039963
 21
101.3456034177876
 31
0.0
  0
LINE
  5
14D7
330
148C
100
AcDbEntity
  8
0
100
AcDbLine
 10
17.14381525754762
 20
-52.15575379662364
 30
0.0
 11
17.14381525754763
 21
-36.19496978398681
 31
0.0
  0
LINE
  5
14D8
330
148C
100
AcDbEntity
  8
0
100
AcDbLine
 10
26.60716457059577
 20
-60.88540739365839
 30
0.0
 11
19.9722423822938
 21
-57.05473328219003
 31
0.0
  0
ELLIPSE
  5
14D9
330
148C
100
AcDbEntity
  8
0
100
AcDbEllipse
 10
36.94280513077092
 20
-52.56400208708754
 30
0.0
 11
-1.249999999999993
 21
2.165063509461095
 31
0.0
210
0.0
220
0.0
230
0.9999999999999998
 40
0.5773502691896248
 41
5.497787143782139
 42
7.863982300761991
  0
LINE
  5
14DA
330
148C
100
AcDbEntity
  8
0
100
AcDbLine
 10
45.42808650500947
 20
-55.42174012033463
 30
0.0
 11
36.94280513077092
 21
-50.52276063476828
 31
0.0
  0
ELLIPSE
  5
14DB
330
148C
100
AcDbEntity
  8
0
100
AcDbEllipse
 10
45.42808650500948
 20
-39.09180850178009
 30
0.0
 11
9.999999999998932
 21
-17.32050807568939
 31
0.0
210
0.0
220
0.0
230
1.0
 40
0.5773502691896248
 41
5.49778714378238
 42
8.639379797372173
  0
LINE
  5
14DC
330
148C
100
AcDbEntity
  8
0
100
AcDbLine
 10
36.94280513077092
 20
-17.86289739765918
 30
0.0
 11
45.42808650500947
 21
-22.76187688322553
 31
0.0
  0
ELLIPSE
  5
14DD
330
148C
100
AcDbEntity
  8
0
100
AcDbEllipse
 10
36.94280513077092
 20
-15.82165594533986
 30
0.0
 11
1.249999999999995
 21
-2.165063509461099
 31
0.0
210
0.0
220
0.0
230
1.0
 40
0.5773502691896248
 41
4.926145112857542
 42
5.497787143782138
  0
ELLIPSE
  5
14DE
330
148C
100
AcDbEntity
  8
0
100
AcDbEllipse
 10
29.51818392831315
 20
-20.92475957613869
 30
0.0
 11
1.249999999999996
 21
-2.165063509461098
 31
0.0
210
0.0
220
0.0
230
1.0
 40
0.5773502691896248
 41
4.749591108298421
 42
7.919068341885416
  0
ELLIPSE
  5
14DF
330
148C
100
AcDbEntity
  8
0
100
AcDbEllipse
 10
47.19585345797681
 20
-30.11034611157562
 30
0.0
 11
1.249999999999996
 21
-2.165063509461099
 31
0.0
210
0.0
220
0.0
230
1.0
 40
0.5773502691896248
 41
0.0
 42
6.283185307179586
  0
ELLIPSE
  5
14E0
330
148C
100
AcDbEntity
  8
0
100
AcDbEllipse
 10
54.26692126984227
 20
-44.19491213257893
 30
0.0
 11
1.249999999999996
 21
-2.165063509461099
 31
0.0
210
0.0
220
0.0
230
1.0
 40
0.5773502691896248
 41
0.0
 42
6.283185307179586
  0
ELLIPSE
  5
14E1
330
148C
100
AcDbEntity
  8
0
100
AcDbEllipse
 10
47.19585345797678
 20
-50.11451234430492
 30
0.0
 11
1.249999999999996
 21
-2.165063509461099
 31
0.0
210
0.0
220
0.0
230
1.0
 40
0.5773502691896248
 41
0.0
 42
6.283185307179586
  0
ELLIPSE
  5
14E2
330
148C
100
AcDbEntity
  8
0
100
AcDbEllipse
 10
22.44711611644769
 20
-36.02994632330164
 30
0.0
 11
1.249999999999996
 21
-2.165063509461099
 31
0.0
210
0.0
220
0.0
230
1.0
 40
0.5773502691896248
 41
0.0
 42
6.283185307179586
  0
ELLIPSE
  5
14E3
330
148C
100
AcDbEntity
  8
0
100
AcDbEllipse
 10
29.51818392831315
 20
-48.27739503721751
 30
0.0
 11
1.249999999999996
 21
-2.165063509461099
 31
0.0
210
0.0
220
0.0
230
1.0
 40
0.5773502691896248
 41
0.0
 42
6.283185307179586
  0
ELLIPSE
  5
14E4
330
148C
100
AcDbEntity
  8
0
100
AcDbEllipse
 10
22.44711611644769
 20
-52.35987794185614
 30
0.0
 11
1.249999999999996
 21
-2.165063509461099
 31
0.0
210
0.0
220
0.0
230
1.0
 40
0.5773502691896248
 41
0.0
 42
6.283185307179586
  0
ELLIPSE
  5
14E5
330
148C
100
AcDbEntity
  8
0
100
AcDbEllipse
 10
38.35701869314401
 20
9.285613918187642
 30
0.0
 11
25.74999999999991
 21
-44.60030829489865
 31
0.0
210
0.0
220
0.0
230
1.0
 40
0.5773502691896249
 41
5.258672961118065
 42
5.390786969293496
  0
LINE
  5
14E6
330
148C
100
AcDbEntity
  8
0
100
AcDbLine
 10
34.46793139661795
 20
-30.27811040499483
 30
0.0
 11
34.46793139661795
 21
-30.11034611157505
 31
0.0
  0
ELLIPSE
  5
14E7
330
148C
100
AcDbEntity
  8
0
100
AcDbEllipse
 10
38.35701869314396
 20
-32.3557117091263
 30
0.0
 11
-2.749999999999991
 21
4.763139720814417
 31
0.0
210
0.0
220
0.0
230
1.0
 40
0.5773502691896249
 41
3.926990816987243
 42
7.068583470577036
  0
LINE
  5
14E8
330
148C
100
AcDbEntity
  8
0
100
AcDbLine
 10
42.24610598966996
 20
-34.60107730667757
 30
0.0
 11
42.24610598966996
 21
-39.50005679224393
 31
0.0
  0
ELLIPSE
  5
14E9
330
148C
100
AcDbEntity
  8
0
100
AcDbEllipse
 10
38.35701869314396
 20
-37.25469119469267
 30
0.0
 11
2.749999999999991
 21
-4.763139720814417
 31
0.0
210
0.0
220
0.0
230
1.0
 40
0.5773502691896249
 41
5.49778714378214
 42
7.068583470577036
  0
ELLIPSE
  5
14EA
330
148C
100
AcDbEntity
  8
0
100
AcDbEllipse
 10
38.35701869314401
 20
9.285613918187642
 30
0.0
 11
-31.24999999999667
 21
54.12658773652934
 31
0.0
210
0.0
220
0.0
230
0.9999999999999998
 40
0.5773502691896248
 41
2.11708030752845
 42
2.356194490192587
  0
ELLIPSE
  5
14EB
330
148C
100
AcDbEntity
  8
0
100
AcDbEllipse
 10
28.81107714712558
 20
-30.41918171869581
 30
0.0
 11
-2.749999999999708
 21
4.763139720814584
 31
0.0
210
0.0
220
0.0
230
1.0
 40
0.5773502691896248
 41
5.258672961118182
 42
8.40026561470797
  0
LINE
  5
14EC
330
148C
100
AcDbEntity
  8
0
100
AcDbLine
 10
61.33798908170884
 20
16.22583485607217
 30
0.0
 11
61.33798908170885
 21
97.46724465838092
 31
0.0
  0
LINE
  5
14ED
330
148C
100
AcDbEntity
  8
0
100
AcDbLine
 10
59.5702221287425
 20
96.44662393222127
 30
0.0
 11
59.57022212874249
 21
15.2052141299125
 31
0.0
  0
LINE
  5
14EE
330
148C
100
AcDbEntity
  8
0
100
AcDbLine
 10
41.53899920848553
 20
87.6692856872482
 30
0.0
 11
37.47313521666185
 21
90.01671335741603
 31
0.0
  0
LINE
  5
14EF
330
148C
100
AcDbEntity
  8
0
100
AcDbLine
 10
58.50956195696266
 20
102.3662241439472
 30
0.0
 11
42.77643607556098
 21
111.4497486067688
 31
0.0
  0
ELLIPSE
  5
14F0
330
148C
100
AcDbEntity
  8
0
100
AcDbEllipse
 10
40.12478564611244
 20
74.60534039240458
 30
0.0
 11
-2.749999999999996
 21
4.763139720814415
 31
0.0
210
0.0
220
0.0
230
1.0
 40
0.5773502691896254
 41
0.3272204132950645
 42
0.7853981633974494
  0
LINE
  5
14F1
330
148C
100
AcDbEntity
  8
0
100
AcDbLine
 10
36.23569834958647
 20
76.85070598995581
 30
0.0
 11
36.23569834958647
 21
71.95172650438945
 31
0.0
  0
ELLIPSE
  5
14F2
330
148C
100
AcDbEntity
  8
0
100
AcDbEllipse
 10
40.12478564611249
 20
69.7063609068382
 30
0.0
 11
2.750000000000281
 21
-4.763139720814251
 31
0.0
210
0.0
220
0.0
230
1.0
 40
0.5773502691896253
 41
3.926990816987
 42
5.497787143781897
  0
ELLIPSE
  5
14F3
330
148C
100
AcDbEntity
  8
0
100
AcDbEllipse
 10
38.73690718896646
 20
23.99789755464683
 30
0.0
 11
25.74999999999732
 21
-44.60030829490015
 31
0.0
210
0.0
220
0.0
230
1.0
 40
0.5773502691896254
 41
2.08147554659166
 42
2.318073480464649
  0
ELLIPSE
  5
14F4
330
148C
100
AcDbEntity
  8
0
100
AcDbEllipse
 10
49.67072719213086
 20
62.48036616562782
 30
0.0
 11
2.749999999999996
 21
-4.763139720814415
 31
0.0
210
0.0
220
0.0
230
1.0
 40
0.5773502691896254
 41
5.223068200181293
 42
5.955964893884519
  0
ELLIPSE
  5
14F5
330
148C
100
AcDbEntity
  8
0
100
AcDbEllipse
 10
48.96362041094331
 20
26.22791797243739
 30
0.0
 11
1.250000000000127
 21
-2.165063509461023
 31
0.0
210
0.0
220
0.0
230
0.9999999999999996
 40
0.5773502691896253
 41
3.926990816987002
 42
5.497787143781895
  0
ELLIPSE
  5
14F6
330
148C
100
AcDbEntity
  8
0
100
AcDbEllipse
 10
56.03468822280875
 20
30.31040087707604
 30
0.0
 11
1.250000000000127
 21
-2.165063509461023
 31
0.0
210
0.0
220
0.0
230
0.9999999999999996
 40
0.5773502691896253
 41
3.926990816987002
 42
5.497787143781895
  0
ELLIPSE
  5
14F7
330
148C
100
AcDbEntity
  8
0
100
AcDbEllipse
 10
48.96362041094331
 20
42.55784959099192
 30
0.0
 11
1.250000000000127
 21
-2.165063509461023
 31
0.0
210
0.0
220
0.0
230
0.9999999999999996
 40
0.5773502691896253
 41
3.926990816987
 42
5.497787143781895
  0
ELLIPSE
  5
14F8
330
148C
100
AcDbEntity
  8
0
100
AcDbEllipse
 10
56.03468822280875
 20
46.64033249563056
 30
0.0
 11
1.250000000000127
 21
-2.165063509461023
 31
0.0
210
0.0
220
0.0
230
0.9999999999999996
 40
0.5773502691896253
 41
3.926990816987
 42
5.497787143781895
  0
ELLIPSE
  5
14F9
330
148C
100
AcDbEntity
  8
0
100
AcDbEllipse
 10
31.28595088127958
 20
67.25687116405565
 30
0.0
 11
1.250000000000127
 21
-2.165063509461023
 31
0.0
210
0.0
220
0.0
230
0.9999999999999996
 40
0.5773502691896253
 41
3.926990816987
 42
5.497787143781895
  0
ELLIPSE
  5
14FA
330
148C
100
AcDbEntity
  8
0
100
AcDbEllipse
 10
24.21488306941409
 20
81.34143718505896
 30
0.0
 11
1.249999999999998
 21
-2.165063509461097
 31
0.0
210
0.0
220
0.0
230
1.0
 40
0.5773502691896254
 41
5.105012267981416
 42
5.497787143782138
  0
ELLIPSE
  5
14FB
330
148C
100
AcDbEntity
  8
0
100
AcDbEllipse
 10
31.28595088127956
 20
87.26103739678496
 30
0.0
 11
1.249999999999998
 21
-2.165063509461097
 31
0.0
210
0.0
220
0.0
230
1.0
 40
0.5773502691896253
 41
5.009488633178062
 42
5.497787143782136
  0
ELLIPSE
  5
14FC
330
148C
100
AcDbEntity
  8
0
100
AcDbEllipse
 10
48.96362041094328
 20
77.25895428042028
 30
0.0
 11
1.250000000000127
 21
-2.165063509461023
 31
0.0
210
0.0
220
0.0
230
0.9999999999999996
 40
0.5773502691896253
 41
3.926990816987
 42
5.497787143781895
  0
ELLIPSE
  5
14FD
330
148C
100
AcDbEntity
  8
0
100
AcDbEllipse
 10
56.03468822280875
 20
81.34143718505891
 30
0.0
 11
1.250000000000127
 21
-2.165063509461023
 31
0.0
210
0.0
220
0.0
230
0.9999999999999996
 40
0.5773502691896253
 41
3.926990816986995
 42
5.497787143781891
  0
ELLIPSE
  5
14FE
330
148C
100
AcDbEntity
  8
0
100
AcDbEllipse
 10
56.03468822280875
 20
97.67136880361343
 30
0.0
 11
1.250000000000128
 21
-2.165063509461023
 31
0.0
210
0.0
220
0.0
230
0.9999999999999998
 40
0.5773502691896253
 41
3.926990816987004
 42
5.4977871437819
  0
LINE
  5
14FF
330
148C
100
AcDbEntity
  8
0
100
AcDbLine
 10
-41.01571749504492
 20
63.88882276772882
 30
0.0
 11
-41.01571749504393
 21
-109.2084523889485
 31
0.0
  0
LINE
  5
1500
330
148C
100
AcDbEntity
  8
0
100
AcDbLine
 10
-34.70114870128795
 20
70.80052708433171
 30
0.0
 11
-38.18729037029874
 21
68.78780225329517
 31
0.0
  0
ELLIPSE
  5
1501
330
148C
100
AcDbEntity
  8
0
100
AcDbEllipse
 10
-31.8233293396198
 20
60.21458815355403
 30
0.0
 11
-2.625000000000001
 21
-4.546633369868301
 31
0.0
210
0.0
220
0.0
230
1.0
 40
0.577350269189626
 41
0.3434286642675204
 42
0.7853981633974483
  0
LINE
  5
1502
330
148C
100
AcDbEntity
  8
0
100
AcDbLine
 10
-29.70200899606016
 20
57.15272597507508
 30
0.0
 11
-31.8233293396198
 21
55.92798110368349
 31
0.0
  0
ELLIPSE
  5
1503
330
148C
100
AcDbEntity
  8
0
100
AcDbEllipse
 10
-29.70200899606014
 20
61.43933302494564
 30
0.0
 11
-2.625000000000273
 21
-4.546633369868144
 31
0.0
210
0.0
220
0.0
230
1.0
 40
0.5773502691896259
 41
0.7853981633976872
 42
2.356194490192585
  0
LINE
  5
1504
330
148C
100
AcDbEntity
  8
0
100
AcDbLine
 10
-25.98969839483076
 20
75.8300852637968
 30
0.0
 11
-25.98969839483076
 21
63.58263654988093
 31
0.0
  0
LINE
  5
1505
330
148C
100
AcDbEntity
  8
0
100
AcDbLine
 10
35.7053682636955
 20
111.4497486067688
 30
0.0
 11
-25.98969839483077
 21
75.8300852637968
 31
0.0
  0
ELLIPSE
  5
1506
330
148C
100
AcDbEntity
  8
0
100
AcDbEllipse
 10
29.62424994549221
 20
67.11398426239387
 30
0.0
 11
-12.5
 21
-21.65063509461097
 31
0.0
210
0.0
220
0.0
230
0.9999999999999998
 40
0.5773502691896261
 41
0.0707697366622133
 42
0.7853981633974483
  0
LINE
  5
1507
330
148C
100
AcDbEntity
  8
0
100
AcDbLine
 10
35.7053682636955
 20
50.21250503718936
 30
0.0
 11
29.62424994549221
 21
46.70156973920073
 31
0.0
  0
LINE
  5
1508
330
148C
100
AcDbEntity
  8
0
100
AcDbLine
 10
35.70536826369548
 20
19.59388325239963
 30
0.0
 11
32.38196639211974
 21
17.67511628722008
 31
0.0
  0
ELLIPSE
  5
1509
330
148C
100
AcDbEntity
  8
0
100
AcDbEllipse
 10
29.62424994549222
 20
-39.03057125821049
 30
0.0
 11
-12.5
 21
-21.65063509461096
 31
0.0
210
0.0
220
0.0
230
1.0
 40
0.577350269189626
 41
0.0707697366622124
 42
0.7853981633974483
  0
LINE
  5
150A
330
148C
100
AcDbEntity
  8
0
100
AcDbLine
 10
35.70536826369548
 20
-55.93205048341502
 30
0.0
 11
29.62424994549222
 21
-59.44298578140362
 31
0.0
  0
LINE
  5
150B
330
148C
100
AcDbEntity
  8
0
100
AcDbLine
 10
-39.24795054207756
 20
-110.2290731151082
 30
0.0
 11
-39.24795054207855
 21
62.86820204156914
 31
0.0
  0
LINE
  5
150C
330
148C
100
AcDbEntity
  8
0
100
AcDbLine
 10
41.00866912259461
 20
110.4291278806091
 30
0.0
 11
56.7417950039963
 21
101.3456034177876
 31
0.0
  0
LINE
  5
150D
330
148C
100
AcDbEntity
  8
0
100
AcDbLine
 10
37.47313521666185
 20
-69.20011992349057
 30
0.0
 11
-36.41952341733136
 21
-111.8620662769636
 31
0.0
  0
LINE
  5
150E
330
148C
100
AcDbEntity
  8
0
100
AcDbLine
 10
31.39201689845859
 20
-60.4636065075633
 30
0.0
 11
37.47313521666185
 21
-56.95267120957467
 31
0.0
  0
ELLIPSE
  5
150F
330
148C
100
AcDbEntity
  8
0
100
AcDbEllipse
 10
31.39201689845859
 20
-40.05119198437014
 30
0.0
 11
-12.49999999999871
 21
-21.6506350946117
 31
0.0
210
0.0
220
0.0
230
1.0
 40
0.577350269189626
 41
3.926990816987
 42
7.068583470576793
  0
LINE
  5
1510
330
148C
100
AcDbEntity
  8
0
100
AcDbLine
 10
37.47313521666185
 20
-16.12784216318836
 30
0.0
 11
31.39201689845859
 21
-19.63877746117697
 31
0.0
  0
LINE
  5
1511
330
148C
100
AcDbEntity
  8
0
100
AcDbLine
 10
34.14973334508611
 20
16.65449556106042
 30
0.0
 11
37.47313521666185
 21
18.57326252623998
 31
0.0
  0
ELLIPSE
  5
1512
330
148C
100
AcDbEntity
  8
0
100
AcDbEllipse
 10
34.14973334508611
 20
18.69573701337973
 30
0.0
 11
-1.24999999999987
 21
-2.165063509461167
 31
0.0
210
0.0
220
0.0
230
1.0
 40
0.5773502691896261
 41
3.926990816986998
 42
7.068583470576794
  0
LINE
  5
1513
330
148C
100
AcDbEntity
  8
0
100
AcDbLine
 10
37.47313521666187
 20
22.65574543087862
 30
0.0
 11
34.14973334508611
 21
20.73697846569905
 31
0.0
  0
LINE
  5
1514
330
148C
100
AcDbEntity
  8
0
100
AcDbLine
 10
31.39201689845858
 20
45.68094901304107
 30
0.0
 11
37.47313521666187
 21
49.1918843110297
 31
0.0
  0
ELLIPSE
  5
1515
330
148C
100
AcDbEntity
  8
0
100
AcDbEllipse
 10
31.39201689845858
 20
66.09336353623422
 30
0.0
 11
-12.49999999999871
 21
-21.65063509461171
 31
0.0
210
0.0
220
0.0
230
1.0
 40
0.577350269189626
 41
3.926990816987
 42
7.068583470576792
  0
LINE
  5
1516
330
148C
100
AcDbEntity
  8
0
100
AcDbLine
 10
37.47313521666187
 20
90.01671335741603
 30
0.0
 11
31.39201689845857
 21
86.50577805942738
 31
0.0
  0
LINE
  5
1517
330
148C
100
AcDbEntity
  8
0
100
AcDbLine
 10
-24.22193144186439
 20
74.80946453763715
 30
0.0
 11
37.47313521666187
 21
110.4291278806091
 31
0.0
  0
LINE
  5
1518
330
148C
100
AcDbEntity
  8
0
100
AcDbLine
 10
-24.22193144186439
 20
62.56201582372127
 30
0.0
 11
-24.22193144186439
 21
74.80946453763715
 31
0.0
  0
ELLIPSE
  5
1519
330
148C
100
AcDbEntity
  8
0
100
AcDbEllipse
 10
-27.93424204309376
 20
60.41871229878598
 30
0.0
 11
2.624999999999729
 21
4.546633369868458
 31
0.0
210
0.0
220
0.0
230
1.0
 40
0.5773502691896261
 41
3.926990816986997
 42
5.497787143781895
  0
LINE
  5
151A
330
148C
100
AcDbEntity
  8
0
100
AcDbLine
 10
-30.05556238665344
 20
54.90736037752384
 30
0.0
 11
-27.93424204309378
 21
56.13210524891542
 31
0.0
  0
ELLIPSE
  5
151B
330
148C
100
AcDbEntity
  8
0
100
AcDbEllipse
 10
-30.05556238665344
 20
59.19396742739438
 30
0.0
 11
-2.625
 21
-4.546633369868304
 31
0.0
210
0.0
220
0.0
230
1.0
 40
0.5773502691896258
 41
4.369901861060867
 42
7.068583470577034
  0
LINE
  5
151C
330
148C
100
AcDbEntity
  8
0
100
AcDbLine
 10
-31.64655264432314
 20
66.44037458312798
 30
0.0
 11
-31.64655264432313
 21
62.14839212005815
 31
0.0
  0
LINE
  5
151D
330
148C
100
AcDbEntity
  8
0
100
AcDbLine
 10
-32.93338174832158
 20
69.77990635817206
 30
0.0
 11
-31.64655264432314
 21
66.44037458312798
 31
0.0
  0
LINE
  5
151E
330
148C
100
AcDbEntity
  8
0
100
AcDbLine
 10
-36.41952341733237
 20
67.7671815271355
 30
0.0
 11
-32.93338174832158
 21
69.77990635817206
 31
0.0
  0
LINE
  5
151F
330
148C
100
AcDbEntity
  8
0
100
AcDbLine
 10
29.62424994549222
 20
-59.44298578140362
 30
0.0
 11
31.39201689845859
 21
-60.4636065075633
 31
0.0
  0
LINE
  5
1520
330
148C
100
AcDbEntity
  8
0
100
AcDbLine
 10
-34.70114870128795
 20
70.80052708433171
 30
0.0
 11
-32.93338174832158
 21
69.77990635817206
 31
0.0
  0
LINE
  5
1521
330
148C
100
AcDbEntity
  8
0
100
AcDbLine
 10
-31.8233293396198
 20
55.92798110368349
 30
0.0
 11
-30.05556238665344
 21
54.90736037752384
 31
0.0
  0
LINE
  5
1522
330
148C
100
AcDbEntity
  8
0
100
AcDbLine
 10
-29.70200899606016
 20
57.15272597507508
 30
0.0
 11
-27.93424204309378
 21
56.13210524891542
 31
0.0
  0
LINE
  5
1523
330
148C
100
AcDbEntity
  8
0
100
AcDbLine
 10
-25.98969839483076
 20
63.58263654988093
 30
0.0
 11
-24.22193144186439
 21
62.56201582372127
 31
0.0
  0
LINE
  5
1524
330
148C
100
AcDbEntity
  8
0
100
AcDbLine
 10
-25.98969839483076
 20
75.8300852637968
 30
0.0
 11
-24.22193144186439
 21
74.80946453763715
 31
0.0
  0
LINE
  5
1525
330
148C
100
AcDbEntity
  8
0
100
AcDbLine
 10
29.62424994549221
 20
46.70156973920073
 30
0.0
 11
31.39201689845858
 21
45.68094901304107
 31
0.0
  0
LINE
  5
1526
330
148C
100
AcDbEntity
  8
0
100
AcDbLine
 10
32.38196639211974
 20
17.67511628722008
 30
0.0
 11
34.14973334508611
 21
16.65449556106042
 31
0.0
  0
LINE
  5
1527
330
148C
100
AcDbEntity
  8
0
100
AcDbLine
 10
36.94280513077092
 20
-17.86289739765918
 30
0.0
 11
38.71057208373729
 21
-16.84227667149953
 31
0.0
  0
ELLIPSE
  5
1528
330
148C
100
AcDbEntity
  8
0
100
AcDbEllipse
 10
38.71057208373729
 20
-14.80103521918021
 30
0.0
 11
-1.249999999999866
 21
2.165063509461173
 31
0.0
210
0.0
220
0.0
230
1.0
 40
0.5773502691896248
 41
1.779825944058277
 42
2.356194490192589
  0
LINE
  5
1529
330
148C
100
AcDbEntity
  8
0
100
AcDbLine
 10
47.19585345797584
 20
-21.74125615706588
 30
0.0
 11
38.71057208373729
 21
-16.84227667149953
 31
0.0
  0
LINE
  5
152A
330
148C
100
AcDbEntity
  8
0
100
AcDbLine
 10
45.42808650500947
 20
-22.76187688322553
 30
0.0
 11
47.19585345797584
 21
-21.74125615706588
 31
0.0
  0
ELLIPSE
  5
152B
330
148C
100
AcDbEntity
  8
0
100
AcDbEllipse
 10
47.19585345797584
 20
-38.07118777562042
 30
0.0
 11
9.999999999999971
 21
-17.32050807568879
 31
0.0
210
0.0
220
0.0
230
1.0
 40
0.5773502691896248
 41
0.0
 42
2.356194490192343
  0
ELLIPSE
  5
152C
330
148C
100
AcDbEntity
  8
0
100
AcDbEllipse
 10
31.28595088127954
 20
-19.90413884997904
 30
0.0
 11
1.249999999999996
 21
-2.165063509461099
 31
0.0
210
0.0
220
0.0
230
1.0
 40
0.5773502691896246
 41
4.664338008305344
 42
5.497787143782129
  0
ELLIPSE
  5
152D
330
148C
100
AcDbEntity
  8
0
100
AcDbEllipse
 10
48.96362041094319
 20
-29.08972538541597
 30
0.0
 11
1.250000000000124
 21
-2.165063509461024
 31
0.0
210
0.0
220
0.0
230
1.0
 40
0.5773502691896248
 41
3.926990816987
 42
5.497787143781887
  0
ELLIPSE
  5
152E
330
148C
100
AcDbEntity
  8
0
100
AcDbEllipse
 10
56.03468822280864
 20
-43.17429140641928
 30
0.0
 11
1.250000000000124
 21
-2.165063509461024
 31
0.0
210
0.0
220
0.0
230
1.0
 40
0.5773502691896248
 41
3.926990816987
 42
5.497787143781897
  0
ELLIPSE
  5
152F
330
148C
100
AcDbEntity
  8
0
100
AcDbEllipse
 10
48.96362041094317
 20
-49.09389161814527
 30
0.0
 11
1.250000000000124
 21
-2.165063509461024
 31
0.0
210
0.0
220
0.0
230
1.0
 40
0.5773502691896248
 41
3.926990816987
 42
5.497787143781897
  0
ELLIPSE
  5
1530
330
148C
100
AcDbEntity
  8
0
100
AcDbEllipse
 10
24.21488306941407
 20
-35.009325597142
 30
0.0
 11
1.250000000000124
 21
-2.165063509461024
 31
0.0
210
0.0
220
0.0
230
1.0
 40
0.5773502691896248
 41
3.926990816987
 42
5.497787143781897
  0
ELLIPSE
  5
1531
330
148C
100
AcDbEntity
  8
0
100
AcDbEllipse
 10
31.28595088127952
 20
-47.25677431105786
 30
0.0
 11
1.250000000000124
 21
-2.165063509461024
 31
0.0
210
0.0
220
0.0
230
1.0
 40
0.5773502691896248
 41
3.926990816987
 42
5.497787143781897
  0
ELLIPSE
  5
1532
330
148C
100
AcDbEntity
  8
0
100
AcDbEllipse
 10
24.21488306941406
 20
-51.33925721569649
 30
0.0
 11
1.250000000000124
 21
-2.165063509461024
 31
0.0
210
0.0
220
0.0
230
1.0
 40
0.5773502691896248
 41
3.926990816987
 42
5.497787143781897
  0
LINE
  5
1533
330
148C
100
AcDbEntity
  8
0
100
AcDbLine
 10
36.23569834958432
 20
-29.08972538541539
 30
0.0
 11
36.23569834958432
 21
-29.25748967883516
 31
0.0
  0
LINE
  5
1534
330
148C
100
AcDbEntity
  8
0
100
AcDbLine
 10
34.46793139661795
 20
-30.11034611157505
 30
0.0
 11
36.23569834958432
 21
-29.08972538541539
 31
0.0
  0
LINE
  5
1535
330
148C
100
AcDbEntity
  8
0
100
AcDbLine
 10
34.46793139661795
 20
-30.27811040499483
 30
0.0
 11
36.23569834958432
 21
-29.25748967883516
 31
0.0
  0
ELLIPSE
  5
1536
330
148C
100
AcDbEntity
  8
0
100
AcDbEllipse
 10
40.12478564611032
 20
-31.33509098296665
 30
0.0
 11
-2.749999999999991
 21
4.763139720814417
 31
0.0
210
0.0
220
0.0
230
1.0
 40
0.5773502691896248
 41
0.3272204132950634
 42
0.7853981633974487
  0
ELLIPSE
  5
1537
330
148C
100
AcDbEntity
  8
0
100
AcDbEllipse
 10
40.12478564611032
 20
-36.23407046853302
 30
0.0
 11
2.749999999999991
 21
-4.763139720814417
 31
0.0
210
0.0
220
0.0
230
1.0
 40
0.5773502691896249
 41
5.497787143782139
 42
5.955964893884518
  0
LINE
  5
1538
330
148C
100
AcDbEntity
  8
0
100
AcDbLine
 10
38.35701869314396
 20
-41.74542238979515
 30
0.0
 11
40.12478564611032
 21
-40.72480166363551
 31
0.0
  0
ELLIPSE
  5
1539
330
148C
100
AcDbEntity
  8
0
100
AcDbEllipse
 10
40.12478564611039
 20
10.30623464434729
 30
0.0
 11
31.2499999999999
 21
-54.12658773652748
 31
0.0
210
0.0
220
0.0
230
1.0
 40
0.5773502691896249
 41
5.258672961118065
 42
5.497787143782137
  0
LINE
  5
153A
330
148C
100
AcDbEntity
  8
0
100
AcDbLine
 10
27.88997752426414
 20
-34.25034620997403
 30
0.0
 11
29.65774447723052
 21
-33.22972548381438
 31
0.0
  0
ELLIPSE
  5
153B
330
148C
100
AcDbEntity
  8
0
100
AcDbEllipse
 10
30.57884410009194
 20
-29.39856099253614
 30
0.0
 11
-2.749999999999991
 21
4.763139720814417
 31
0.0
210
0.0
220
0.0
230
1.0
 40
0.5773502691896249
 41
0.3272204132950636
 42
2.117080307528273
  0
ELLIPSE
  5
153C
330
148C
100
AcDbEntity
  8
0
100
AcDbEllipse
 10
38.71057208373729
 20
-51.54338136092789
 30
0.0
 11
-1.249999999999993
 21
2.165063509461095
 31
0.0
210
0.0
220
0.0
230
0.9999999999999998
 40
0.5773502691896246
 41
0.7853981633974679
 42
1.580796993582405
  0
LINE
  5
153D
330
148C
100
AcDbEntity
  8
0
100
AcDbLine
 10
41.53899920848553
 20
87.6692856872482
 30
0.0
 11
39.77123225551917
 21
86.64866496108855
 31
0.0
  0
ELLIPSE
  5
153E
330
148C
100
AcDbEntity
  8
0
100
AcDbEllipse
 10
39.77123225551917
 20
88.68990641340788
 30
0.0
 11
1.249999999999998
 21
-2.165063509461097
 31
0.0
210
0.0
220
0.0
230
1.0
 40
0.5773502691896254
 41
5.497787143782138
 42
7.863982300761981
  0
LINE
  5
153F
330
148C
100
AcDbEntity
  8
0
100
AcDbLine
 10
35.70536826369548
 20
88.99609263125638
 30
0.0
 11
39.77123225551917
 21
86.64866496108855
 31
0.0
  0
ELLIPSE
  5
1540
330
148C
100
AcDbEntity
  8
0
100
AcDbEllipse
 10
31.28595088128062
 20
75.21771282810037
 30
0.0
 11
-9.999999999998955
 21
17.32050807568938
 31
0.0
210
0.0
220
0.0
230
1.0
 40
0.5773502691896254
 41
1.32748918869675
 42
2.356194490192585
  0
LINE
  5
1541
330
148C
100
AcDbEntity
  8
0
100
AcDbLine
 10
39.77123225551917
 20
53.98880172397948
 30
0.0
 11
31.2859508812806
 21
58.88778120954585
 31
0.0
  0
LINE
  5
1542
330
148C
100
AcDbEntity
  8
0
100
AcDbLine
 10
56.7417950039963
 20
13.57222096805706
 30
0.0
 11
41.00866912259459
 21
22.65574543087862
 31
0.0
  0
ELLIPSE
  5
1543
330
148C
100
AcDbEntity
  8
0
100
AcDbEllipse
 10
54.26692126984239
 20
96.65074807745378
 30
0.0
 11
-1.249999999999998
 21
2.165063509461097
 31
0.0
210
0.0
220
0.0
230
1.0
 40
0.5773502691896254
 41
0.0
 42
6.283185307179586
  0
ELLIPSE
  5
1544
330
148C
100
AcDbEntity
  8
0
100
AcDbEllipse
 10
54.26692126984239
 20
80.32081645889926
 30
0.0
 11
-1.249999999999998
 21
2.165063509461097
 31
0.0
210
0.0
220
0.0
230
1.0
 40
0.5773502691896254
 41
0.0
 42
6.283185307179586
  0
ELLIPSE
  5
1545
330
148C
100
AcDbEntity
  8
0
100
AcDbEllipse
 10
47.19585345797692
 20
76.23833355426063
 30
0.0
 11
-1.249999999999998
 21
2.165063509461097
 31
0.0
210
0.0
220
0.0
230
1.0
 40
0.5773502691896254
 41
0.0
 42
6.283185307179586
  0
ELLIPSE
  5
1546
330
148C
100
AcDbEntity
  8
0
100
AcDbEllipse
 10
29.51818392831319
 20
86.24041667062529
 30
0.0
 11
1.249999999999998
 21
-2.165063509461097
 31
0.0
210
0.0
220
0.0
230
1.0
 40
0.5773502691896252
 41
5.079830031760323
 42
7.566014659316062
  0
ELLIPSE
  5
1547
330
148C
100
AcDbEntity
  8
0
100
AcDbEllipse
 10
22.44711611644773
 20
80.32081645889929
 30
0.0
 11
1.249999999999998
 21
-2.165063509461097
 31
0.0
210
0.0
220
0.0
230
0.9999999999999998
 40
0.5773502691896257
 41
5.420872521458418
 42
7.556830512676052
  0
ELLIPSE
  5
1548
330
148C
100
AcDbEntity
  8
0
100
AcDbEllipse
 10
29.5181839283132
 20
66.236250437896
 30
0.0
 11
-1.249999999999998
 21
2.165063509461097
 31
0.0
210
0.0
220
0.0
230
1.0
 40
0.5773502691896254
 41
0.0
 42
6.283185307179586
  0
ELLIPSE
  5
1549
330
148C
100
AcDbEntity
  8
0
100
AcDbEllipse
 10
54.26692126984239
 20
45.61971176947089
 30
0.0
 11
-1.249999999999998
 21
2.165063509461097
 31
0.0
210
0.0
220
0.0
230
1.0
 40
0.5773502691896254
 41
0.0
 42
6.283185307179586
  0
ELLIPSE
  5
154A
330
148C
100
AcDbEntity
  8
0
100
AcDbEllipse
 10
47.19585345797693
 20
41.53722886483226
 30
0.0
 11
-1.249999999999998
 21
2.165063509461097
 31
0.0
210
0.0
220
0.0
230
1.0
 40
0.5773502691896254
 41
0.0
 42
6.283185307179586
  0
ELLIPSE
  5
154B
330
148C
100
AcDbEntity
  8
0
100
AcDbEllipse
 10
54.26692126984239
 20
29.28978015091637
 30
0.0
 11
-1.249999999999998
 21
2.165063509461097
 31
0.0
210
0.0
220
0.0
230
1.0
 40
0.5773502691896254
 41
0.0
 42
6.283185307179586
  0
ELLIPSE
  5
154C
330
148C
100
AcDbEntity
  8
0
100
AcDbEllipse
 10
47.19585345797693
 20
25.20729724627774
 30
0.0
 11
-1.249999999999998
 21
2.165063509461097
 31
0.0
210
0.0
220
0.0
230
1.0
 40
0.5773502691896254
 41
0.0
 42
6.283185307179586
  0
LINE
  5
154D
330
148C
100
AcDbEntity
  8
0
100
AcDbLine
 10
34.46793139662009
 20
70.93110577822979
 30
0.0
 11
34.4679313966201
 21
75.83008526379616
 31
0.0
  0
LINE
  5
154E
330
148C
100
AcDbEntity
  8
0
100
AcDbLine
 10
36.23569834958647
 20
71.95172650438945
 30
0.0
 11
34.46793139662009
 21
70.93110577822979
 31
0.0
  0
LINE
  5
154F
330
148C
100
AcDbEntity
  8
0
100
AcDbLine
 10
36.23569834958647
 20
76.85070598995581
 30
0.0
 11
34.4679313966201
 21
75.83008526379616
 31
0.0
  0
ELLIPSE
  5
1550
330
148C
100
AcDbEntity
  8
0
100
AcDbEllipse
 10
38.35701869314611
 20
68.68574018067853
 30
0.0
 11
-2.749999999999712
 21
4.763139720814578
 31
0.0
210
0.0
220
0.0
230
1.0
 40
0.5773502691896254
 41
0.785398163397689
 42
2.356194490192587
  0
LINE
  5
1551
330
148C
100
AcDbEntity
  8
0
100
AcDbLine
 10
40.12478564611249
 20
65.21562971173572
 30
0.0
 11
38.35701869314611
 21
64.19500898557605
 31
0.0
  0
ELLIPSE
  5
1552
330
148C
100
AcDbEntity
  8
0
100
AcDbEllipse
 10
36.96914023600009
 20
22.97727682848718
 30
0.0
 11
-25.74999999999996
 21
44.60030829489859
 31
0.0
210
0.0
220
0.0
230
1.0
 40
0.5773502691896254
 41
5.223068200181293
 42
5.459666134054222
  0
LINE
  5
1553
330
148C
100
AcDbEntity
  8
0
100
AcDbLine
 10
48.61570947252729
 20
58.7671455101823
 30
0.0
 11
46.84794251956091
 21
57.74652478402264
 31
0.0
  0
ELLIPSE
  5
1554
330
148C
100
AcDbEntity
  8
0
100
AcDbEllipse
 10
47.90296023916448
 20
61.45974543946817
 30
0.0
 11
2.749999999999711
 21
-4.76313972081458
 31
0.0
210
0.0
220
0.0
230
1.0
 40
0.5773502691896254
 41
5.223068200181426
 42
8.498564006599757
  0
ELLIPSE
  5
1555
330
148C
100
AcDbEntity
  8
0
100
AcDbEllipse
 10
42.24610598967213
 20
18.64609056087223
 30
0.0
 11
31.24999999999672
 21
-54.12658773652931
 31
0.0
210
0.0
220
0.0
230
0.9999999999999998
 40
0.5773502691896254
 41
2.215378699420208
 42
2.356194490192587
  0
LINE
  5
1556
330
148C
100
AcDbEntity
  8
0
100
AcDbLine
 10
42.24610598967213
 20
71.33935406869365
 30
0.0
 11
42.24610598967213
 21
69.67712686885509
 31
0.0
  0
ELLIPSE
  5
1557
330
148C
100
AcDbEntity
  8
0
100
AcDbEllipse
 10
38.35701869314608
 20
73.58471966624493
 30
0.0
 11
-2.749999999999996
 21
4.763139720814415
 31
0.0
210
0.0
220
0.0
230
1.0
 40
0.5773502691896254
 41
3.926990816987241
 42
7.068583470577035
  0
ELLIPSE
  5
1558
330
148C
100
AcDbEntity
  8
0
100
AcDbEllipse
 10
39.77123225551917
 20
51.94756027166018
 30
0.0
 11
1.249999999999998
 21
-2.165063509461098
 31
0.0
210
0.0
220
0.0
230
0.9999999999999998
 40
0.5773502691896254
 41
6.273184640392073
 42
8.639379797371931
  0
LINE
  5
1559
330
148C
100
AcDbEntity
  8
0
100
AcDbLine
 10
55.42808650500944
 20
-56.41231657746885
 30
0.0
 11
57.19585345797582
 21
-55.3916958513092
 31
0.0
  0
LINE
  5
155A
330
148C
100
AcDbEntity
  8
0
100
AcDbLine
 10
35.70536826369548
 20
-55.93205048341499
 30
0.0
 11
35.70536826369549
 21
-53.30730555248884
 31
0.0
  0
LINE
  5
155B
330
148C
100
AcDbEntity
  8
0
100
AcDbLine
 10
35.70536826369551
 20
19.59388325239961
 30
0.0
 11
35.70536826369551
 21
21.63512470471897
 31
0.0
  0
LINE
  5
155C
330
148C
100
AcDbEntity
  8
0
100
AcDbLine
 10
37.47313521666185
 20
-69.20011992349057
 30
0.0
 11
37.47313521666185
 21
-56.95267120957467
 31
0.0
  0
LINE
  5
155D
330
148C
100
AcDbEntity
  8
0
100
AcDbLine
 10
37.47313521666185
 20
-16.12784216318836
 30
0.0
 11
37.47313521666185
 21
18.57326252623998
 31
0.0
  0
ELLIPSE
  5
155E
330
148C
100
AcDbEntity
  8
0
100
AcDbEllipse
 10
33.93760131072913
 20
20.6145039785593
 30
0.0
 11
2.5
 21
-0.0000000000000006
 31
0.0
210
0.0
220
0.0
230
1.0
 40
0.5773502691896255
 41
5.49778714378213
 42
7.06858347057703
  0
ELLIPSE
  5
155F
330
148C
100
AcDbEntity
  8
0
100
AcDbEllipse
 10
33.93760131072913
 20
20.6145039785593
 30
0.0
 11
5.0
 21
-0.0000000000000006
 31
0.0
210
0.0
220
0.0
230
1.0
 40
0.5773502691896258
 41
5.497787143782133
 42
7.06858347057703
  0
ELLIPSE
  5
1560
330
148C
100
AcDbEntity
  8
0
100
AcDbEllipse
 10
33.93760131072912
 20
-14.08660071086904
 30
0.0
 11
5.0
 21
-0.0000000000000011
 31
0.0
210
0.0
220
0.0
230
1.0
 40
0.5773502691896257
 41
5.497787143782136
 42
6.283185307179586
  0
LINE
  5
1561
330
148C
100
AcDbEntity
  8
0
100
AcDbLine
 10
37.47313521666185
 20
18.57326252623998
 30
0.0
 11
35.70536826369548
 21
19.59388325239963
 31
0.0
  0
ELLIPSE
  5
1562
330
148C
100
AcDbEntity
  8
0
100
AcDbEllipse
 10
33.93760131072911
 20
-67.15887847117123
 30
0.0
 11
5.0
 21
-0.0000000000000003
 31
0.0
210
0.0
220
0.0
230
1.0
 40
0.5773502691896255
 41
5.497787143782137
 42
6.283185307179586
  0
ELLIPSE
  5
1563
330
148C
100
AcDbEntity
  8
0
100
AcDbEllipse
 10
33.93760131072912
 20
-54.91142975725534
 30
0.0
 11
5.000000000000005
 21
0.0000000000000001
 31
0.0
210
0.0
220
0.0
230
1.0
 40
0.5773502691896255
 41
5.497787143782137
 42
6.54498469497916
  0
LINE
  5
1564
330
148C
100
AcDbEntity
  8
0
100
AcDbLine
 10
36.35241587645152
 20
-54.53785664385137
 30
0.0
 11
38.76723044217391
 21
-54.16428353044743
 31
0.0
  0
ELLIPSE
  5
1565
330
148C
100
AcDbEntity
  8
0
100
AcDbEllipse
 10
33.93760131072912
 20
-54.91142975725537
 30
0.0
 11
2.5
 21
-0.0000000000000004
 31
0.0
210
0.0
220
0.0
230
1.0
 40
0.5773502691896255
 41
5.497787143782137
 42
6.544984694979165
  0
LINE
  5
1566
330
148C
100
AcDbEntity
  8
0
100
AcDbLine
 10
37.47313521666185
 20
-56.95267120957467
 30
0.0
 11
35.70536826369548
 21
-55.93205048341502
 31
0.0
  0
SPLINE
  5
1567
330
148C
100
AcDbEntity
  8
0
100
AcDbSpline
210
0.0
220
0.0
230
1.0
 70
     8
 71
     3
 72
    10
 73
     6
 74
     0
 42
0.000000001
 43
0.0000000001
 40
0.0
 40
0.0
 40
0.0
 40
0.0
 40
0.0575824048776929
 40
0.0575824048776929
 40
0.0969870129543648
 40
0.0969870129543648
 40
0.0969870129543648
 40
0.0969870129543648
 10
37.47313521666188
 20
-52.28668482632919
 30
0.0
 10
37.58683835051812
 20
-52.43790657725195
 30
0.0
 10
37.90554574212209
 20
-52.83391681594832
 30
0.0
 10
38.4657888279654
 20
-53.6148055866213
 30
0.0
 10
38.64761605071934
 20
-53.90655299598893
 30
0.0
 10
38.76723044217391
 20
-54.16428353044747
 30
0.0
  0
LINE
  5
1568
330
148C
100
AcDbEntity
  8
0
100
AcDbLine
 10
36.28922745173903
 20
-52.97021429310309
 30
0.0
 11
37.47313521666187
 21
-52.28668482632919
 31
0.0
  0
LINE
  5
1569
330
148C
100
AcDbEntity
  8
0
100
AcDbLine
 10
35.70536826369549
 20
-53.30730555248884
 30
0.0
 11
36.28922745173903
 21
-52.97021429310309
 31
0.0
  0
SPLINE
  5
156A
330
148C
100
AcDbEntity
  8
0
100
AcDbSpline
210
0.0
220
0.0
230
1.0
 70
     8
 71
     3
 72
    12
 73
     8
 74
     0
 42
0.000000001
 43
0.0000000001
 40
0.0
 40
0.0
 40
0.0
 40
0.0
 40
0.0483939315753229
 40
0.0483939315753229
 40
0.0973081656969073
 40
0.0973081656969073
 40
0.1727322110594462
 40
0.1727322110594462
 40
0.1727322110594462
 40
0.1727322110594462
 10
36.35241587645152
 20
-54.5378566438514
 30
0.0
 10
36.31066497260697
 20
-54.4478999361663
 30
0.0
 10
36.25446409777571
 20
-54.33938448853282
 30
0.0
 10
36.12079539135337
 20
-54.0924789089821
 30
0.0
 10
36.04544980794158
 20
-53.95774102467637
 30
0.0
 10
35.85001423609512
 20
-53.59911569454432
 30
0.0
 10
35.75282675848246
 20
-53.40626869283827
 30
0.0
 10
35.70536826369548
 20
-53.30730555248884
 30
0.0
  0
LINE
  5
156B
330
148C
100
AcDbEntity
  8
0
100
AcDbLine
 10
38.93760131072912
 20
-14.08660071086904
 30
0.0
 11
38.93760131072913
 21
20.6145039785593
 31
0.0
  0
LINE
  5
156C
330
148C
100
AcDbEntity
  8
0
100
AcDbLine
 10
38.93760131072911
 20
-67.15887847117119
 30
0.0
 11
38.93760131072911
 21
-54.9114297572553
 31
0.0
  0
ELLIPSE
  5
156D
330
148C
100
AcDbEntity
  8
0
100
AcDbEllipse
 10
-29.34845560546689
 20
36.74031145188191
 30
0.0
 11
2.625
 21
4.546633369868302
 31
0.0
210
0.0
220
0.0
230
0.9999999999999998
 40
0.5773502691896261
 41
3.141592653589793
 42
6.283185307179586
  0
ELLIPSE
  5
156E
330
148C
100
AcDbEntity
  8
0
100
AcDbEllipse
 10
-27.9342420430938
 20
35.92381487095419
 30
0.0
 11
3.625000000000001
 21
6.278684177437178
 31
0.0
210
0.0
220
0.0
230
1.0
 40
0.5773502691896258
 41
0.0
 42
6.283185307179586
  0
ELLIPSE
  5
156F
330
148C
100
AcDbEntity
  8
0
100
AcDbEllipse
 10
-27.9342420430938
 20
11.42891744312241
 30
0.0
 11
3.625000000000001
 21
6.278684177437178
 31
0.0
210
0.0
220
0.0
230
1.0
 40
0.5773502691896258
 41
0.0
 42
6.283185307179586
  0
ELLIPSE
  5
1570
330
148C
100
AcDbEntity
  8
0
100
AcDbEllipse
 10
-27.9342420430938
 20
-37.56087741254115
 30
0.0
 11
3.625000000000001
 21
6.278684177437178
 31
0.0
210
0.0
220
0.0
230
1.0
 40
0.5773502691896258
 41
0.0
 42
6.283185307179586
  0
ELLIPSE
  5
1571
330
148C
100
AcDbEntity
  8
0
100
AcDbEllipse
 10
-27.9342420430938
 20
-86.55067226820476
 30
0.0
 11
3.625000000000001
 21
6.278684177437178
 31
0.0
210
0.0
220
0.0
230
1.0
 40
0.5773502691896258
 41
0.0
 42
6.283185307179586
  0
ELLIPSE
  5
1572
330
148C
100
AcDbEntity
  8
0
100
AcDbEllipse
 10
-27.9342420430938
 20
-62.05577484037295
 30
0.0
 11
3.625000000000001
 21
6.278684177437178
 31
0.0
210
0.0
220
0.0
230
1.0
 40
0.5773502691896258
 41
0.0
 42
6.283185307179586
  0
ELLIPSE
  5
1573
330
148C
100
AcDbEntity
  8
0
100
AcDbEllipse
 10
-27.9342420430938
 20
-13.06597998470938
 30
0.0
 11
3.625
 21
6.278684177437177
 31
0.0
210
0.0
220
0.0
230
0.9999999999999998
 40
0.577350269189626
 41
0.0
 42
6.283185307179586
  0
ELLIPSE
  5
1574
330
148C
100
AcDbEntity
  8
0
100
AcDbEllipse
 10
-29.34845560546689
 20
12.24541402405012
 30
0.0
 11
2.625
 21
4.546633369868302
 31
0.0
210
0.0
220
0.0
230
0.9999999999999998
 40
0.5773502691896261
 41
3.141592653589793
 42
6.283185307179583
  0
ELLIPSE
  5
1575
330
148C
100
AcDbEntity
  8
0
100
AcDbEllipse
 10
-29.34845560546689
 20
-12.24948340378166
 30
0.0
 11
2.625
 21
4.546633369868302
 31
0.0
210
0.0
220
0.0
230
0.9999999999999998
 40
0.5773502691896261
 41
3.141592653589791
 42
6.283185307179584
  0
ELLIPSE
  5
1576
330
148C
100
AcDbEntity
  8
0
100
AcDbEllipse
 10
-29.34845560546689
 20
-36.74438083161341
 30
0.0
 11
2.625
 21
4.546633369868302
 31
0.0
210
0.0
220
0.0
230
0.9999999999999998
 40
0.5773502691896261
 41
3.141592653589791
 42
6.283185307179583
  0
ELLIPSE
  5
1577
330
148C
100
AcDbEntity
  8
0
100
AcDbEllipse
 10
-29.34845560546689
 20
-61.2392782594452
 30
0.0
 11
2.625
 21
4.546633369868302
 31
0.0
210
0.0
220
0.0
230
0.9999999999999998
 40
0.5773502691896261
 41
3.141592653589793
 42
6.283185307179586
  0
ELLIPSE
  5
1578
330
148C
100
AcDbEntity
  8
0
100
AcDbEllipse
 10
-29.34845560546689
 20
-85.73417568727698
 30
0.0
 11
2.625
 21
4.546633369868302
 31
0.0
210
0.0
220
0.0
230
0.9999999999999998
 40
0.5773502691896261
 41
3.141592653589789
 42
6.283185307179583
  0
SPLINE
  5
1579
330
148C
100
AcDbEntity
  8
0
100
AcDbSpline
210
0.0
220
0.0
230
1.0
 70
     8
 71
     3
 72
    30
 73
    26
 74
     0
 42
0.000000001
 43
0.0000000001
 40
2.356194490192344
 40
2.356194490192344
 40
2.356194490192344
 40
2.356194490192344
 40
2.670353755551324
 40
2.670353755551324
 40
2.986263682378289
 40
2.986263682378289
 40
3.244478731431272
 40
3.244478731431272
 40
3.510027841487826
 40
3.510027841487826
 40
3.786241626147743
 40
3.786241626147743
 40
4.068665611876249
 40
4.068665611876249
 40
4.351078978469509
 40
4.351078978469509
 40
4.627055058509507
 40
4.627055058509507
 40
4.891846801117258
 40
4.891846801117258
 40
5.150321741976457
 40
5.150321741976457
 40
5.450035055437536
 40
5.450035055437536
 40
5.497787143782137
 40
5.497787143782137
 40
5.497787143782137
 40
5.497787143782137
 10
-31.9734556054669
 20
32.19367808201361
 30
0.0
 10
-32.03890545241667
 20
32.23146556876848
 30
0.0
 10
-32.10673662662877
 20
32.2851278104224
 30
0.0
 10
-32.28430557626746
 20
32.58501994991178
 30
0.0
 10
-32.38238568746028
 20
32.83685371136693
 30
0.0
 10
-32.47720969804698
 20
33.48134125832022
 30
0.0
 10
-32.48891954531373
 20
33.83648433260939
 30
0.0
 10
-32.42024072867654
 20
34.64420349600445
 30
0.0
 10
-32.33760869474756
 20
35.09874482101781
 30
0.0
 10
-32.06735906816663
 20
36.06307825933839
 30
0.0
 10
-31.87588498233861
 20
36.57422276770851
 30
0.0
 10
-31.39542744778123
 20
37.58956158571879
 30
0.0
 10
-31.10444431976247
 20
38.09324592001877
 30
0.0
 10
-30.45785498686894
 20
39.02677656252525
 30
0.0
 10
-30.10226076638964
 20
39.45647036998554
 30
0.0
 10
-29.37981228289815
 20
40.1888241060887
 30
0.0
 10
-29.01338457166134
 20
40.49383461223749
 30
0.0
 10
-28.33105772762296
 20
40.95517303186361
 30
0.0
 10
-28.01405609195075
 20
41.11638251557963
 30
0.0
 10
-27.47817289559028
 20
41.31352144537431
 30
0.0
 10
-27.25909894598832
 20
41.35199234125291
 30
0.0
 10
-26.91811517086805
 20
41.36449042002134
 30
0.0
 10
-26.82182023340818
 20
41.33495566488535
 30
0.0
 10
-26.74358701823437
 20
41.29802793202927
 30
0.0
 10
-26.73340395720535
 20
41.2926885053044
 30
0.0
 10
-26.72345560546689
 20
41.28694482175021
 30
0.0
  0
SPLINE
  5
157A
330
148C
100
AcDbEntity
  8
0
100
AcDbSpline
210
0.0
220
0.0
230
1.0
 70
     8
 71
     3
 72
    30
 73
    26
 74
     0
 42
0.000000001
 43
0.0000000001
 40
2.356194490192344
 40
2.356194490192344
 40
2.356194490192344
 40
2.356194490192344
 40
2.670353755551324
 40
2.670353755551324
 40
2.986263682378289
 40
2.986263682378289
 40
3.244478731431272
 40
3.244478731431272
 40
3.510027841487826
 40
3.510027841487826
 40
3.786241626147743
 40
3.786241626147743
 40
4.068665611876249
 40
4.068665611876249
 40
4.351078978469509
 40
4.351078978469509
 40
4.627055058509507
 40
4.627055058509507
 40
4.891846801117258
 40
4.891846801117258
 40
5.150321741976457
 40
5.150321741976457
 40
5.450035055437536
 40
5.450035055437536
 40
5.497787143782137
 40
5.497787143782137
 40
5.497787143782137
 40
5.497787143782137
 10
-31.9734556054669
 20
7.698780654181831
 30
0.0
 10
-32.03890545241667
 20
7.736568140936714
 30
0.0
 10
-32.10673662662877
 20
7.790230382590621
 30
0.0
 10
-32.28430557626746
 20
8.090122522079994
 30
0.0
 10
-32.38238568746028
 20
8.341956283535161
 30
0.0
 10
-32.47720969804698
 20
8.986443830488433
 30
0.0
 10
-32.48891954531373
 20
9.341586904777621
 30
0.0
 10
-32.42024072867654
 20
10.14930606817266
 30
0.0
 10
-32.33760869474756
 20
10.60384739318603
 30
0.0
 10
-32.06735906816663
 20
11.56818083150661
 30
0.0
 10
-31.87588498233861
 20
12.07932533987671
 30
0.0
 10
-31.39542744778123
 20
13.094664157887
 30
0.0
 10
-31.10444431976247
 20
13.598348492187
 30
0.0
 10
-30.45785498686894
 20
14.53187913469346
 30
0.0
 10
-30.10226076638964
 20
14.96157294215375
 30
0.0
 10
-29.37981228289815
 20
15.69392667825692
 30
0.0
 10
-29.01338457166134
 20
15.9989371844057
 30
0.0
 10
-28.33105772762296
 20
16.46027560403183
 30
0.0
 10
-28.01405609195075
 20
16.62148508774786
 30
0.0
 10
-27.47817289559028
 20
16.81862401754253
 30
0.0
 10
-27.25909894598832
 20
16.85709491342114
 30
0.0
 10
-26.91811517086805
 20
16.86959299218957
 30
0.0
 10
-26.82182023340818
 20
16.84005823705357
 30
0.0
 10
-26.74358701823437
 20
16.80313050419748
 30
0.0
 10
-26.73340395720535
 20
16.79779107747263
 30
0.0
 10
-26.72345560546689
 20
16.79204739391844
 30
0.0
  0
SPLINE
  5
157B
330
148C
100
AcDbEntity
  8
0
100
AcDbSpline
210
0.0
220
0.0
230
1.0
 70
     8
 71
     3
 72
    30
 73
    26
 74
     0
 42
0.000000001
 43
0.0000000001
 40
2.356194490192344
 40
2.356194490192344
 40
2.356194490192344
 40
2.356194490192344
 40
2.670353755551324
 40
2.670353755551324
 40
2.986263682378289
 40
2.986263682378289
 40
3.244478731431272
 40
3.244478731431272
 40
3.510027841487826
 40
3.510027841487826
 40
3.786241626147743
 40
3.786241626147743
 40
4.068665611876249
 40
4.068665611876249
 40
4.351078978469509
 40
4.351078978469509
 40
4.627055058509507
 40
4.627055058509507
 40
4.891846801117258
 40
4.891846801117258
 40
5.150321741976457
 40
5.150321741976457
 40
5.450035055437536
 40
5.450035055437536
 40
5.497787143782137
 40
5.497787143782137
 40
5.497787143782137
 40
5.497787143782137
 10
-31.9734556054669
 20
-16.79611677364995
 30
0.0
 10
-32.03890545241667
 20
-16.75832928689507
 30
0.0
 10
-32.10673662662877
 20
-16.70466704524116
 30
0.0
 10
-32.28430557626746
 20
-16.40477490575179
 30
0.0
 10
-32.38238568746028
 20
-16.15294114429662
 30
0.0
 10
-32.47720969804698
 20
-15.50845359734335
 30
0.0
 10
-32.48891954531373
 20
-15.15331052305416
 30
0.0
 10
-32.42024072867654
 20
-14.34559135965912
 30
0.0
 10
-32.33760869474756
 20
-13.89105003464575
 30
0.0
 10
-32.06735906816663
 20
-12.92671659632516
 30
0.0
 10
-31.87588498233861
 20
-12.41557208795505
 30
0.0
 10
-31.39542744778123
 20
-11.40023326994477
 30
0.0
 10
-31.10444431976247
 20
-10.8965489356448
 30
0.0
 10
-30.45785498686894
 20
-9.963018293138325
 30
0.0
 10
-30.10226076638964
 20
-9.533324485678011
 30
0.0
 10
-29.37981228289815
 20
-8.800970749574865
 30
0.0
 10
-29.01338457166134
 20
-8.495960243426061
 30
0.0
 10
-28.33105772762296
 20
-8.034621823799952
 30
0.0
 10
-28.01405609195075
 20
-7.873412340083927
 30
0.0
 10
-27.47817289559028
 20
-7.676273410289251
 30
0.0
 10
-27.25909894598832
 20
-7.63780251441064
 30
0.0
 10
-26.91811517086805
 20
-7.625304435642235
 30
0.0
 10
-26.82182023340818
 20
-7.654839190778215
 30
0.0
 10
-26.74358701823437
 20
-7.691766923634286
 30
0.0
 10
-26.73340395720535
 20
-7.697106350359153
 30
0.0
 10
-26.72345560546689
 20
-7.702850033913346
 30
0.0
  0
SPLINE
  5
157C
330
148C
100
AcDbEntity
  8
0
100
AcDbSpline
210
0.0
220
0.0
230
1.0
 70
     8
 71
     3
 72
    30
 73
    26
 74
     0
 42
0.000000001
 43
0.0000000001
 40
2.356194490192344
 40
2.356194490192344
 40
2.356194490192344
 40
2.356194490192344
 40
2.670353755551324
 40
2.670353755551324
 40
2.986263682378289
 40
2.986263682378289
 40
3.244478731431272
 40
3.244478731431272
 40
3.510027841487826
 40
3.510027841487826
 40
3.786241626147743
 40
3.786241626147743
 40
4.068665611876249
 40
4.068665611876249
 40
4.351078978469509
 40
4.351078978469509
 40
4.627055058509507
 40
4.627055058509507
 40
4.891846801117258
 40
4.891846801117258
 40
5.150321741976457
 40
5.150321741976457
 40
5.450035055437536
 40
5.450035055437536
 40
5.497787143782137
 40
5.497787143782137
 40
5.497787143782137
 40
5.497787143782137
 10
-31.9734556054669
 20
-41.29101420148174
 30
0.0
 10
-32.03890545241667
 20
-41.25322671472684
 30
0.0
 10
-32.10673662662877
 20
-41.19956447307295
 30
0.0
 10
-32.28430557626746
 20
-40.89967233358358
 30
0.0
 10
-32.38238568746028
 20
-40.64783857212841
 30
0.0
 10
-32.47720969804698
 20
-40.0033510251751
 30
0.0
 10
-32.48891954531373
 20
-39.64820795088595
 30
0.0
 10
-32.42024072867654
 20
-38.84048878749091
 30
0.0
 10
-32.33760869474756
 20
-38.38594746247752
 30
0.0
 10
-32.06735906816663
 20
-37.42161402415695
 30
0.0
 10
-31.87588498233861
 20
-36.91046951578684
 30
0.0
 10
-31.39542744778123
 20
-35.89513069777656
 30
0.0
 10
-31.10444431976247
 20
-35.39144636347657
 30
0.0
 10
-30.45785498686894
 20
-34.4579157209701
 30
0.0
 10
-30.10226076638964
 20
-34.0282219135098
 30
0.0
 10
-29.37981228289815
 20
-33.29586817740665
 30
0.0
 10
-29.01338457166134
 20
-32.99085767125785
 30
0.0
 10
-28.33105772762296
 20
-32.52951925163173
 30
0.0
 10
-28.01405609195075
 20
-32.36830976791572
 30
0.0
 10
-27.47817289559028
 20
-32.17117083812104
 30
0.0
 10
-27.25909894598832
 20
-32.13269994224243
 30
0.0
 10
-26.91811517086805
 20
-32.12020186347399
 30
0.0
 10
-26.82182023340818
 20
-32.14973661860998
 30
0.0
 10
-26.74358701823437
 20
-32.18666435146608
 30
0.0
 10
-26.73340395720535
 20
-32.19200377819094
 30
0.0
 10
-26.72345560546689
 20
-32.19774746174512
 30
0.0
  0
SPLINE
  5
157D
330
148C
100
AcDbEntity
  8
0
100
AcDbSpline
210
0.0
220
0.0
230
1.0
 70
     8
 71
     3
 72
    30
 73
    26
 74
     0
 42
0.000000001
 43
0.0000000001
 40
2.356194490192344
 40
2.356194490192344
 40
2.356194490192344
 40
2.356194490192344
 40
2.670353755551324
 40
2.670353755551324
 40
2.986263682378289
 40
2.986263682378289
 40
3.244478731431272
 40
3.244478731431272
 40
3.510027841487826
 40
3.510027841487826
 40
3.786241626147743
 40
3.786241626147743
 40
4.068665611876249
 40
4.068665611876249
 40
4.351078978469509
 40
4.351078978469509
 40
4.627055058509507
 40
4.627055058509507
 40
4.891846801117258
 40
4.891846801117258
 40
5.150321741976457
 40
5.150321741976457
 40
5.450035055437536
 40
5.450035055437536
 40
5.497787143782137
 40
5.497787143782137
 40
5.497787143782137
 40
5.497787143782137
 10
-31.9734556054669
 20
-65.78591162931353
 30
0.0
 10
-32.03890545241667
 20
-65.74812414255863
 30
0.0
 10
-32.10673662662877
 20
-65.69446190090471
 30
0.0
 10
-32.28430557626746
 20
-65.39456976141536
 30
0.0
 10
-32.38238568746028
 20
-65.14273599996016
 30
0.0
 10
-32.47720969804698
 20
-64.49824845300689
 30
0.0
 10
-32.48891954531373
 20
-64.14310537871774
 30
0.0
 10
-32.42024072867654
 20
-63.33538621532269
 30
0.0
 10
-32.33760869474756
 20
-62.88084489030932
 30
0.0
 10
-32.06735906816663
 20
-61.91651145198871
 30
0.0
 10
-31.87588498233861
 20
-61.40536694361863
 30
0.0
 10
-31.39542744778123
 20
-60.39002812560834
 30
0.0
 10
-31.10444431976247
 20
-59.88634379130832
 30
0.0
 10
-30.45785498686894
 20
-58.95281314880186
 30
0.0
 10
-30.10226076638964
 20
-58.52311934134156
 30
0.0
 10
-29.37981228289815
 20
-57.7907656052384
 30
0.0
 10
-29.01338457166134
 20
-57.48575509908963
 30
0.0
 10
-28.33105772762296
 20
-57.02441667946349
 30
0.0
 10
-28.01405609195075
 20
-56.86320719574748
 30
0.0
 10
-27.47817289559028
 20
-56.6660682659528
 30
0.0
 10
-27.25909894598832
 20
-56.62759737007419
 30
0.0
 10
-26.91811517086805
 20
-56.61509929130573
 30
0.0
 10
-26.82182023340818
 20
-56.64463404644173
 30
0.0
 10
-26.74358701823437
 20
-56.68156177929787
 30
0.0
 10
-26.73340395720535
 20
-56.68690120602271
 30
0.0
 10
-26.72345560546689
 20
-56.6926448895769
 30
0.0
  0
SPLINE
  5
157E
330
148C
100
AcDbEntity
  8
0
100
AcDbSpline
210
0.0
220
0.0
230
1.0
 70
     8
 71
     3
 72
    30
 73
    26
 74
     0
 42
0.000000001
 43
0.0000000001
 40
2.356194490192344
 40
2.356194490192344
 40
2.356194490192344
 40
2.356194490192344
 40
2.670353755551324
 40
2.670353755551324
 40
2.986263682378289
 40
2.986263682378289
 40
3.244478731431272
 40
3.244478731431272
 40
3.510027841487826
 40
3.510027841487826
 40
3.786241626147743
 40
3.786241626147743
 40
4.068665611876249
 40
4.068665611876249
 40
4.351078978469509
 40
4.351078978469509
 40
4.627055058509507
 40
4.627055058509507
 40
4.891846801117258
 40
4.891846801117258
 40
5.150321741976457
 40
5.150321741976457
 40
5.450035055437536
 40
5.450035055437536
 40
5.497787143782137
 40
5.497787143782137
 40
5.497787143782137
 40
5.497787143782137
 10
-31.9734556054669
 20
-90.2808090571453
 30
0.0
 10
-32.03890545241667
 20
-90.24302157039043
 30
0.0
 10
-32.10673662662877
 20
-90.18935932873649
 30
0.0
 10
-32.28430557626746
 20
-89.88946718924712
 30
0.0
 10
-32.38238568746028
 20
-89.63763342779195
 30
0.0
 10
-32.47720969804698
 20
-88.99314588083868
 30
0.0
 10
-32.48891954531373
 20
-88.63800280654954
 30
0.0
 10
-32.42024072867654
 20
-87.83028364315448
 30
0.0
 10
-32.33760869474756
 20
-87.37574231814111
 30
0.0
 10
-32.06735906816663
 20
-86.4114088798205
 30
0.0
 10
-31.87588498233861
 20
-85.9002643714504
 30
0.0
 10
-31.39542744778123
 20
-84.88492555344013
 30
0.0
 10
-31.10444431976247
 20
-84.38124121914013
 30
0.0
 10
-30.45785498686894
 20
-83.44771057663363
 30
0.0
 10
-30.10226076638964
 20
-83.01801676917333
 30
0.0
 10
-29.37981228289815
 20
-82.28566303307019
 30
0.0
 10
-29.01338457166134
 20
-81.98065252692144
 30
0.0
 10
-28.33105772762296
 20
-81.51931410729529
 30
0.0
 10
-28.01405609195075
 20
-81.35810462357927
 30
0.0
 10
-27.47817289559028
 20
-81.16096569378459
 30
0.0
 10
-27.25909894598832
 20
-81.12249479790595
 30
0.0
 10
-26.91811517086805
 20
-81.10999671913752
 30
0.0
 10
-26.82182023340818
 20
-81.13953147427352
 30
0.0
 10
-26.74358701823437
 20
-81.17645920712963
 30
0.0
 10
-26.73340395720535
 20
-81.18179863385449
 30
0.0
 10
-26.72345560546689
 20
-81.18754231740869
 30
0.0
  0
ELLIPSE
  5
157F
330
148C
100
AcDbEntity
  8
0
100
AcDbEllipse
 10
-31.46977594902653
 20
37.9650563232735
 30
0.0
 11
2.624999999999729
 21
4.546633369868458
 31
0.0
210
0.0
220
0.0
230
0.9999999999999998
 40
0.577350269189626
 41
3.661258026968354
 42
5.76351993380026
  0
ELLIPSE
  5
1580
330
148C
100
AcDbEntity
  8
0
100
AcDbEllipse
 10
-31.46977594902653
 20
13.47015889544172
 30
0.0
 11
2.624999999999729
 21
4.546633369868458
 31
0.0
210
0.0
220
0.0
230
0.9999999999999998
 40
0.577350269189626
 41
3.661258026968354
 42
5.76351993380026
  0
ELLIPSE
  5
1581
330
148C
100
AcDbEntity
  8
0
100
AcDbEllipse
 10
-31.46977594902653
 20
-11.02473853239006
 30
0.0
 11
2.62499999999973
 21
4.54663336986846
 31
0.0
210
0.0
220
0.0
230
0.9999999999999998
 40
0.5773502691896258
 41
3.661258026968358
 42
5.76351993380026
  0
ELLIPSE
  5
1582
330
148C
100
AcDbEntity
  8
0
100
AcDbEllipse
 10
-31.46977594902653
 20
-35.51963596022183
 30
0.0
 11
2.62499999999973
 21
4.54663336986846
 31
0.0
210
0.0
220
0.0
230
0.9999999999999998
 40
0.5773502691896258
 41
3.66125802696836
 42
5.76351993380026
  0
ELLIPSE
  5
1583
330
148C
100
AcDbEntity
  8
0
100
AcDbEllipse
 10
-31.46977594902653
 20
-60.01453338805362
 30
0.0
 11
2.62499999999973
 21
4.54663336986846
 31
0.0
210
0.0
220
0.0
230
0.9999999999999998
 40
0.5773502691896258
 41
3.66125802696836
 42
5.763519933800256
  0
ELLIPSE
  5
1584
330
148C
100
AcDbEntity
  8
0
100
AcDbEllipse
 10
-31.46977594902653
 20
-84.5094308158854
 30
0.0
 11
2.62499999999973
 21
4.54663336986846
 31
0.0
210
0.0
220
0.0
230
0.9999999999999998
 40
0.5773502691896258
 41
3.66125802696836
 42
5.763519933800258
  0
ENDBLK
  5
148E
330
148C
100
AcDbEntity
  8
0
100
AcDbBlockEnd
  0
ENDSEC
  0
SECTION
  2
ENTITIES
  0
INSERT
  5
1585
330
1F
100
AcDbEntity
  8
0
100
AcDbBlockReference
  2
CBH220S-Front
 10
0.0
 20
0.0
 30
0.0
  0
INSERT
  5
1586
330
1F
100
AcDbEntity
  8
0
100
AcDbBlockReference
  2
CBH220S-Left
 10
96.0063721854858
 20
0.0
 30
0.0
  0
INSERT
  5
1587
330
1F
100
AcDbEntity
  8
0
100
AcDbBlockReference
  2
CBH220S-Right
 10
-96.00637218548421
 20
0.0
 30
0.0
  0
INSERT
  5
1588
330
1F
100
AcDbEntity
  8
0
100
AcDbBlockReference
  2
CBH220S-Top
 10
0.0
 20
-286.0
 30
0.0
  0
INSERT
  5
1589
330
1F
100
AcDbEntity
  8
0
100
AcDbBlockReference
  2
CBH220S-Bottom
 10
0.0
 20
66.0
 30
0.0
  0
INSERT
  5
158A
330
1F
100
AcDbEntity
  8
0
100
AcDbBlockReference
  2
CBH220S-ISO
 10
137.0157174950463
 20
-398.2952585003976
 30
0.0
  0
MTEXT
  5
158B
330
1F
100
AcDbEntity
  8
0
100
AcDbMText
 10
0.0
 20
-465.5
 30
0.0
 40
12.00000000000018
 41
0.0
 71
     5
 72
     5
  1
CBH220/2.5S
 73
     1
 44
1.0
1001
ACAD
1000
MTEXTBEGIN
1070
    73
1070
     1
1070
    44
1040
1.0
1070
    74
1070
     0
1000
MTEXTEND
  0
ENDSEC
  0
SECTION
  2
OBJECTS
  0
DICTIONARY
  5
C
330
0
100
AcDbDictionary
281
     1
  3
ACAD_CIP_PREVIOUS_PRODUCT_INFO
350
216
  3
ACAD_COLOR
350
6B
  3
ACAD_DETAILVIEWSTYLE
350
21B
  3
ACAD_GROUP
350
D
  3
ACAD_LAYOUT
350
1A
  3
ACAD_MATERIAL
350
6A
  3
ACAD_MLEADERSTYLE
350
12D
  3
ACAD_MLINESTYLE
350
17
  3
ACAD_PLOTSETTINGS
350
19
  3
ACAD_PLOTSTYLENAME
350
E
  3
ACAD_SCALELIST
350
10C
  3
ACAD_SECTIONVIEWSTYLE
350
219
  3
ACAD_TABLESTYLE
350
7E
  3
ACAD_VISUALSTYLE
350
EF
  3
ACDB_RECOMPOSE_DATA
350
168C
  3
AcDbVariableDictionary
350
5E
  3
DWGPROPS
350
168D
  0
DICTIONARY
  5
15DC
330
8
100
AcDbDictionary
280
     1
281
     1
  0
DICTIONARY
  5
1FF
330
2
100
AcDbDictionary
280
     1
281
     1
  3
ACAD_LAYERSTATES
360
200
  0
DICTIONARY
  5
13C
330
10
100
AcDbDictionary
280
     1
281
     1
  0
DICTIONARY
  5
1CE
330
1F
100
AcDbDictionary
280
     1
281
     1
  3
ACAD_LAYOUTSELFREF
360
15E4
  0
DICTIONARY
  5
158F
330
D2
100
AcDbDictionary
280
     1
281
     1
  3
ACAD_LAYOUTSELFREF
360
15ED
  0
DICTIONARY
  5
1591
330
D6
100
AcDbDictionary
280
     1
281
     1
  3
ACAD_LAYOUTSELFREF
360
15F0
  0
XRECORD
  5
216
102
{ACAD_REACTORS
330
C
102
}
330
C
100
AcDbXrecord
280
     1
300
ACD
300
2021
300

  0
DICTIONARY
  5
6B
102
{ACAD_REACTORS
330
C
102
}
330
C
100
AcDbDictionary
281
     1
  0
DICTIONARY
  5
21B
102
{ACAD_REACTORS
330
C
102
}
330
C
100
AcDbDictionary
281
     1
  3
Metric50
350
21C
  0
DICTIONARY
  5
D
102
{ACAD_REACTORS
330
C
102
}
330
C
100
AcDbDictionary
281
     1
  0
DICTIONARY
  5
1A
102
{ACAD_REACTORS
330
C
102
}
330
C
100
AcDbDictionary
281
     1
  3
Layout1
350
D3
  3
Layout2
350
D7
  3
Model
350
22
  0
DICTIONARY
  5
6A
102
{ACAD_REACTORS
330
C
102
}
330
C
100
AcDbDictionary
281
     1
  3
ByBlock
350
ED
  3
ByLayer
350
EC
  3
Global
350
EE
  0
DICTIONARY
  5
12D
102
{ACAD_REACTORS
330
C
102
}
330
C
100
AcDbDictionary
281
     1
  3
Standard
350
12E
  0
DICTIONARY
  5
17
102
{ACAD_REACTORS
330
C
102
}
330
C
100
AcDbDictionary
281
     1
  3
Standard
350
18
  0
DICTIONARY
  5
19
102
{ACAD_REACTORS
330
C
102
}
330
C
100
AcDbDictionary
281
     1
  0
ACDBDICTIONARYWDFLT
  5
E
102
{ACAD_REACTORS
330
C
102
}
330
C
100
AcDbDictionary
281
     1
  3
Normal
350
F
100
AcDbDictionaryWithDefault
340
F
  0
DICTIONARY
  5
10C
102
{ACAD_REACTORS
330
C
102
}
330
C
100
AcDbDictionary
281
     1
  3
A0
350
10D
  3
A1
350
1BE
  3
A2
350
1BF
  3
A3
350
1C0
  3
A4
350
1C1
  3
A5
350
1C2
  3
A6
350
1C3
  3
A7
350
1C4
  3
A8
350
1C5
  3
A9
350
1C6
  3
B0
350
1C7
  3
B1
350
1C8
  3
B2
350
1C9
  3
B3
350
1CA
  3
B4
350
1CB
  3
B5
350
1CC
  3
B6
350
1CD
  0
DICTIONARY
  5
219
102
{ACAD_REACTORS
330
C
102
}
330
C
100
AcDbDictionary
281
     1
  3
Metric50
350
21A
  0
DICTIONARY
  5
7E
102
{ACAD_REACTORS
330
C
102
}
330
C
100
AcDbDictionary
281
     1
  3
Standard
350
7F
  0
DICTIONARY
  5
EF
102
{ACAD_REACTORS
330
C
102
}
330
C
100
AcDbDictionary
281
     1
  3
2dWireframe
350
F5
  3
Basic
350
F4
  3
Brighten
350
FB
  3
ColorChange
350
FF
  3
Conceptual
350
F8
  3
Dim
350
FA
  3
EdgeColorOff
350
1E6
  3
Facepattern
350
FE
  3
Flat
350
F0
  3
FlatWithEdges
350
F1
  3
Gouraud
350
F2
  3
GouraudWithEdges
350
F3
  3
Hidden
350
F7
  3
JitterOff
350
1E4
  3
Linepattern
350
FD
  3
OverhangOff
350
1E5
  3
Realistic
350
F9
  3
Shaded
350
1F3
  3
Shaded with edges
350
1F2
  3
Shades of Gray
350
1EF
  3
Sketchy
350
1F0
  3
Thicken
350
FC
  3
Wireframe
350
F6
  3
X-Ray
350
1F1
  0
XRECORD
  5
168C
102
{ACAD_REACTORS
330
C
102
}
330
C
100
AcDbXrecord
280
     1
 90
        1
330
7F
  0
DICTIONARY
  5
5E
102
{ACAD_REACTORS
330
C
102
}
330
C
100
AcDbDictionary
281
     1
  3
CANNOSCALE
350
146
  3
CENTEREXE
350
259
  3
CENTERLTYPEFILE
350
25A
  3
CMLEADERSTYLE
350
145
  3
CTABLESTYLE
350
84
  3
CVIEWDETAILSTYLE
350
227
  3
CVIEWSECTIONSTYLE
350
228
  3
DIMASSOC
350
5F
  3
HIDETEXT
350
63
  3
INDEXCTL
350
1639
  3
LAYEREVAL
350
1AE
  3
LAYERNOTIFY
350
1AF
  3
LIGHTINGUNITS
350
1637
  3
MSLTSCALE
350
1636
  3
PSOLHEIGHT
350
1689
  3
PSOLWIDTH
350
1688
  3
SORTENTS
350
1638
  3
XCLIPFRAME
350
168A
  0
XRECORD
  5
168D
102
{ACAD_REACTORS
330
C
102
}
330
C
100
AcDbXrecord
280
     1
  1
DWGPROPS COOKIE
  2

  3

  4

  6

  7

  8
tronnguyen
  9

300
=
301
=
302
=
303
=
304
=
305
=
306
=
307
=
308
=
309
=
 40
0.0033796296296296
 41
2460286.6225
 42
2460286.631875
  1

 90
        0
  0
DICTIONARY
  5
200
102
{ACAD_REACTORS
330
1FF
102
}
330
1FF
100
AcDbDictionary
281
     1
  0
XRECORD
  5
15E4
102
{ACAD_REACTORS
330
1CE
102
}
330
1CE
100
AcDbXrecord
280
     1
340
1F
  0
XRECORD
  5
15ED
102
{ACAD_REACTORS
330
158F
102
}
330
158F
100
AcDbXrecord
280
     1
340
D2
  0
XRECORD
  5
15F0
102
{ACAD_REACTORS
330
1591
102
}
330
1591
100
AcDbXrecord
280
     1
340
D6
  0
ACDBDETAILVIEWSTYLE
  5
21C
102
{ACAD_XDICTIONARY
360
16CC
102
}
102
{ACAD_REACTORS
330
21B
102
}
330
21B
100
AcDbModelDocViewStyle
 70
     0
  3
Metric50
290
     0
100
AcDbDetailViewStyle
 70
     0
 71
     0
 90
        3
 71
     1
340
11
 40
5.0
340
0
 40
5.0
300

 40
0.0
280
     1
 71
     2
340
16
 90
       25
 71
     3
340
11
 40
5.0
 90
        0
 40
15.0
 90
        1
300
%<\AcVar ViewDetailId>% (%<\AcVar ViewScale \f "%sn">%)
 71
     4
340
16
 90
       25
340
16
 90
       25
280
     0
  0
LAYOUT
  5
D3
102
{ACAD_XDICTIONARY
360
1691
102
}
102
{ACAD_REACTORS
330
1A
102
}
330
1A
100
AcDbPlotSettings
  1

  2
C:\Documents and Settings\basas\Application Data\Autodesk\AutoCAD 2005\R16.1\enu\plotters\Default Windows System Printer.pc3
  4

  6

 40
0.0
 41
0.0
 42
0.0
 43
0.0
 44
0.0
 45
0.0
 46
0.0
 47
0.0
 48
0.0
 49
0.0
140
0.0
141
0.0
142
1.0
143
1.0
 70
   688
 72
     0
 73
     0
 74
     5
  7

 75
    16
147
1.0
148
0.0
149
0.0
100
AcDbLayout
  1
Layout1
 70
     1
 71
     1
 10
0.0
 20
0.0
 11
12.0
 21
9.0
 12
0.0
 22
0.0
 32
0.0
 14
0.0
 24
0.0
 34
0.0
 15
0.0
 25
0.0
 35
0.0
146
0.0
 13
0.0
 23
0.0
 33
0.0
 16
1.0
 26
0.0
 36
0.0
 17
0.0
 27
1.0
 37
0.0
 76
     0
330
D2
  0
LAYOUT
  5
D7
102
{ACAD_XDICTIONARY
360
1693
102
}
102
{ACAD_REACTORS
330
1A
102
}
330
1A
100
AcDbPlotSettings
  1

  2
C:\Documents and Settings\basas\Application Data\Autodesk\AutoCAD 2005\R16.1\enu\plotters\Default Windows System Printer.pc3
  4

  6

 40
0.0
 41
0.0
 42
0.0
 43
0.0
 44
0.0
 45
0.0
 46
0.0
 47
0.0
 48
0.0
 49
0.0
140
0.0
141
0.0
142
1.0
143
1.0
 70
   688
 72
     0
 73
     0
 74
     5
  7

 75
    16
147
1.0
148
0.0
149
0.0
100
AcDbLayout
  1
Layout2
 70
     1
 71
     2
 10
0.0
 20
0.0
 11
12.0
 21
9.0
 12
0.0
 22
0.0
 32
0.0
 14
0.0
 24
0.0
 34
0.0
 15
0.0
 25
0.0
 35
0.0
146
0.0
 13
0.0
 23
0.0
 33
0.0
 16
1.0
 26
0.0
 36
0.0
 17
0.0
 27
1.0
 37
0.0
 76
     0
330
D6
  0
LAYOUT
  5
22
102
{ACAD_XDICTIONARY
360
168E
102
}
102
{ACAD_REACTORS
330
1A
102
}
330
1A
100
AcDbPlotSettings
  1

  2
none_device
  4
ISO_A4_(210.00_x_297.00_MM)
  6

 40
7.5
 41
20.0
 42
7.5
 43
20.0
 44
210.0
 45
297.0
 46
11.54999923706054
 47
-13.65000009536743
 48
0.0
 49
0.0
140
0.0
141
0.0
142
1.0
143
8.704084754739808
 70
 11952
 72
     1
 73
     0
 74
     0
  7

 75
     0
147
0.1148885871608098
148
0.0
149
0.0
100
AcDbLayout
  1
Model
 70
     1
 71
     0
 10
0.0
 20
0.0
 11
12.0
 21
9.0
 12
0.0
 22
0.0
 32
0.0
 14
0.0
 24
0.0
 34
0.0
 15
0.0
 25
0.0
 35
0.0
146
0.0
 13
0.0
 23
0.0
 33
0.0
 16
1.0
 26
0.0
 36
0.0
 17
0.0
 27
1.0
 37
0.0
 76
     0
330
1F
331
EA
1001
ACAD_PSEXT
1000
None
1000
None
1000
Not applicable
1000
The layout will not be plotted unless a new plotter configuration name is selected.
1070
     0
  0
MATERIAL
  5
ED
102
{ACAD_XDICTIONARY
360
1F9
102
}
102
{ACAD_REACTORS
330
6A
102
}
330
6A
100
AcDbMaterial
  1
ByBlock
  0
MATERIAL
  5
EC
102
{ACAD_XDICTIONARY
360
1F7
102
}
102
{ACAD_REACTORS
330
6A
102
}
330
6A
100
AcDbMaterial
  1
ByLayer
  0
MATERIAL
  5
EE
102
{ACAD_XDICTIONARY
360
173
102
}
102
{ACAD_REACTORS
330
6A
102
}
330
6A
100
AcDbMaterial
  1
Global
 43
0.0007999999797903
 43
0.0
 43
0.0
 43
0.0
 43
0.0
 43
0.0007999999797903
 43
0.0
 43
0.0
 43
0.0
 43
0.0
 43
1.0
 43
0.0
 43
0.0
 43
0.0
 43
0.0
 43
1.0
 49
0.0007999999797903
 49
0.0
 49
0.0
 49
0.0
 49
0.0
 49
0.0007999999797903
 49
0.0
 49
0.0
 49
0.0
 49
0.0
 49
1.0
 49
0.0
 49
0.0
 49
0.0
 49
0.0
 49
1.0
142
0.0007999999797903
142
0.0
142
0.0
142
0.0
142
0.0
142
0.0007999999797903
142
0.0
142
0.0
142
0.0
142
0.0
142
1.0
142
0.0
142
0.0
142
0.0
142
0.0
142
1.0
144
0.0007999999797903
144
0.0
144
0.0
144
0.0
144
0.0
144
0.0007999999797903
144
0.0
144
0.0
144
0.0
144
0.0
144
1.0
144
0.0
144
0.0
144
0.0
144
0.0
144
1.0
1001
ACAD
1070
    -1
1070
     3
1070
     0
1000

1071
        0
1070
     0
  0
MLEADERSTYLE
  5
12E
102
{ACAD_XDICTIONARY
360
16B8
102
}
102
{ACAD_REACTORS
330
12D
102
}
330
12D
100
AcDbMLeaderStyle
170
     2
171
     1
172
     0
 90
        2
 40
0.0
 41
0.0
173
     1
 91
-1056964608
340
14
 92
       -2
290
     1
 42
2.0
291
     1
 43
8.0
  3
Standard
 44
4.0
300

342
11
174
     1
178
     1
175
     1
176
     0
 93
-1056964608
 45
4.0
292
     0
297
     0
 46
4.0
 94
-1056964608
 47
1.0
 49
1.0
140
1.0
293
     1
141
0.0
294
     1
177
     0
142
1.0
295
     0
296
     0
143
3.75
1001
ACAD_MLEADERVER
1070
     2
  0
MLINESTYLE
  5
18
102
{ACAD_REACTORS
330
17
102
}
330
17
100
AcDbMlineStyle
  2
STANDARD
 70
     0
  3

 62
   256
 51
90.0
 52
90.0
 71
     2
 49
0.5
 62
   256
  6
BYLAYER
 49
-0.5
 62
   256
  6
BYLAYER
  0
ACDBPLACEHOLDER
  5
F
102
{ACAD_REACTORS
330
E
102
}
330
E
  0
SCALE
  5
10D
102
{ACAD_REACTORS
330
10C
102
}
330
10C
100
AcDbScale
 70
     0
300
1:1
140
1.0
141
1.0
290
     1
  0
SCALE
  5
1BE
102
{ACAD_REACTORS
330
10C
102
}
330
10C
100
AcDbScale
 70
     0
300
1:2
140
1.0
141
2.0
290
     0
  0
SCALE
  5
1BF
102
{ACAD_REACTORS
330
10C
102
}
330
10C
100
AcDbScale
 70
     0
300
1:4
140
1.0
141
4.0
290
     0
  0
SCALE
  5
1C0
102
{ACAD_REACTORS
330
10C
102
}
330
10C
100
AcDbScale
 70
     0
300
1:5
140
1.0
141
5.0
290
     0
  0
SCALE
  5
1C1
102
{ACAD_REACTORS
330
10C
102
}
330
10C
100
AcDbScale
 70
     0
300
1:8
140
1.0
141
8.0
290
     0
  0
SCALE
  5
1C2
102
{ACAD_REACTORS
330
10C
102
}
330
10C
100
AcDbScale
 70
     0
300
1:10
140
1.0
141
10.0
290
     0
  0
SCALE
  5
1C3
102
{ACAD_REACTORS
330
10C
102
}
330
10C
100
AcDbScale
 70
     0
300
1:16
140
1.0
141
16.0
290
     0
  0
SCALE
  5
1C4
102
{ACAD_REACTORS
330
10C
102
}
330
10C
100
AcDbScale
 70
     0
300
1:20
140
1.0
141
20.0
290
     0
  0
SCALE
  5
1C5
102
{ACAD_REACTORS
330
10C
102
}
330
10C
100
AcDbScale
 70
     0
300
1:30
140
1.0
141
30.0
290
     0
  0
SCALE
  5
1C6
102
{ACAD_REACTORS
330
10C
102
}
330
10C
100
AcDbScale
 70
     0
300
1:40
140
1.0
141
40.0
290
     0
  0
SCALE
  5
1C7
102
{ACAD_REACTORS
330
10C
102
}
330
10C
100
AcDbScale
 70
     0
300
1:50
140
1.0
141
50.0
290
     0
  0
SCALE
  5
1C8
102
{ACAD_REACTORS
330
10C
102
}
330
10C
100
AcDbScale
 70
     0
300
1:100
140
1.0
141
100.0
290
     0
  0
SCALE
  5
1C9
102
{ACAD_REACTORS
330
10C
102
}
330
10C
100
AcDbScale
 70
     0
300
2:1
140
2.0
141
1.0
290
     0
  0
SCALE
  5
1CA
102
{ACAD_REACTORS
330
10C
102
}
330
10C
100
AcDbScale
 70
     0
300
4:1
140
4.0
141
1.0
290
     0
  0
SCALE
  5
1CB
102
{ACAD_REACTORS
330
10C
102
}
330
10C
100
AcDbScale
 70
     0
300
8:1
140
8.0
141
1.0
290
     0
  0
SCALE
  5
1CC
102
{ACAD_REACTORS
330
10C
102
}
330
10C
100
AcDbScale
 70
     0
300
10:1
140
10.0
141
1.0
290
     0
  0
SCALE
  5
1CD
102
{ACAD_REACTORS
330
10C
102
}
330
10C
100
AcDbScale
 70
     0
300
100:1
140
100.0
141
1.0
290
     0
  0
ACDBSECTIONVIEWSTYLE
  5
21A
102
{ACAD_XDICTIONARY
360
16CA
102
}
102
{ACAD_REACTORS
330
219
102
}
330
219
100
AcDbModelDocViewStyle
 70
     0
  3
Metric50
290
     0
100
AcDbSectionViewStyle
 70
     0
 71
     0
 90
      102
 71
     1
340
11
 40
5.0
340
0
340
0
 40
5.0
300
I, O, Q, S, X, Z
 40
10.0
 90
        0
 40
2.5
 90
        0
 71
     2
340
16
 90
       25
340
16
 90
       50
 40
5.0
 40
2.5
 40
5.0
 71
     3
340
11
 40
5.0
 90
        0
 40
15.0
 90
        1
300
%<\AcVar ViewSectionStartId>%-%<\AcVar ViewSectionEndId>% (%<\AcVar ViewScale \f "%sn">%)
 71
     4
300
ANSI31
 40
1.0
 90
        0
290
     0
290
     0
 90
        6
 40
0.0
 40
1.570796326794896
 40
0.2617993877991494
 40
1.308996938995747
 40
-0.2617993877991494
 40
1.832595714594046
  0
TABLESTYLE
  5
7F
102
{ACAD_XDICTIONARY
360
162
102
}
102
{ACAD_REACTORS
330
7E
102
}
330
7E
100
AcDbTableStyle
  3
Standard
 70
     0
 71
     0
 40
1.5
 41
1.5
280
     0
281
     0
  7
Standard
140
4.5
170
     2
 62
     0
 63
     7
283
     0
274
    -2
284
     1
 64
     0
275
    -2
285
     1
 65
     0
276
    -2
286
     1
 66
     0
277
    -2
287
     1
 67
     0
278
    -2
288
     1
 68
     0
279
    -2
289
     1
 69
     0
  7
Standard
140
6.0
170
     5
 62
     0
 63
     7
283
     0
274
    -2
284
     1
 64
     0
275
    -2
285
     1
 65
     0
276
    -2
286
     1
 66
     0
277
    -2
287
     1
 67
     0
278
    -2
288
     1
 68
     0
279
    -2
289
     1
 69
     0
  7
Standard
140
4.5
170
     5
 62
     0
 63
     7
283
     0
274
    -2
284
     1
 64
     0
275
    -2
285
     1
 65
     0
276
    -2
286
     1
 66
     0
277
    -2
287
     1
 67
     0
278
    -2
288
     1
 68
     0
279
    -2
289
     1
 69
     0
  0
VISUALSTYLE
  5
F5
102
{ACAD_XDICTIONARY
360
16A2
102
}
102
{ACAD_REACTORS
330
EF
102
}
330
EF
100
AcDbVisualStyle
  2
2dWireframe
 70
     4
 71
     0
 72
     2
 73
     1
 90
        0
 40
-0.6
 41
-30.0
 62
     5
 63
     7
 74
     1
 91
        4
 64
     7
 65
   257
 75
     1
175
     1
 42
1.0
 92
        0
 66
   257
 43
1.0
 76
     1
 77
     6
 78
     2
 67
     7
 79
     5
170
     0
171
     0
290
     0
174
     0
 93
        1
 44
0.0
173
     0
291
     0
 45
0.0
1001
ACAD
1000
AcDbSavedByObjectVersion
1070
     0
  0
VISUALSTYLE
  5
F4
102
{ACAD_XDICTIONARY
360
16A0
102
}
102
{ACAD_REACTORS
330
EF
102
}
330
EF
100
AcDbVisualStyle
  2
Basic
 70
     7
 71
     1
 72
     0
 73
     1
 90
        0
 40
-0.6
 41
-30.0
 62
     5
 63
     7
 74
     0
 91
        4
 64
     7
 65
   257
 75
     1
175
     1
 42
1.0
 92
        8
 66
     7
 43
1.0
 76
     1
 77
     6
 78
     2
 67
     7
 79
     5
170
     0
171
     0
290
     0
174
     0
 93
        1
 44
0.0
173
     0
291
     1
 45
0.0
1001
ACAD
1000
AcDbSavedByObjectVersion
1070
     0
  0
VISUALSTYLE
  5
FB
102
{ACAD_XDICTIONARY
360
16AE
102
}
102
{ACAD_REACTORS
330
EF
102
}
330
EF
100
AcDbVisualStyle
  2
Brighten
 70
    12
 71
     2
 72
     2
 73
     1
 90
        0
 40
-0.6
 41
-30.0
 62
     5
 63
     7
 74
     1
 91
        4
 64
     7
 65
   257
 75
     1
175
     1
 42
1.0
 92
        8
 66
     7
 43
1.0
 76
     1
 77
     6
 78
     2
 67
     7
 79
     5
170
     0
171
     0
290
     0
174
     0
 93
        1
 44
50.0
173
     0
291
     1
 45
0.0
1001
ACAD
1000
AcDbSavedByObjectVersion
1070
     0
  0
VISUALSTYLE
  5
FF
102
{ACAD_XDICTIONARY
360
16B6
102
}
102
{ACAD_REACTORS
330
EF
102
}
330
EF
100
AcDbVisualStyle
  2
ColorChange
 70
    16
 71
     2
 72
     2
 73
     3
 90
        0
 40
-0.6
 41
-30.0
 62
     5
 63
     8
 74
     1
 91
        4
 64
     7
 65
   257
 75
     1
175
     1
 42
1.0
 92
        8
 66
     8
 43
1.0
 76
     1
 77
     6
 78
     2
 67
     7
 79
     5
170
     0
171
     0
290
     0
174
     0
 93
        1
 44
0.0
173
     0
291
     1
 45
0.0
1001
ACAD
1000
AcDbSavedByObjectVersion
1070
     0
  0
VISUALSTYLE
  5
F8
102
{ACAD_XDICTIONARY
360
16A8
102
}
102
{ACAD_REACTORS
330
EF
102
}
330
EF
100
AcDbVisualStyle
  2
Conceptual
 70
     9
 71
     3
 72
     2
 73
     1
 90
        0
 40
-0.6
 41
-30.0
 62
     5
 63
     7
 74
     2
 91
        2
 64
     7
 65
   257
 75
     1
175
     1
 42
40.0
 92
        8
 66
     7
 43
1.0
 76
     1
 77
     6
 78
     2
 67
     7
 79
     3
170
     0
171
     0
290
     0
174
     0
 93
        1
 44
0.0
173
     0
291
     0
 45
0.0
1001
ACAD
1000
AcDbSavedByObjectVersion
1070
     0
  0
VISUALSTYLE
  5
FA
102
{ACAD_XDICTIONARY
360
16AC
102
}
102
{ACAD_REACTORS
330
EF
102
}
330
EF
100
AcDbVisualStyle
  2
Dim
 70
    11
 71
     2
 72
     2
 73
     1
 90
        0
 40
-0.6
 41
-30.0
 62
     5
 63
     7
 74
     1
 91
        4
 64
     7
 65
   257
 75
     1
175
     1
 42
1.0
 92
        8
 66
     7
 43
1.0
 76
     1
 77
     6
 78
     2
 67
     7
 79
     5
170
     0
171
     0
290
     0
174
     0
 93
        1
 44
-50.0
173
     0
291
     1
 45
0.0
1001
ACAD
1000
AcDbSavedByObjectVersion
1070
     0
  0
VISUALSTYLE
  5
1E6
102
{ACAD_XDICTIONARY
360
16BE
102
}
102
{ACAD_REACTORS
330
EF
102
}
330
EF
100
AcDbVisualStyle
  2
EdgeColorOff
 70
    22
 71
     2
 72
     2
 73
     0
 90
        0
 40
-0.6
 41
-30.0
 62
     5
 63
     7
 74
     1
 91
        4
 64
     7
 65
   257
 75
     1
175
     1
 42
1.0
 92
        8
 66
     7
 43
1.0
 76
     1
 77
     6
 78
     2
 67
     7
 79
     5
170
     0
171
     0
290
     0
174
     0
 93
        1
 44
0.0
173
     0
291
     1
 45
0.0
1001
ACAD
1000
AcDbSavedByObjectVersion
1070
     0
  0
VISUALSTYLE
  5
FE
102
{ACAD_XDICTIONARY
360
16B4
102
}
102
{ACAD_REACTORS
330
EF
102
}
330
EF
100
AcDbVisualStyle
  2
Facepattern
 70
    15
 71
     2
 72
     2
 73
     1
 90
        0
 40
-0.6
 41
-30.0
 62
     5
 63
     7
 74
     1
 91
        4
 64
     7
 65
   257
 75
     1
175
     1
 42
1.0
 92
        8
 66
     7
 43
1.0
 76
     1
 77
     6
 78
     2
 67
     7
 79
     5
170
     0
171
     0
290
     0
174
     0
 93
        1
 44
0.0
173
     0
291
     1
 45
0.0
1001
ACAD
1000
AcDbSavedByObjectVersion
1070
     0
  0
VISUALSTYLE
  5
F0
102
{ACAD_XDICTIONARY
360
1698
102
}
102
{ACAD_REACTORS
330
EF
102
}
330
EF
100
AcDbVisualStyle
  2
Flat
 70
     0
 71
     2
 72
     1
 73
     1
 90
        2
 40
-0.6
 41
30.0
 62
     5
 63
     7
 74
     0
 91
        0
 64
     7
 65
   257
 75
     1
175
     1
 42
1.0
 92
        8
 66
     7
 43
1.0
 76
     1
 77
     6
 78
     2
 67
     7
 79
     5
170
     0
171
     0
290
     0
174
     0
 93
       13
 44
0.0
173
     0
291
     1
 45
0.0
1001
ACAD
1000
AcDbSavedByObjectVersion
1070
     0
  0
VISUALSTYLE
  5
F1
102
{ACAD_XDICTIONARY
360
169A
102
}
102
{ACAD_REACTORS
330
EF
102
}
330
EF
100
AcDbVisualStyle
  2
FlatWithEdges
 70
     1
 71
     2
 72
     1
 73
     1
 90
        2
 40
-0.6
 41
30.0
 62
     5
 63
     7
 74
     1
 91
        0
 64
     7
 65
   257
 75
     1
175
     1
 42
1.0
 92
        0
 66
   257
 43
1.0
 76
     1
 77
     6
 78
     2
 67
     7
 79
     5
170
     0
171
     0
290
     0
174
     0
 93
       13
 44
0.0
173
     0
291
     1
 45
0.0
1001
ACAD
1000
AcDbSavedByObjectVersion
1070
     0
  0
VISUALSTYLE
  5
F2
102
{ACAD_XDICTIONARY
360
169C
102
}
102
{ACAD_REACTORS
330
EF
102
}
330
EF
100
AcDbVisualStyle
  2
Gouraud
 70
     2
 71
     2
 72
     2
 73
     1
 90
        2
 40
-0.6
 41
30.0
 62
     5
 63
     7
 74
     0
 91
        0
 64
     7
 65
   257
 75
     1
175
     1
 42
1.0
 92
        0
 66
     7
 43
1.0
 76
     1
 77
     6
 78
     2
 67
     7
 79
     5
170
     0
171
     0
290
     0
174
     0
 93
       13
 44
0.0
173
     0
291
     1
 45
0.0
1001
ACAD
1000
AcDbSavedByObjectVersion
1070
     0
  0
VISUALSTYLE
  5
F3
102
{ACAD_XDICTIONARY
360
169E
102
}
102
{ACAD_REACTORS
330
EF
102
}
330
EF
100
AcDbVisualStyle
  2
GouraudWithEdges
 70
     3
 71
     2
 72
     2
 73
     1
 90
        2
 40
-0.6
 41
30.0
 62
     5
 63
     7
 74
     1
 91
        0
 64
     7
 65
   257
 75
     1
175
     1
 42
1.0
 92
        0
 66
   257
 43
1.0
 76
     1
 77
     6
 78
     2
 67
     7
 79
     5
170
     0
171
     0
290
     0
174
     0
 93
       13
 44
0.0
173
     0
291
     1
 45
0.0
1001
ACAD
1000
AcDbSavedByObjectVersion
1070
     0
  0
VISUALSTYLE
  5
F7
102
{ACAD_XDICTIONARY
360
16A6
102
}
102
{ACAD_REACTORS
330
EF
102
}
330
EF
100
AcDbVisualStyle
  2
Hidden
 70
     6
 71
     1
 72
     2
 73
     2
 90
        0
 40
-0.6
 41
-30.0
 62
     5
 63
     7
 74
     2
 91
        2
 64
     7
 65
   257
 75
     2
175
     1
 42
40.0
 92
        0
 66
   257
 43
1.0
 76
     1
 77
     6
 78
     2
 67
     7
 79
     3
170
     0
171
     0
290
     0
174
     0
 93
        1
 44
0.0
173
     0
291
     0
 45
0.0
1001
ACAD
1000
AcDbSavedByObjectVersion
1070
     0
  0
VISUALSTYLE
  5
1E4
102
{ACAD_XDICTIONARY
360
16BA
102
}
102
{ACAD_REACTORS
330
EF
102
}
330
EF
100
AcDbVisualStyle
  2
JitterOff
 70
    20
 71
     2
 72
     2
 73
     0
 90
        0
 40
-0.6
 41
-30.0
 62
     5
 63
     7
 74
     1
 91
        4
 64
     7
 65
   257
 75
     1
175
     1
 42
1.0
 92
       10
 66
     7
 43
1.0
 76
     1
 77
     6
 78
     2
 67
     7
 79
     5
170
     0
171
     0
290
     0
174
     0
 93
        1
 44
0.0
173
     0
291
     1
 45
0.0
1001
ACAD
1000
AcDbSavedByObjectVersion
1070
     0
  0
VISUALSTYLE
  5
FD
102
{ACAD_XDICTIONARY
360
16B2
102
}
102
{ACAD_REACTORS
330
EF
102
}
330
EF
100
AcDbVisualStyle
  2
Linepattern
 70
    14
 71
     2
 72
     2
 73
     1
 90
        0
 40
-0.6
 41
-30.0
 62
     5
 63
     7
 74
     1
 91
        4
 64
     7
 65
   257
 75
     7
175
     7
 42
1.0
 92
        8
 66
     7
 43
1.0
 76
     1
 77
     6
 78
     2
 67
     7
 79
     5
170
     0
171
     0
290
     0
174
     0
 93
        1
 44
0.0
173
     0
291
     1
 45
0.0
1001
ACAD
1000
AcDbSavedByObjectVersion
1070
     0
  0
VISUALSTYLE
  5
1E5
102
{ACAD_XDICTIONARY
360
16BC
102
}
102
{ACAD_REACTORS
330
EF
102
}
330
EF
100
AcDbVisualStyle
  2
OverhangOff
 70
    21
 71
     2
 72
     2
 73
     0
 90
        0
 40
-0.6
 41
-30.0
 62
     5
 63
     7
 74
     1
 91
        4
 64
     7
 65
   257
 75
     1
175
     1
 42
1.0
 92
        9
 66
     7
 43
1.0
 76
     1
 77
     6
 78
     2
 67
     7
 79
     5
170
     0
171
     0
290
     0
174
     0
 93
        1
 44
0.0
173
     0
291
     1
 45
0.0
1001
ACAD
1000
AcDbSavedByObjectVersion
1070
     0
  0
VISUALSTYLE
  5
F9
102
{ACAD_XDICTIONARY
360
16AA
102
}
102
{ACAD_REACTORS
330
EF
102
}
330
EF
100
AcDbVisualStyle
  2
Realistic
 70
     8
 71
     2
 72
     2
 73
     0
 90
        2
 40
-0.6
 41
30.0
 62
     5
 63
     7
 74
     0
 91
        0
 64
     7
 65
   257
 75
     1
175
     1
 42
1.0
 92
        8
 66
   257
 43
1.0
 76
     1
 77
     6
 78
     2
 67
     7
 79
     3
170
     0
171
     0
290
     0
174
     0
 93
       13
 44
0.0
173
     0
291
     0
 45
0.0
1001
ACAD
1000
AcDbSavedByObjectVersion
1070
     0
  0
VISUALSTYLE
  5
1F3
102
{ACAD_XDICTIONARY
360
16C8
102
}
102
{ACAD_REACTORS
330
EF
102
}
330
EF
100
AcDbVisualStyle
  2
Shaded
 70
    27
 71
     2
 72
     2
 73
     1
 90
        2
 40
-0.6
 41
30.0
 62
     5
 63
     7
 74
     0
 91
        4
 64
     7
 65
   257
 75
     1
175
     1
 42
1.0
 92
        8
 66
   257
 43
1.0
 76
     1
 77
     6
 78
     2
 67
     8
 79
     3
170
     0
171
     0
290
     0
174
     0
 93
        5
 44
0.0
173
     0
291
     0
 45
0.0
1001
ACAD
1000
AcDbSavedByObjectVersion
1070
     0
  0
VISUALSTYLE
  5
1F2
102
{ACAD_XDICTIONARY
360
16C6
102
}
102
{ACAD_REACTORS
330
EF
102
}
330
EF
100
AcDbVisualStyle
  2
Shaded with edges
 70
    26
 71
     2
 72
     2
 73
     1
 90
        2
 40
-0.6
 41
30.0
 62
     5
 63
     7
 74
     1
 91
        2
 64
     7
 65
   257
 75
     2
175
     1
 42
1.0
 92
        8
 66
   257
 43
1.0
 76
     1
 77
     6
 78
     2
 67
     7
 79
     3
170
     0
171
     0
290
     0
174
     0
 93
        5
 44
0.0
173
     0
291
     0
 45
0.0
1001
ACAD
1000
AcDbSavedByObjectVersion
1070
     0
  0
VISUALSTYLE
  5
1EF
102
{ACAD_XDICTIONARY
360
16C0
102
}
102
{ACAD_REACTORS
330
EF
102
}
330
EF
100
AcDbVisualStyle
  2
Shades of Gray
 70
    23
 71
     2
 72
     2
 73
     3
 90
        0
 40
-0.6
 41
-30.0
 62
     5
 63
     7
 74
     2
 91
        2
 64
     7
 65
     7
 75
     1
175
     1
 42
40.0
 92
        8
 66
     7
 43
1.0
 76
     1
 77
     6
 78
     2
 67
     7
 79
     3
170
     0
171
     0
290
     0
174
     0
 93
        1
 44
0.0
173
     0
291
     0
 45
0.0
1001
ACAD
1000
AcDbSavedByObjectVersion
1070
     0
  0
VISUALSTYLE
  5
1F0
102
{ACAD_XDICTIONARY
360
16C2
102
}
102
{ACAD_REACTORS
330
EF
102
}
330
EF
100
AcDbVisualStyle
  2
Sketchy
 70
    24
 71
     1
 72
     2
 73
     2
 90
        0
 40
-0.6
 41
-30.0
 62
     5
 63
     7
 74
     2
 91
        2
 64
     7
 65
     7
 75
     1
175
     1
 42
40.0
 92
       11
 66
     7
 43
1.0
 76
     1
 77
     6
 78
     2
 67
     7
 79
     6
170
     0
171
     0
290
     0
174
     0
 93
        1
 44
0.0
173
     0
291
     0
 45
0.0
1001
ACAD
1000
AcDbSavedByObjectVersion
1070
     0
  0
VISUALSTYLE
  5
FC
102
{ACAD_XDICTIONARY
360
16B0
102
}
102
{ACAD_REACTORS
330
EF
102
}
330
EF
100
AcDbVisualStyle
  2
Thicken
 70
    13
 71
     2
 72
     2
 73
     1
 90
        0
 40
-0.6
 41
-30.0
 62
     5
 63
     7
 74
     1
 91
        4
 64
     7
 65
   257
 75
     1
175
     1
 42
1.0
 92
       12
 66
     7
 43
1.0
 76
     1
 77
     6
 78
     2
 67
     7
 79
     5
170
     0
171
     0
290
     0
174
     0
 93
        1
 44
0.0
173
     0
291
     1
 45
0.0
1001
ACAD
1000
AcDbSavedByObjectVersion
1070
     0
  0
VISUALSTYLE
  5
F6
102
{ACAD_XDICTIONARY
360
16A4
102
}
102
{ACAD_REACTORS
330
EF
102
}
330
EF
100
AcDbVisualStyle
  2
Wireframe
 70
     5
 71
     0
 72
     2
 73
     0
 90
        0
 40
-0.6
 41
-30.0
 62
     5
 63
     7
 74
     1
 91
        4
 64
     7
 65
   257
 75
     1
175
     1
 42
1.0
 92
        0
 66
   257
 43
1.0
 76
     1
 77
     6
 78
     2
 67
     7
 79
     3
170
     0
171
     0
290
     0
174
     0
 93
        1
 44
0.0
173
     0
291
     0
 45
0.0
1001
ACAD
1000
AcDbSavedByObjectVersion
1070
     0
  0
VISUALSTYLE
  5
1F1
102
{ACAD_XDICTIONARY
360
16C4
102
}
102
{ACAD_REACTORS
330
EF
102
}
330
EF
100
AcDbVisualStyle
  2
X-Ray
 70
    25
 71
     2
 72
     2
 73
     1
 90
        1
 40
0.5
 41
-30.0
 62
     5
 63
     7
 74
     1
 91
        0
 64
     7
 65
   257
 75
     1
175
     1
 42
1.0
 92
        8
 66
     7
 43
1.0
 76
     1
 77
     6
 78
     2
 67
     7
 79
     3
170
     0
171
     0
290
     0
174
     0
 93
       13
 44
0.0
173
     0
291
     0
 45
0.0
1001
ACAD
1000
AcDbSavedByObjectVersion
1070
     0
  0
DICTIONARYVAR
  5
146
102
{ACAD_REACTORS
330
5E
102
}
330
5E
100
DictionaryVariables
280
     0
  1
1:1
  0
DICTIONARYVAR
  5
259
102
{ACAD_REACTORS
330
5E
102
}
330
5E
100
DictionaryVariables
280
     0
  1
3.500000
  0
DICTIONARYVAR
  5
25A
102
{ACAD_REACTORS
330
5E
102
}
330
5E
100
DictionaryVariables
280
     0
  1
acadiso.lin
  0
DICTIONARYVAR
  5
145
102
{ACAD_REACTORS
330
5E
102
}
330
5E
100
DictionaryVariables
280
     0
  1
STANDARD
  0
DICTIONARYVAR
  5
84
102
{ACAD_REACTORS
330
5E
102
}
330
5E
100
DictionaryVariables
280
     0
  1
STANDARD
  0
DICTIONARYVAR
  5
227
102
{ACAD_REACTORS
330
5E
102
}
330
5E
100
DictionaryVariables
280
     0
  1
Metric50
  0
DICTIONARYVAR
  5
228
102
{ACAD_REACTORS
330
5E
102
}
330
5E
100
DictionaryVariables
280
     0
  1
Metric50
  0
DICTIONARYVAR
  5
5F
102
{ACAD_REACTORS
330
5E
102
}
330
5E
100
DictionaryVariables
280
     0
  1
2
  0
DICTIONARYVAR
  5
63
102
{ACAD_REACTORS
330
5E
102
}
330
5E
100
DictionaryVariables
280
     0
  1
1
  0
DICTIONARYVAR
  5
1639
102
{ACAD_REACTORS
330
5E
102
}
330
5E
100
DictionaryVariables
280
     0
  1
0
  0
DICTIONARYVAR
  5
1AE
102
{ACAD_REACTORS
330
5E
102
}
330
5E
100
DictionaryVariables
280
     0
  1
0
  0
DICTIONARYVAR
  5
1AF
102
{ACAD_REACTORS
330
5E
102
}
330
5E
100
DictionaryVariables
280
     0
  1
0
  0
DICTIONARYVAR
  5
1637
102
{ACAD_REACTORS
330
5E
102
}
330
5E
100
DictionaryVariables
280
     0
  1
2
  0
DICTIONARYVAR
  5
1636
102
{ACAD_REACTORS
330
5E
102
}
330
5E
100
DictionaryVariables
280
     0
  1
1
  0
DICTIONARYVAR
  5
1689
102
{ACAD_REACTORS
330
5E
102
}
330
5E
100
DictionaryVariables
280
     0
  1
80.000000
  0
DICTIONARYVAR
  5
1688
102
{ACAD_REACTORS
330
5E
102
}
330
5E
100
DictionaryVariables
280
     0
  1
5.000000
  0
DICTIONARYVAR
  5
1638
102
{ACAD_REACTORS
330
5E
102
}
330
5E
100
DictionaryVariables
280
     0
  1
127
  0
DICTIONARYVAR
  5
168A
102
{ACAD_REACTORS
330
5E
102
}
330
5E
100
DictionaryVariables
280
     0
  1
2
  0
DICTIONARY
  5
16CC
330
21C
100
AcDbDictionary
280
     1
281
     1
  3
ACAD_XREC_ROUNDTRIP
360
16CD
  0
DICTIONARY
  5
1691
330
D3
100
AcDbDictionary
280
     1
281
     1
  3
ACAD_XREC_ROUNDTRIP
360
1692
  0
DICTIONARY
  5
1693
330
D7
100
AcDbDictionary
280
     1
281
     1
  3
ACAD_XREC_ROUNDTRIP
360
1694
  0
DICTIONARY
  5
168E
330
22
100
AcDbDictionary
280
     1
281
     1
  3
ACAD_XREC_ROUNDTRIP
360
168F
  0
DICTIONARY
  5
1F9
330
ED
100
AcDbDictionary
280
     1
281
     1
  3
ACAD_XREC_ROUNDTRIP
360
1696
  3
FBXASSET
360
1FA
  0
DICTIONARY
  5
1F7
330
EC
100
AcDbDictionary
280
     1
281
     1
  3
ACAD_XREC_ROUNDTRIP
360
1695
  3
FBXASSET
360
1F8
  0
DICTIONARY
  5
173
330
EE
100
AcDbDictionary
280
     1
281
     1
  3
ACAD_XREC_ROUNDTRIP
360
1697
  3
BUMPTILE
360
175
  3
DIFFUSETILE
360
174
  3
FBXASSET
360
1FB
  3
OPACITYTILE
360
176
  3
REFLECTIONTILE
360
177
  0
DICTIONARY
  5
16B8
330
12E
100
AcDbDictionary
280
     1
281
     1
  3
ACAD_XREC_ROUNDTRIP
360
16B9
  0
DICTIONARY
  5
16CA
330
21A
100
AcDbDictionary
280
     1
281
     1
  3
ACAD_XREC_ROUNDTRIP
360
16CB
  0
DICTIONARY
  5
162
330
7F
100
AcDbDictionary
280
     1
281
     1
  3
ACAD_ROUNDTRIP_2008_TABLESTYLE_CELLSTYLEMAP
360
168B
  3
ACAD_XREC_ROUNDTRIP
360
1690
  0
DICTIONARY
  5
16A2
330
F5
100
AcDbDictionary
280
     1
281
     1
  3
ACAD_XREC_ROUNDTRIP
360
16A3
  0
DICTIONARY
  5
16A0
330
F4
100
AcDbDictionary
280
     1
281
     1
  3
ACAD_XREC_ROUNDTRIP
360
16A1
  0
DICTIONARY
  5
16AE
330
FB
100
AcDbDictionary
280
     1
281
     1
  3
ACAD_XREC_ROUNDTRIP
360
16AF
  0
DICTIONARY
  5
16B6
330
FF
100
AcDbDictionary
280
     1
281
     1
  3
ACAD_XREC_ROUNDTRIP
360
16B7
  0
DICTIONARY
  5
16A8
330
F8
100
AcDbDictionary
280
     1
281
     1
  3
ACAD_XREC_ROUNDTRIP
360
16A9
  0
DICTIONARY
  5
16AC
330
FA
100
AcDbDictionary
280
     1
281
     1
  3
ACAD_XREC_ROUNDTRIP
360
16AD
  0
DICTIONARY
  5
16BE
330
1E6
100
AcDbDictionary
280
     1
281
     1
  3
ACAD_XREC_ROUNDTRIP
360
16BF
  0
DICTIONARY
  5
16B4
330
FE
100
AcDbDictionary
280
     1
281
     1
  3
ACAD_XREC_ROUNDTRIP
360
16B5
  0
DICTIONARY
  5
1698
330
F0
100
AcDbDictionary
280
     1
281
     1
  3
ACAD_XREC_ROUNDTRIP
360
1699
  0
DICTIONARY
  5
169A
330
F1
100
AcDbDictionary
280
     1
281
     1
  3
ACAD_XREC_ROUNDTRIP
360
169B
  0
DICTIONARY
  5
169C
330
F2
100
AcDbDictionary
280
     1
281
     1
  3
ACAD_XREC_ROUNDTRIP
360
169D
  0
DICTIONARY
  5
169E
330
F3
100
AcDbDictionary
280
     1
281
     1
  3
ACAD_XREC_ROUNDTRIP
360
169F
  0
DICTIONARY
  5
16A6
330
F7
100
AcDbDictionary
280
     1
281
     1
  3
ACAD_XREC_ROUNDTRIP
360
16A7
  0
DICTIONARY
  5
16BA
330
1E4
100
AcDbDictionary
280
     1
281
     1
  3
ACAD_XREC_ROUNDTRIP
360
16BB
  0
DICTIONARY
  5
16B2
330
FD
100
AcDbDictionary
280
     1
281
     1
  3
ACAD_XREC_ROUNDTRIP
360
16B3
  0
DICTIONARY
  5
16BC
330
1E5
100
AcDbDictionary
280
     1
281
     1
  3
ACAD_XREC_ROUNDTRIP
360
16BD
  0
DICTIONARY
  5
16AA
330
F9
100
AcDbDictionary
280
     1
281
     1
  3
ACAD_XREC_ROUNDTRIP
360
16AB
  0
DICTIONARY
  5
16C8
330
1F3
100
AcDbDictionary
280
     1
281
     1
  3
ACAD_XREC_ROUNDTRIP
360
16C9
  0
DICTIONARY
  5
16C6
330
1F2
100
AcDbDictionary
280
     1
281
     1
  3
ACAD_XREC_ROUNDTRIP
360
16C7
  0
DICTIONARY
  5
16C0
330
1EF
100
AcDbDictionary
280
     1
281
     1
  3
ACAD_XREC_ROUNDTRIP
360
16C1
  0
DICTIONARY
  5
16C2
330
1F0
100
AcDbDictionary
280
     1
281
     1
  3
ACAD_XREC_ROUNDTRIP
360
16C3
  0
DICTIONARY
  5
16B0
330
FC
100
AcDbDictionary
280
     1
281
     1
  3
ACAD_XREC_ROUNDTRIP
360
16B1
  0
DICTIONARY
  5
16A4
330
F6
100
AcDbDictionary
280
     1
281
     1
  3
ACAD_XREC_ROUNDTRIP
360
16A5
  0
DICTIONARY
  5
16C4
330
1F1
100
AcDbDictionary
280
     1
281
     1
  3
ACAD_XREC_ROUNDTRIP
360
16C5
  0
XRECORD
  5
16CD
102
{ACAD_REACTORS
330
16CC
102
}
330
16CC
100
AcDbXrecord
280
     1
102
DISPLAYNAME
  1
Metric50
102
FLAGS
 90
        0
  0
XRECORD
  5
1692
102
{ACAD_REACTORS
330
1691
102
}
330
1691
100
AcDbXrecord
280
     1
102
SHADEPLOT
 70
     0
102
SHADEPLOTRESLEVEL
 70
     2
102
SHADEPLOTCUSTOMDPI
 70
   300
  0
XRECORD
  5
1694
102
{ACAD_REACTORS
330
1693
102
}
330
1693
100
AcDbXrecord
280
     1
102
SHADEPLOT
 70
     0
102
SHADEPLOTRESLEVEL
 70
     2
102
SHADEPLOTCUSTOMDPI
 70
   300
  0
XRECORD
  5
168F
102
{ACAD_REACTORS
330
168E
102
}
330
168E
100
AcDbXrecord
280
     1
102
SHADEPLOT
 70
     0
102
SHADEPLOTRESLEVEL
 70
     2
102
SHADEPLOTCUSTOMDPI
 70
   300
  0
XRECORD
  5
1696
102
{ACAD_REACTORS
330
1F9
102
}
330
1F9
100
AcDbXrecord
280
     1
102
MATERIAL
148
0.0
149
0.0
149
0.0
 93
        0
 94
       63
282
     0
 72
     1
 77
     1
171
     1
175
     1
179
     1
273
     0
  0
XRECORD
  5
1FA
102
{ACAD_REACTORS
330
1F9
102
}
330
1F9
100
AcDbXrecord
280
     1
 70
     1
 90
429727718
  1
D62C5603-E3A1-4AEA-B7FB-FE5D8D0755AF
310
504B03040A0000080000CC70623B3DEE336E79000000790000001B0000006175746F6465736B2D64657369676E2D7061636B6167652E786D6C3C3F786D6C2076657273696F6E3D22312E302220656E636F64696E673D227574662D3822203F3E3C666F726D6174733E3C666F726D61743E687474703A2F2F736368656D612E
310
6175746F6465736B2E636F6D2F64657369676E2D7061636B6167652F323030393C2F666F726D61743E3C2F666F726D6174733E504B0304140006080800CC70623BD486FD9CA0000000F4000000130000005B436F6E74656E745F54797065735D2E786D6C7D8EC10E82300C865F65E91D8A1E8C310C0EEA1BF002731658846E
310
D98AC1B77784ABF1D8FE5FBFBF75BBCE937A534CCEB38643598122B6FEE978D0B0485F9C41B54DDD7D022595594E1A469170414C76A4D9A4D207E29CF43ECE46F218070CC6BECC4078ACAA135ACF422C856C0E68EA1BF5669944DDD7BCDE7B1F8E415D77AECB980613C2E4AC91FC167A2B244592486606FC29C8FD7F045B9A
310
EF7053A7E60B504B0304140006080800CC70623B853B8169EB0000007C01000008000000636F72652E786D6C8D90416EC3201045AF62CDB6C206821CC7C244919D9CA01740401C94182C03558F5F9C3852BBEB6A467FFE9B197D7EFC9E1EC5975982F5AE035262288C535E5B377690E21535501C055FBC8FBF6C503839990E
310
5619041F179FE64D52DE45E362569DD7661365082642A11EB9E920A89B99642953CC8E702F67A9EE7234257977194EC9EAE275C4EABCCF5EAD5940D4AC6F0E35A568B8F43562CD7046CD199FD07E60174276A7BE677B5EADB0E0D14EEFFB6A31321A0D82627C4084204C3F096B71DD52F6819B16635EADF63F509AF53FA164
310
5DDCD1EDDD17164090FCC8732078B56691CB33A85CD7DCC40F504B0304140006080800CC70623B55019EA25F0000007C00000007000000636E782E786D6C4DCB3B0E80201045D1AD90E915ED2CF8AC45050C11660C8261F98AB1B07AC9C97D42D718D865D3E909258CFD00CCE24AC6E326A164D74DC0B4128928FF32603847
310
2BA13128B1252AC747C6BAB984FC68F0B87FE8960A5C09FE86CFB69FBA01504B0304140006080800CC70623BDBABAAF470010000D40300000C0000006662782F636F72652E786D6CC553D16E823014FD95A6AF4B694182CC941A83FA05FB810A9511A125A5257EFE2E82712ECEB8A7F100CD39F7F69E734AF9FADC366850B6
310
AF8DCE7018308C942E4C59EB2AC3DE1D498AD15A706B8CFB56869196ADCAF00863C12B6B7C374385D14E6907A836A59A41D9F7CA615434B0C8705F7CAA5606D23BA8E84F41278B93AC54100640439DE0BDB320004D43C63716C7C399D30917DCFBBA9CD9BA8469F5B156168B24CED3F7248AC8769F27244EB73B92EED8862C
310
B7F13E0C179B3C8F979C8ECD82BBBABDAA2BAC924E9558448CBD9330242CFA08E3154B5651FCC6D215639C8EE5774DBE2B5F6CF2B5768B68963BB5F5588420E442FC700B1139D4CB01F450C1E918227C2E09DF070D8140C84E1E9AAB8F1340832A9CB13130A5F1376A908D57309505ECF2A0DF179C4E9D30F5B239B87E3823
310
7A79C6F31DE1A8A5AEC08474B03C7837EAE4938639B44E5932B833D2C6B6B279CDC613877FA26EE21F4A2A4C63EC7F29A2F301D1F9F7A0E37D145F504B0304140006080800CC70623B9C113CC27E0000009D0000000B0000006662782F636E782E786D6C4DCCDF0A83201C86E15B91DFB94BFB330DD428C8FB886521330DA7
310
6397BF1A1DECE883878F57749FCDA1B7892F1BBC047A23808C7F84D9FA55424E0BE6803A256208E9EF06C84F9B91703228B1C690F78B66B34CD9A5439DF5CF0BFBF65E35BCA1B8D6A5C6F540381E886698B5741C695F9503EBA150A2F8958E3DC3EA0B504B0304140006080800CC70623B7DF2F77C2A010000120200003100
310
00006662782F41393633353835312D344632462D344230382D423046372D3739314545314133324237412F636F72652E786D6C8D51DB8EC22014FC15C2939B0D2DB4B45643319AE817EC0F6041255A68B86CFCFC856D4D76DF7CE190393373060EDB3DC707F856CE6B6B7A480A0C81328395DA5C7B18C3057510EC3873D686
310
3F34088C18550F330C39BB3A1BA7051AAC09CA84841A2BD5020AEF55806078A44B0FFD7053A328440C89E1EFC52486BBB8AA8214A99D789CF9E05200300FC927E4FB4D5B375D43103D5527440FB843077C5AA3F5861C8F645F5787F59E95B390B318B55CE45AA638FAA2957BD7248B390B7A7CC51F9C124149C82B8C378810
310
84AB2F42B7B8DD56F413775B8C5999E9FF4471926F8AA236A1AE96B8B3CC434E5839373893369E1FAF30EA395917409EB7F26AF8801C171837A4A6AC9C89E9F9C9B1A58BA30FD6A5EF5DDDCF894B9AD9B6A59C957943A9FCAE2FD5BC4DFE03504B0304140006080800CC70623BAD7543B64E01000033030000300000006662
310
782F41393633353835312D344632462D344230382D423046372D3739314545314133324237412F636E782E786D6CD593CD6EC32010845F0571AD6CE3D48AD20813A9873E410FBD12D82434182C7EAAE6EDBB2424CD25871E7B41D6EC30B3FA84F9E67BB2E40B4234DE8DB46F1925E094D7C6ED479AD3AE5951B2113C789FEE
310
6C943839C1488B4C05DF079FE72A69D8C96C13AAD6B8631503449F83828872B949AC57D26200B826A308D316B4064D6E46FCDA41C05550DC9E483A00797BFD207EFB092A45DE9514C1BBD22178396BD39D891265658C238DEA00936C654E5E433CB65A26D9F6EDB5EBC14EBF49A45CB856E66048291F6939A9A81BB5C89177
310
38143CA680F4AA299D66A042CEB3354A2684DC9D8D178FE0D9B8B41CAAD720F880EE7EF93C0C18769E099ECC04D5A102C8049A8A05632F4DDF376CF1DE0F6BB65C2F8627B65A33C6BB62177CEBBDAD973006829F89F22E814B54F4BC2BE347F8AA8F681390B50FA73F804400B5F542E796F19FF974E7F78DB802FE05E20750
310
4B0304140006080800CC70623BE75B7789680500003C100000340000006662782F41393633353835312D344632462D344230382D423046372D3739314545314133324237412F6F626A656374732E786D6CAD575B8F9B3818FD2B887D06C22499CB8AA1CA655245D5B455A356FB305264C061D8018C6C3393D95FBFC7600890
310
A4CD5EF210B0B1BFEBF98E3F7B1FF6596ABC522E1296DF9BAE3D320D9A872C4AF2F8DE2CE5CEBA358D0FBEC719939D65A691938CDE9B6ADAF4BD98B3B2D05311DD91329583D9D5FC0F438434A7A611A644887B5384CF34233629258BA878B12322891DEFF6B66BD70BFB62634E8AE781D082709A4B588AF91C528CDA28B73F
310
1C998EEF39EABBEFA97FBD6A7C7E9553F9D3D79FE442923C3C523610337627CB87ABE99D359D4CC6D6E4FACAB5E6ABF9D2726FC6A3C5F56271377BB88362213924694B38DD99FE47C48627A1E7D49F5A8BB5E1A74C0A599ED3B0F21F1E56366B89112D681E218F0915D0D6F17AD41FBA2A369DCF6335D62ABBD39779D5DDD1
310
11D4D8DE3CBB96B2E04FB8202E41051754A1AA8E8F76B4C6DFE810B580B1547F4B84911149794252234D024EF8BBE963A95AE27B3D310A9D5C215C7960FAEE415ED75694C6AFB17BCACA5D99A60A9AA65F217B0BFC53292ACB92BF283FAD0D3621576592CB5BED907C2FA8E9DF794E35E97BEA31BED21FEB401ABB94C44839
310
DCACBF0E1C5DA8DA5B2F4DFFD32AD86F543D9E565E7056502E157C00AD2671CD534549AB752FCA9CDA00677A313F04E51B22FF19E57B300579E3C97EB29F682D92935CEC18CF901B7B54FD8C51F362B56FC72FE0B3C1EAE335EDCCBF5AEC39ADB17DC238973F804BA5E6F6BFE7AF1FB32E523BE9F3BD571418E3631DCA4D48
310
5250CF639223210A9446CA30052EDF057BD35F8329C1ECD84552BF0DC8D18BE7BCE23BFE6BD960AB4A7DE79923A103BEBD80F911CBAA2C60DB19B01CF164A5583B772EE6D3FFA56666CBCDA74DC97724A48F9A58967497E489C4D979006FD7A05E227A1EBDD0F737C623387A9C844D3709995625106D157315F8B8392CD4E0
310
A0B9A720C4BE9829CEF37EA1E13111214D53925356365ADA634861B52519DD27A00AEB808EAF0628E6F435519D446F45CF2C9CF5214F0A15B2F6D06B79DA3EE3CBF7F56780D2F4E7EF73A0F5E5B02A38D07DC852C6B7C1FBB6664213E0C39E3EBA7FF4E1AD23EA2829407C85E586727488B751B2DB9502BC7B228A3FD68B6E
310
A65A22397E690AA8D158D7E404EC8CDA235CC3B7D1898680131CEC2CDF2638C65196279577750F15884AEE19F94199155B92B13297978469D4F8D358DF0AEF7631E28DC8F0D9F437D5D39A83B2231A1D52D543813A824EF8D44BCFF2FA6A31BD1E8DAD87F1CCB526B3879935BF59CDADD5C37479BB1CDD4CA7B3556B516589
310
EF352754B706114D9C885EC9131DE6EFEB43D99AFE2391C2F958179413D7CFEF6B1B6DB1E7600F00DE6E5C67454A339A4BA2E0FBA85ED26F045D454F463DBFCE484C2F90F2E5E3666003662ED8F755951A7D1BECD5B30B550B2785C8E7320B7292A4838DDA71BBC863ED7613CAF659337A3354231D4FF4A182A54904C2898C
310
98B28C4AD0CE056CCF332A80986E571EE9DBC305BB5FEB7E509220A58D25CF042D712A806AC0AD0C657FDEF80D2D9CEAA2EE4D1C76F60BFE74219A06527D6F82DF6412526107381E55E353090704D085B52408A8913C4ED159D79BDA71BB4BC506F4831350EB6F975CD22D69BF7AC49B91A2C0A9DDA3D5CA36AD20FC478E37
310
E61844E2352865EBCB61A275A65283CAAA9DD27703B4102F5AF51EF5F573B75CBB5AD38BC845F7A49F82A0966A49C2E3EA5EA0ECD326CD965F1DB402C6FA8B51A4658C5C5E2EC9E214602E55810345408596591009A82E7E7FFACA19EEA299B14A0081A705CB3296EBC14CDF658DCD336EA6D1136881AAEB87B81AB9EE53D5
310
F5EB8BC8362082DA24122F98680A4E7930C01A0079749CEA14382A0783E5EBA5A10F8C098456A03D6A4AEB6BB881E2513747552A5DB22C7EDAF83BD5528081A365F7FF06504B0304140006080000CC70623B000000000000000000000000350000006662782F41393633353835312D344632462D344230382D423046372D37
310
39314545314133324237412F76657274696365732E62696E504B0304140006080800CC70623BF270F1330600000004000000360000006662782F41393633353835312D344632462D344230382D423046372D3739314545314133324237412F747269616E676C65732E62696E636660600000504B0304140006080000CC7062
310
3B000000000000000000000000370000006662782F41393633353835312D344632462D344230382D423046372D3739314545314133324237412F617474726962757465732E62696E504B0304140006080800CC70623B08DA0BD19000000041010000360000006662782F41393633353835312D344632462D344230382D4230
310
46372D3739314545314133324237412F6469726563746F72792E786D6C858F410AC3201045AF22B36F53E9A60B35CBEEBAE80D244E44489C6234F4F835464A48035D0DF398FF9F8AF63D0E6CC63039F212F8F9020C7D47C6792B21C5FE7403D62A1188E2E60C98D7234A5830286103A55745067B9D86B8A3CF9C7F90C11DE6
310
07FB144396D7B6A82D282E9A152AD114D5EF2CB866EEE831B8EEA07A7BB5A8D7D61A2BAAEB7FD5F70921FF497D00504B0304140006080800CC70623BEDD1DC58FD000000A00100003B0000006662782F41393633353835312D344632462D344230382D423046372D3739314545314133324237412F7265736F75726365732F
310
636F72652E786D6C8D504B6E833010BD0A9A6D65B00922041947112427E8052C33A156828DFCA97AFC9A40A576D7CDCCE87D344F8F9FBFE667F689CE6B6B3A6039850C8DB2A336530731DC4903D95970676DF82583CCC8193B5861107C72362E3BA4AC096842428D1D7107A5F7182053CF7474E0D507CE32973124857FE48B
310
540F3961CEF244279DE03EB81420DB9EAC1384436FA353E879B1B182C7A8C75DA3C7F453DF353A1075D537A7BA6464B8F535A99AE14A9A2BBD90E350DD183B5CFABE3AF262350B1EF4FC9351399401471025A527C218A1E53BAB5A5AB765F5469B96525EACF23FA6B88CFF34456DC2A1DCE36E360F82A5202F42F062ED2BAD
310
579969AFDD8A6F504B010214000A0000080000CC70623B3DEE336E79000000790000001B00000000000000000000000000000000006175746F6465736B2D64657369676E2D7061636B6167652E786D6C504B01021400140006080800CC70623BD486FD9CA0000000F40000001300000000000000000000000000B20000005B
310
436F6E74656E745F54797065735D2E786D6C504B01021400140006080800CC70623B853B8169EB0000007C010000080000000000000000000000000083010000636F72652E786D6C504B01021400140006080800CC70623B55019EA25F0000007C000000070000000000000000000000000094020000636E782E786D6C504B
310
01021400140006080800CC70623BDBABAAF470010000D40300000C00000000000000000000000000180300006662782F636F72652E786D6C504B01021400140006080800CC70623B9C113CC27E0000009D0000000B00000000000000000000000000B20400006662782F636E782E786D6C504B01021400140006080800CC70
310
623B7DF2F77C2A010000120200003100000000000000000000000000590500006662782F41393633353835312D344632462D344230382D423046372D3739314545314133324237412F636F72652E786D6C504B01021400140006080800CC70623BAD7543B64E010000330300003000000000000000000000000000D2060000
310
6662782F41393633353835312D344632462D344230382D423046372D3739314545314133324237412F636E782E786D6C504B01021400140006080800CC70623BE75B7789680500003C10000034000000000000000000000000006E0800006662782F41393633353835312D344632462D344230382D423046372D3739314545
310
314133324237412F6F626A656374732E786D6C504B01021400140006080000CC70623B0000000000000000000000003500000000000000000000000000280E00006662782F41393633353835312D344632462D344230382D423046372D3739314545314133324237412F76657274696365732E62696E504B01021400140006
310
080800CC70623BF270F133060000000400000036000000000000000000000000007B0E00006662782F41393633353835312D344632462D344230382D423046372D3739314545314133324237412F747269616E676C65732E62696E504B01021400140006080000CC70623B0000000000000000000000003700000000000000
310
000000000000D50E00006662782F41393633353835312D344632462D344230382D423046372D3739314545314133324237412F617474726962757465732E62696E504B01021400140006080800CC70623B08DA0BD1900000004101000036000000000000000000000000002A0F00006662782F41393633353835312D344632
310
462D344230382D423046372D3739314545314133324237412F6469726563746F72792E786D6C504B01021400140006080800CC70623BEDD1DC58FD000000A00100003B000000000000000000000000000E1000006662782F41393633353835312D344632462D344230382D423046372D3739314545314133324237412F7265
310
736F75726365732F636F72652E786D6C504B0506000000000E000E0080040000641100000000
  0
XRECORD
  5
1695
102
{ACAD_REACTORS
330
1F7
102
}
330
1F7
100
AcDbXrecord
280
     1
102
MATERIAL
148
0.0
149
0.0
149
0.0
 93
        0
 94
       63
282
     0
 72
     1
 77
     1
171
     1
175
     1
179
     1
273
     0
  0
XRECORD
  5
1F8
102
{ACAD_REACTORS
330
1F7
102
}
330
1F7
100
AcDbXrecord
280
     1
 70
     1
 90
429727718
  1
30362254-06B7-45E0-A893-8CFA70E3D6BC
310
504B03040A0000080000CC70623B3DEE336E79000000790000001B0000006175746F6465736B2D64657369676E2D7061636B6167652E786D6C3C3F786D6C2076657273696F6E3D22312E302220656E636F64696E673D227574662D3822203F3E3C666F726D6174733E3C666F726D61743E687474703A2F2F736368656D612E
310
6175746F6465736B2E636F6D2F64657369676E2D7061636B6167652F323030393C2F666F726D61743E3C2F666F726D6174733E504B0304140006080800CC70623BD486FD9CA0000000F4000000130000005B436F6E74656E745F54797065735D2E786D6C7D8EC10E82300C865F65E91D8A1E8C310C0EEA1BF002731658846E
310
D98AC1B77784ABF1D8FE5FBFBF75BBCE937A534CCEB38643598122B6FEE978D0B0485F9C41B54DDD7D022595594E1A469170414C76A4D9A4D207E29CF43ECE46F218070CC6BECC4078ACAA135ACF422C856C0E68EA1BF5669944DDD7BCDE7B1F8E415D77AECB980613C2E4AC91FC167A2B244592486606FC29C8FD7F045B9A
310
EF7053A7E60B504B0304140006080800CC70623B1EC5D7A3EB0000007C01000008000000636F72652E786D6C8D90416EC3201045AF82665B6103C6756C6122AB4D4ED00B204C5C94182C03558F5F9C3852BBEB6A467FFE9B197D71FC9E6FE8CBACC17AD7032D0820E3B41FAD9B7A48F1820F808E52ACDEC75F36404ECDA687
310
4D0629A6D5A76597B477D1B89855E747B38B2A041301E95B6E7A08FAD3CCAA50296647B8168BD2573599823EBB0CA76447F43862C7BCCF5EAC59410E4DDD9C7973C2755553CCCFA4C603E3040F1565ED3B1FDE4E432BCA0D9622DAF9795FAF464533826484B498524CD807E51D79ED187F21878E10516EF63F505AC67F42C9
310
BA58B1FDDD071640D2FCC87D2045B96591CB3DA85CB7DCE40F504B0304140006080800CC70623B55019EA25F0000007C00000007000000636E782E786D6C4DCB3B0E80201045D1AD90E915ED2CF8AC45050C11660C8261F98AB1B07AC9C97D42D718D865D3E909258CFD00CCE24AC6E326A164D74DC0B4128928FF32603847
310
2BA13128B1252AC747C6BAB984FC68F0B87FE8960A5C09FE86CFB69FBA01504B0304140006080800CC70623B8C9102E971010000D40300000C0000006662782F636F72652E786D6CC5535B6E833010BC8AE5DF0A6C08340F1947A84D4ED00B38C6A128602363A31CBFCB234A53A551FA553EC09AD9F5CE8C31DB9E9B1AF5CA
310
7695D1198E428A91D2D214952E33ECDD315861B4E5CC1AE3BE9561A445A3323CC098B3D21ADFCE9034DA29ED00D5A6503328BA4E398C640D8B0C77F253352214DE4145770A5B214FA2546114020D759C75CE8200340D19DE981F0F6746269C33EFAB6266AB02A655C74A59CCF365BADC27CB5D902ED22848F6340DF238A141
310
BE88E2F57B92BFEDF23523433367AE6A2EEAA455C2A902F398D2751045018D3FA264435F3771F242571B4A1919CA6F9A7C5B3CD9E42BED16F12C776AEB308F40C848FC700B1139D4891EF410CEC810227CC6846F8386402064270EF5C5C709A05E49676C024C61FC95EA45ED154CA5211D1FF4FB8291A913A68E9B83EBBB33
310
E2A7673CDE118E5AE8124C0807CB8377834E366998436B950D7A7746DAD846D4CFD978E0F04FD455FC5D49D2D4C6FE9722321F10997F0F32DC47FE05504B0304140006080800CC70623BFFEA85907E0000009D0000000B0000006662782F636E782E786D6C4DCCD10A83201886E15B91FFDC95D95A811AB6F23E625948A6C3
310
E9D8E5AF46073BFAE0E1E365ED67B3E8ADC3CB78C7815C7240DA3DFC64DCC221C519D7805AC182F7F1EF06C88D9BE6703008B6049F9E274D7A1E938DBB5AE3D6131B2589BA0D3D965551E0B2EA732C9B9A624AAEB41E3A557677029960D9AFB4EF11165F504B0304140006080800CC70623B4FEEA4082C0100001202000031
310
0000006662782F39464131463745442D413632322D343644302D413938332D3331353338454246344243312F636F72652E786D6C8D515B6EC32010BC0AE2AB55850DD871ED0813254D72825EC00192A2C460F1A872FC42ED48ED5F7E00CDCECCCEB26C731F6FE05B39AFADE921293004CA082BB5B9F43086336A21D870E6AC
310
0D7F68109861543DCC30E4ECE26C9C164858139409093556AA051CBC570102714B8F1E7AF1A5C6A11862480C7F2DA6415C878B2A4891CA89C7990F2E050073937C42DE1DB7E4F87ED8A36D4329AA9B3D46DBAEAD504556557BD81DEBDD0761E52CE42C462D17B996298E3E6BE59E35C962CE821E1FF18553435012728A7187
310
0841987E927A8D9B35ADDF70BBC6989599FE4F1427F9A4286A132ABAC49D651EF234CD5CE04CDA78BA3DC2A8FB645D00B9DF8B57E215725C60BCA2A463E54C4CE327C7A65E1C7DB02E7DEFCBF594B864C5CA6CDBD49C957943E9FA5D5FBAF336F90F504B0304140006080800CC70623BAD7543B64E01000033030000300000
310
006662782F39464131463745442D413632322D343644302D413938332D3331353338454246344243312F636E782E786D6CD593CD6EC32010845F0571AD6CE3D48AD20813A9873E410FBD12D82434182C7EAAE6EDBB2424CD25871E7B41D6EC30B3FA84F9E67BB2E40B4234DE8DB46F1925E094D7C6ED479AD3AE5951B2113C
310
789FEE6C943839C1488B4C05DF079FE72A69D8C96C13AAD6B8631503449F83828872B949AC57D26200B826A308D316B4064D6E46FCDA41C05550DC9E483A00797BFD207EFB092A45DE9514C1BBD22178396BD39D891265658C238DEA00936C654E5E433CB65A26D9F6EDB5EBC14EBF49A45CB856E66048291F6939A9A81BB5
310
C8917738143CA680F4AA299D66A042CEB3354A2684DC9D8D178FE0D9B8B41CAAD720F880EE7EF93C0C18769E099ECC04D5A102C8049A8A05632F4DDF376CF1DE0F6BB65C2F8627B65A33C6BB62177CEBBDAD973006829F89F22E814B54F4BC2BE347F8AA8F681390B50FA73F804400B5F542E796F19FF974E7F78DB802FE05
310
E207504B0304140006080800CC70623B16AB87BA640500003C100000340000006662782F39464131463745442D413632322D343644302D413938332D3331353338454246344243312F6F626A656374732E786D6CAD575B6FA33818FD2B887DE6924B3BED8A326A92B68A663B534DD4D13E548A0C38942D60649B369D5FBFC7
310
600890A493BDE42160637FD7F31D7FF63E6FB3D478A55C242CBF3247B66B1A340F5994E4F19559CA8D75611A9F7D8F33263BCB4C232719BD32D5B4E97B316765A1A722BA21652A07B3B7B33F0D11D29C9A46981221AE4C113ED38CD8A4942CA2E2C58E882476BCD9DA23BB5ED8171B73523C0F841684D35CC252CCE79062D4
310
468DFA43D7747CCF51DF7D4FFDEB5593E3AB9CCA9FBEFE241792E4E19EB28198C968BAB8199F5D5A67D3E9C49A9E8F47D6EC76B6B0469F26EEFC7C3EBFBCBEB98462213924694B38DD98FE1D62C393D073EA4FADC5DAF04326852CCF6958F90F0F2B9BB5C48816348F90C7840A68EB78EDF68723159BCEE7891A6B95DDE9D3
310
BCEAEEE8086A6C6F9E5D4B59F0175C10A7A0820BAA5055C7473B5AE3CFDD452D602CD5DF12616444529E90D448938013FE6EFA58AA96F85E4F8C42275708571E98FE6827AF6B2B4AE3D7D83D64E5A64C53054DD3AF90BD06FEA9149565C94FCA0F6B834DC85599E4F2423B24DF0B6AFA979E534DFA9E7A4CC6FA631D486393
310
921829879BF5D781A373557BCB85E97FB90DB62B558F8795179C15944B051F40AB495CF35451D26A4727654E6D8033BD98EF82F21D91FF8AF2DD9982BCF1643BDD4EB516C9492E368C67C88DED563FC36D5EACF66DFF057C3658BDBFA69DF9578B3DA735B64F18C7F20770A9D45CFCF7FCF563D6456A277DBEF78A02637CA2
310
43B90A490AEAB94F72244481D24819A6C0E59B606BFA4B3025981DBB48EAB701D97BF19C577CC77F2D1B6C55A9EF3C732474C0B727303F625995056C3B02963D9EAC146BE78EC5FCEC7FA999EBC5EACBAAE41B12D27B4D2C0BBA49F244E2ECDC81B76B502F113D8F5EE8FB1BE3111CDD4FC2AA9B844CAB1288B68AB90A7CDC
310
1C166AB0D3DC5310625FCC14E779BFD0709F8890A629C9292B1B2DED31A4B0DA928CEE135085754027E3018A397D4D5427D15BD1330B677DC8934285AC3DF45A9EB68FF8F2B8FC0A509AFEECFD0FF2DE25CC6047F7214B195F07EFEB9A094D800F7BFAE8FED187B78EA8A3A400F115961BCAD1215E47C966530AF0EE8128FE
310
58CEBB996A8964FFA529A046635D9353B0336A8F700DDF46271A024E70B0B37C9DE01847591E54DED53D54202AB947E4076556AC49C6CA5C9E1226B7F1A7B1BE15DEED62C41B91E1B3E9AFAAA735036547343A925075041DF0A9979E893B391F8FCFA6967B3EFB644DCF6E5CEBFAE272625DCC6FAF3FB93793C5F90CE1EF57
310
407342756B10D1C489E8953CD1617E5CEECAD6F4EF8914CE5D5D504E5C3F1F9736DA62CFC11E00BCDDB8CC8A9466349744C1F75EBDA4DF09BA8A9E8C7A7E9991989E20E5DBDD6A6003664ED8F7A04A8DBE0DF6EAD9B9AA858342E47399053949D2C146EDB85DE4B176BB0965FBAC19BD19AA918E27FA50C1D22402E144464C
310
59462568E704B6E71915404CB72B8FF4EDE184DDAF753F284990D2C6926782963815403548A70C657FDEF80D2D9CEAA2AE4C1C76F60BFE74219A06527D6582DF6412526107381E55E353090704D085B52408D0933C4ED159D79BDA71BB4BC506F4831350EB6F979CD22D69BF7AC49B91A2C0A9DDA3D5CA36AD20FC478E37E6
310
1844E2352865EBCB6EA275A652E3836BE04EFB400BF1A2556F515F1FBB35B2AB35BD889C744FFA1004B5544B121E57F70215746DD2F5E2C1412B602CBF19455AC6C8E5E9922C4E01E65215385004546899059180EAFCF7A707CE7017CD8CDB0410789AB32C63B91E5CEBBBACB17AC6CD347A022D5075FD106377347AAABA7E
310
7D11590744509B44E205134DC1290F06580320F78E537D3D73540E06CB970B431F185308AD40BBD794D6D77003C5A36E8EAA54BA64597CD8F83BD552A080A365F7FF06504B0304140006080000CC70623B000000000000000000000000350000006662782F39464131463745442D413632322D343644302D413938332D3331
310
353338454246344243312F76657274696365732E62696E504B0304140006080800CC70623BF270F1330600000004000000360000006662782F39464131463745442D413632322D343644302D413938332D3331353338454246344243312F747269616E676C65732E62696E636660600000504B0304140006080000CC70623B
310
000000000000000000000000370000006662782F39464131463745442D413632322D343644302D413938332D3331353338454246344243312F617474726962757465732E62696E504B0304140006080800CC70623B08DA0BD19000000041010000360000006662782F39464131463745442D413632322D343644302D413938
310
332D3331353338454246344243312F6469726563746F72792E786D6C858F410AC3201045AF22B36F53E9A60B35CBEEBAE80D244E44489C6234F4F835464A48035D0DF398FF9F8AF63D0E6CC63039F212F8F9020C7D47C6792B21C5FE7403D62A1188E2E60C98D7234A5830286103A55745067B9D86B8A3CF9C7F90C11DE607
310
FB144396D7B6A82D282E9A152AD114D5EF2CB866EEE831B8EEA07A7BB5A8D7D61A2BAAEB7FD5F70921FF497D00504B0304140006080800CC70623B0D6EF93BFE000000A00100003B0000006662782F39464131463745442D413632322D343644302D413938332D3331353338454246344243312F7265736F75726365732F63
310
6F72652E786D6C8D50596E833010BD0A9ADFCA60B334011947A8694ED00B586642AC041B79A97AFC9A40A5F6AF3F33A3B7689E1E3F7DCD8FEC139DD7D6F4C0720A191A65476DA61E62B892236427C19DB5E1970C322367EC618541F0C9D9B8EC90B226A009093576C41D94DE63804C3DD2D18357379C652E63480A7FCF17A9
310
EE72C29CE5894E3AC17D702940B63D59270887DE46A7D0F36263058F518FBB468FE9A7BE6A7420864373B8D4873369AA8691FA421B3294352543C5CAF65C0F6FEF43CB8BD52C78D0F34F46E550061C419494B6843142CB0F5677F4B52BEB177AEC28E5C52AFF638ACBF84F53D42654E51E77B379102C05791282176B5F693D
310
CB4C7BED567C03504B010214000A0000080000CC70623B3DEE336E79000000790000001B00000000000000000000000000000000006175746F6465736B2D64657369676E2D7061636B6167652E786D6C504B01021400140006080800CC70623BD486FD9CA0000000F40000001300000000000000000000000000B20000005B
310
436F6E74656E745F54797065735D2E786D6C504B01021400140006080800CC70623B1EC5D7A3EB0000007C010000080000000000000000000000000083010000636F72652E786D6C504B01021400140006080800CC70623B55019EA25F0000007C000000070000000000000000000000000094020000636E782E786D6C504B
310
01021400140006080800CC70623B8C9102E971010000D40300000C00000000000000000000000000180300006662782F636F72652E786D6C504B01021400140006080800CC70623BFFEA85907E0000009D0000000B00000000000000000000000000B30400006662782F636E782E786D6C504B01021400140006080800CC70
310
623B4FEEA4082C0100001202000031000000000000000000000000005A0500006662782F39464131463745442D413632322D343644302D413938332D3331353338454246344243312F636F72652E786D6C504B01021400140006080800CC70623BAD7543B64E010000330300003000000000000000000000000000D5060000
310
6662782F39464131463745442D413632322D343644302D413938332D3331353338454246344243312F636E782E786D6C504B01021400140006080800CC70623B16AB87BA640500003C1000003400000000000000000000000000710800006662782F39464131463745442D413632322D343644302D413938332D3331353338
310
454246344243312F6F626A656374732E786D6C504B01021400140006080000CC70623B0000000000000000000000003500000000000000000000000000270E00006662782F39464131463745442D413632322D343644302D413938332D3331353338454246344243312F76657274696365732E62696E504B01021400140006
310
080800CC70623BF270F133060000000400000036000000000000000000000000007A0E00006662782F39464131463745442D413632322D343644302D413938332D3331353338454246344243312F747269616E676C65732E62696E504B01021400140006080000CC70623B0000000000000000000000003700000000000000
310
000000000000D40E00006662782F39464131463745442D413632322D343644302D413938332D3331353338454246344243312F617474726962757465732E62696E504B01021400140006080800CC70623B08DA0BD190000000410100003600000000000000000000000000290F00006662782F39464131463745442D413632
310
322D343644302D413938332D3331353338454246344243312F6469726563746F72792E786D6C504B01021400140006080800CC70623B0D6EF93BFE000000A00100003B000000000000000000000000000D1000006662782F39464131463745442D413632322D343644302D413938332D3331353338454246344243312F7265
310
736F75726365732F636F72652E786D6C504B0506000000000E000E0080040000641100000000
  0
XRECORD
  5
1697
102
{ACAD_REACTORS
330
173
102
}
330
173
100
AcDbXrecord
280
     1
102
MATERIAL
148
0.0
149
0.0
149
0.0
 93
        0
 94
       63
282
     0
 72
     1
 77
     1
171
     1
175
     1
179
     1
273
     0
  0
XRECORD
  5
175
102
{ACAD_REACTORS
330
173
102
}
330
173
100
AcDbXrecord
280
     1
270
     1
271
     1
  0
XRECORD
  5
174
102
{ACAD_REACTORS
330
173
102
}
330
173
100
AcDbXrecord
280
     1
270
     1
271
     1
  0
XRECORD
  5
1FB
102
{ACAD_REACTORS
330
173
102
}
330
173
100
AcDbXrecord
280
     1
 70
     0
 90
1673772943
  1
ECE7A1D2-D628-4531-984C-D00F80459256
310
504B03040A0000080000CC70623B3DEE336E79000000790000001B0000006175746F6465736B2D64657369676E2D7061636B6167652E786D6C3C3F786D6C2076657273696F6E3D22312E302220656E636F64696E673D227574662D3822203F3E3C666F726D6174733E3C666F726D61743E687474703A2F2F736368656D612E
310
6175746F6465736B2E636F6D2F64657369676E2D7061636B6167652F323030393C2F666F726D61743E3C2F666F726D6174733E504B0304140006080800CC70623BD486FD9CA0000000F4000000130000005B436F6E74656E745F54797065735D2E786D6C7D8EC10E82300C865F65E91D8A1E8C310C0EEA1BF002731658846E
310
D98AC1B77784ABF1D8FE5FBFBF75BBCE937A534CCEB38643598122B6FEE978D0B0485F9C41B54DDD7D022595594E1A469170414C76A4D9A4D207E29CF43ECE46F218070CC6BECC4078ACAA135ACF422C856C0E68EA1BF5669944DDD7BCDE7B1F8E415D77AECB980613C2E4AC91FC167A2B244592486606FC29C8FD7F045B9A
310
EF7053A7E60B504B0304140006080800CC70623BD9DDAED0EC0000007C01000008000000636F72652E786D6C8D90416EC3201045AF82665B61836D9CD8C2444DD39CA01740405C94182C03558F5F9C3852BBEB6A467FFE9B197D7EF89E6EE8CB2CC17A37002D0820E394D7D68D03A478C17B4007C117EFE32F1B20272733C0
310
2A83E0E3E2D3BC49CABB685CCCAAF3DA6CA20CC14440EA969B0182FA34932C648AD911AEC52CD5558EA6A0CF2EC329598D1E47ACCEFBECC59A050463A7EA5833865FEBDD0E37353BE3EE8DBDE3F6786A48D375FBF6CC78B9C282473B3DEFABC5C86834888A900E538A49F5419B9EB47DD5BC907D4F082F57FB1F28CDFA9F50
310
B22ED6D5F6EE030B20687EE43E10BC5CB3C8E51E54AE6B6EE207504B0304140006080800CC70623B55019EA25F0000007C00000007000000636E782E786D6C4DCB3B0E80201045D1AD90E915ED2CF8AC45050C11660C8261F98AB1B07AC9C97D42D718D865D3E909258CFD00CCE24AC6E326A164D74DC0B4128928FF326038
310
472BA13128B1252AC747C6BAB984FC68F0B87FE8960A5C09FE86CFB69FBA01504B0304140006080800CC70623BA24EB22D72010000D40300000C0000006662782F636F72652E786D6CC5535B6E833010BC8AE5DF0A6C5E49888CA3A6694ED00B38E05014B091B1518EDFE511A5A9D228FD2A1F60CDEC7A67C6986DCE4D8D7A
310
69BA4AAB0C073EC548AA5C17952A33ECECD15B61B4E1CC686DBF9561A44423333CC098B3D268D7CE50AE9595CA02AA74216750749DB418E5352C32DCE59FB211BE70162ABA93DF8AFC244AE9073ED050C759670D0840D390E18DF9F1706664C23973AE2A66B62A605A75ACA4C13C4976E1364A12EF355A2EBD384AF65EFA96
310
BC7B8BED2EA6719AAE16FB8491A199335B351775B991C2CA02F390D2D40B028F861F41BCA68B7518BFD0D59A524686F29B26D7164F36B94AD9289CE54E6D1DE6010819891F6E21228B3AD1831EC219194284CF98F06DD01008846CC5A1BEF83801D4CBDC6A1303536877A57A513B0953A94FC707FDBE6064EA84A9E3E6E0FA
310
EE8CF0E9198F7784A316AA0413C2C2F2E0ECA0934D1AE6D05A69BCDE9E91D2A611F573361E38FC1375157F5752AE6B6DFE4B11990F88CCBF0719EE23FF02504B0304140006080800CC70623B408A7D3B7C0000009D0000000B0000006662782F636E782E786D6C4DCCD10A83201886E15B91FFDC552A92A0064DBC8F581632
310
D3703A76F9ABD1C18E3E78F878E5F0D9027ABBFCF2292AE86E2D20171F69F6715550CB827B40839639A5F2770314A7CD293819B45C73AAFB45B35BA61ACAA1C1C7E7855C58C15BC331339661262CC762340413D68D77DA5B42298546CBE6573AF60CEB2F504B0304140006080800CC70623B449FB9BD290100001202000031
310
0000006662782F36394639363044362D344446342D343946362D394244322D3234314243333846323333332F636F72652E786D6C8D515B6EC32010BC0AE22B55850D98B871848994463E412FE002495162B07854397EA176A4F62F3F2C9A9D991D587EB84F37F0AD7D30CEF6905418026DA553C65E7A98E219ED203808EE9D
310
8B7F6810D871D23D2C3014FCE25D9A57483A1BB58D19B54EE9151C43D0110279CB971E06F9A5A7B11A53CC8C70ADE6515EC78BAE4895DB992778883E0700CB907242D17643D7E2538BD869608875438BBAE38922CAC8F1BDD90DB4691A5E2F42C153326A951B95E398B3D1FE599322163C9AE9115F7A3D46ADA0A018778810
310
84E907617BDCEE297BC5BB3DC6BC2EF47FA234AB2745C9D8D8D035EE220B50105E2F0DC1954B9FB747187D9F9D8FA0CCDB042D5FA0C015C65B42DF78BD10F3F3B363CB56C7109DCFDFBBB97E662ED92EB62D13BC2E1BCAE5777DB9966D8A1F504B0304140006080800CC70623BAD7543B64E01000033030000300000006662
310
782F36394639363044362D344446342D343946362D394244322D3234314243333846323333332F636E782E786D6CD593CD6EC32010845F0571AD6CE3D48AD20813A9873E410FBD12D82434182C7EAAE6EDBB2424CD25871E7B41D6EC30B3FA84F9E67BB2E40B4234DE8DB46F1925E094D7C6ED479AD3AE5951B2113C789FEE
310
6C943839C1488B4C05DF079FE72A69D8C96C13AAD6B8631503449F83828872B949AC57D26200B826A308D316B4064D6E46FCDA41C05550DC9E483A00797BFD207EFB092A45DE9514C1BBD22178396BD39D891265658C238DEA00936C654E5E433CB65A26D9F6EDB5EBC14EBF49A45CB856E66048291F6939A9A81BB5C89177
310
38143CA680F4AA299D66A042CEB3354A2684DC9D8D178FE0D9B8B41CAAD720F880EE7EF93C0C18769E099ECC04D5A102C8049A8A05632F4DDF376CF1DE0F6BB65C2F8627B65A33C6BB62177CEBBDAD973006829F89F22E814B54F4BC2BE347F8AA8F681390B50FA73F804400B5F542E796F19FF974E7F78DB802FE05E20750
310
4B0304140006080800CC70623B8D05915C650500003B100000340000006662782F36394639363044362D344446342D343946362D394244322D3234314243333846323333332F6F626A656374732E786D6CAD575B6FA33814FE2B887D06429276DA1565D4266D158D3A339A6846FB502932E050B66023DB74D2FDF5FB190C01
310
9276B2973C046C8ECFF53B17071F77456EBD502133CEAE6CDF9DD81665314F32965ED995DA3A17B6F5310C04E7AA47665B8C14F4CAD6DB7618A48257A5D94AE89654B91AEDDEDDFC61C998326A5B714EA4BCB265FC440BE2924AF184CA6737218AB8E976E7FA6E4338649B0A523E8D98964450A6A029F619B8588D52FE7039
310
B1BD30F0F4F730D0FF866AF6369557DB33949F31A9088B0F848DD8CCFCF9F2767A76E99CCDE733677E3EF59D9BBB9BA5E37F984D16E78BC5E5F5ED25044B25C0C96822E8D60EEFE11B91C581D77CEA34368A1F5329E68CD1B8B61F16D63A1B8E092D294B10C78C4A48EB593D192E7DED9BDEE7995E1B91FDEDD3ACEA9FE831
310
6A756F9F7D4D79F4274C90A7A04248AA51D5F8C718DAE06FB2F75AC4796EBE65D22A88A22223B995679120E2D50E41AA49C260C046A35368846B0BECD0DFF3EBEB8AD4F835768F69B9ADF25C43D30E6B646F807FAA64AD59F61715C7A54127C4AACA98BA3006A9D792DAE165E0D59B61A01FB3A9F9D838D2DAE62445C86166
310
F37564E842E7DE6A69879FEEA2DD5AE7E371E1A5E025154AC307D06A03D73EB5978C58FFA4C8E9033066E0F3BD53BEC1F39F91BE7B55103791EDE6BBB991A2046172CB4581D8B893FA674DDA17A77B3B7C413D1B511FD2743BFF8A38F03A658705E3ADF8015C3A3417FF3D7E439FF591DA0B5F18BC20C1B8981957AE6392A3
310
F43C640C01D1A0B4728E2DD4F26DB4B3C3152A252A3B4E913CEC1C72F012782FF88EFF8637AA552DBEF76408E8A8DE9E50F9E1CB3A2DA0DB1B6039A893B56063DC5B3E3FFB5F72E67AB9FEB4AEC496C4F4C1149625DD662C53E89D7BF0F6151A046260D1337DFDC94502430F83B0EE07A130A224BCAD7DAE1D9FB6CD422FF6
310
920702629C4BB9AE79C12F243C6432A6794E18E5552BA56B431AAB5D91317302B2B071E86C3A42B1A02F999E24061403B5D0EB639195DA655DD3EBEAB4FB862DDF579F014AD0E73C22F99E28DA57FB98E75C6CA2D74D53086D600F4786E0FE3144B771A8A7B900F03594DB8A633CBC49B2EDB69228BB479CF863B5E807AAAB
310
23872F6DFEB4129B949CA33823F58830E86D65621E10047D9DB34D862E8EAC3C2ABC2F7B2C40D67CDFE01F5545B92105AF983AC54D93D69E56FB8E797F88913F898A9FEC705D3F9D1B54EC8426FB500D40A03BD0119B06E1B95DDC7EB8F6975367793EBD70E66733DFB9BC982F9CE564727731999F5D4ECFCE3B8D6A4DC2A0
310
6D50FD148437D110834A64C6CDDF57FBACB5C307A2A477DFE4939736CFEF2B175371E0E10CF0DD1D5C15654E0BCA14D1E87DD02FF93782A162C0A3D95F1524A52770F972BF1EE9809D13CE7DD599467F8ECE9ADD85CE85A34CD45355448C64F9E8A031DC2D596ACC6E5DD93D9B82DE2EF5CAF81363A8E47996A0DE24564A79
310
4115AACE09C55E14540231FDA13C319787134EBF34E3A022514E5B4D9E0826E25C02D5805B15ABE1BEF51B26383D445DD9E875EE33FE4C22DA16427D65A3BCA92CA6D28DD01DF5DC53330704308475351050232CCD31583787BA75774AFB06E5070DD0C8EF484E19968C5D83BA5B90B244D31E54D55A372320FE4786B7EA58
310
44E135AA5467CB7EA333A61683CC6A8C3257034C10CF46F40EF9F5BE59BE5BD30C3C72D235E95D10345C1D45445A5F0BB47E46A5EBE5570F9380B5FA629579952296A773720405982B9DE04011506178964401AA8BDF1FBF0A8EAB6861DD6580C0E38217056766716DAEB2D6FA0917D3E4116581EADB879C4E7CFFB11EFACD
310
3D641311495D92C8676CB409A72D18610D803CE8A626049E8EC1887CB5B44CC39883690DDA8399B4B9855B481E7D71D4A9D22F96E5BB73BF5793020C02137BF837504B0304140006080000CC70623B000000000000000000000000350000006662782F36394639363044362D344446342D343946362D394244322D32343142
310
43333846323333332F76657274696365732E62696E504B0304140006080800CC70623BF270F1330600000004000000360000006662782F36394639363044362D344446342D343946362D394244322D3234314243333846323333332F747269616E676C65732E62696E636660600000504B0304140006080000CC70623B0000
310
00000000000000000000370000006662782F36394639363044362D344446342D343946362D394244322D3234314243333846323333332F617474726962757465732E62696E504B0304140006080800CC70623B08DA0BD19000000041010000360000006662782F36394639363044362D344446342D343946362D394244322D
310
3234314243333846323333332F6469726563746F72792E786D6C858F410AC3201045AF22B36F53E9A60B35CBEEBAE80D244E44489C6234F4F835464A48035D0DF398FF9F8AF63D0E6CC63039F212F8F9020C7D47C6792B21C5FE7403D62A1188E2E60C98D7234A5830286103A55745067B9D86B8A3CF9C7F90C11DE607FB14
310
4396D7B6A82D282E9A152AD114D5EF2CB866EEE831B8EEA07A7BB5A8D7D61A2BAAEB7FD5F70921FF497D00504B0304140006080800CC70623BCA768048FE000000A00100003B0000006662782F36394639363044362D344446342D343946362D394244322D3234314243333846323333332F7265736F75726365732F636F72
310
652E786D6C8D50596E833010BD0A9ADFCA60D600328E9AA639412F609909B1126CE4A5EAF16B0295DABFFECC8CDEA2797AECF8353F924FB44E193D409E5248504B332A3D0D10FC95B4901C39B3C6F85F3248B49871801506CE266BC2B243D2688FDA47549B11775038871E12F988C7004EDE7016A9083E2ADC3D5D84BC8B09
310
D33C8D74D471E6BC8D0192EDC93A815B742658898E651BCB59086ADC356A8C3FD555A1055ED7E7E254D615792D0F075295F585746FF53B694EE78A565DD736979A65AB9933AFE69F8CD2A2F038022F28ED489E135A7CE4554F9BBEA85E68DB53CAB255FEC71496F19FA6A0B42F8B3DEE6673C0F318E4497096AD7DC5F52C33
310
EEB55BFE0D504B010214000A0000080000CC70623B3DEE336E79000000790000001B00000000000000000000000000000000006175746F6465736B2D64657369676E2D7061636B6167652E786D6C504B01021400140006080800CC70623BD486FD9CA0000000F40000001300000000000000000000000000B20000005B436F
310
6E74656E745F54797065735D2E786D6C504B01021400140006080800CC70623BD9DDAED0EC0000007C010000080000000000000000000000000083010000636F72652E786D6C504B01021400140006080800CC70623B55019EA25F0000007C000000070000000000000000000000000095020000636E782E786D6C504B0102
310
1400140006080800CC70623BA24EB22D72010000D40300000C00000000000000000000000000190300006662782F636F72652E786D6C504B01021400140006080800CC70623B408A7D3B7C0000009D0000000B00000000000000000000000000B50400006662782F636E782E786D6C504B01021400140006080800CC70623B
310
449FB9BD290100001202000031000000000000000000000000005A0500006662782F36394639363044362D344446342D343946362D394244322D3234314243333846323333332F636F72652E786D6C504B01021400140006080800CC70623BAD7543B64E010000330300003000000000000000000000000000D20600006662
310
782F36394639363044362D344446342D343946362D394244322D3234314243333846323333332F636E782E786D6C504B01021400140006080800CC70623B8D05915C650500003B10000034000000000000000000000000006E0800006662782F36394639363044362D344446342D343946362D394244322D32343142433338
310
46323333332F6F626A656374732E786D6C504B01021400140006080000CC70623B0000000000000000000000003500000000000000000000000000250E00006662782F36394639363044362D344446342D343946362D394244322D3234314243333846323333332F76657274696365732E62696E504B010214001400060808
310
00CC70623BF270F13306000000040000003600000000000000000000000000780E00006662782F36394639363044362D344446342D343946362D394244322D3234314243333846323333332F747269616E676C65732E62696E504B01021400140006080000CC70623B00000000000000000000000037000000000000000000
310
00000000D20E00006662782F36394639363044362D344446342D343946362D394244322D3234314243333846323333332F617474726962757465732E62696E504B01021400140006080800CC70623B08DA0BD190000000410100003600000000000000000000000000270F00006662782F36394639363044362D344446342D
310
343946362D394244322D3234314243333846323333332F6469726563746F72792E786D6C504B01021400140006080800CC70623BCA768048FE000000A00100003B000000000000000000000000000B1000006662782F36394639363044362D344446342D343946362D394244322D3234314243333846323333332F7265736F
310
75726365732F636F72652E786D6C504B0506000000000E000E0080040000621100000000
  0
XRECORD
  5
176
102
{ACAD_REACTORS
330
173
102
}
330
173
100
AcDbXrecord
280
     1
270
     1
271
     1
  0
XRECORD
  5
177
102
{ACAD_REACTORS
330
173
102
}
330
173
100
AcDbXrecord
280
     1
270
     1
271
     1
  0
XRECORD
  5
16B9
102
{ACAD_REACTORS
330
16B8
102
}
330
16B8
100
AcDbXrecord
280
     1
102
ACAD_ROUNDTRIP_2012_MLEADER_STYLE
298
     1
  0
XRECORD
  5
16CB
102
{ACAD_REACTORS
330
16CA
102
}
330
16CA
100
AcDbXrecord
280
     1
102
DISPLAYNAME
  1
Metric50
102
FLAGS
 90
        0
  0
CELLSTYLEMAP
  5
168B
102
{ACAD_REACTORS
330
162
102
}
330
162
100
AcDbCellStyleMap
 90
        3
300
CELLSTYLE
  1
TABLEFORMAT_BEGIN
 90
        5
170
     1
 91
        0
 92
    32768
 62
   257
 93
        1
300
CONTENTFORMAT
  1
CONTENTFORMAT_BEGIN
 90
        0
 91
        0
 92
      512
 93
        0
300

 40
0.0
140
1.0
 94
        5
 62
     0
340
11
144
6.0
309
CONTENTFORMAT_END
171
     1
301
MARGIN
  1
CELLMARGIN_BEGIN
 40
1.5
 40
1.5
 40
1.5
 40
1.5
 40
4.5
 40
4.5
309
CELLMARGIN_END
 94
        6
 95
        1
302
GRIDFORMAT
  1
GRIDFORMAT_BEGIN
 90
        0
 91
        1
 62
     0
 92
       -2
340
14
 93
        0
 40
1.125
309
GRIDFORMAT_END
 95
        2
302
GRIDFORMAT
  1
GRIDFORMAT_BEGIN
 90
        0
 91
        1
 62
     0
 92
       -2
340
14
 93
        0
 40
1.125
309
GRIDFORMAT_END
 95
        4
302
GRIDFORMAT
  1
GRIDFORMAT_BEGIN
 90
        0
 91
        1
 62
     0
 92
       -2
340
14
 93
        0
 40
1.125
309
GRIDFORMAT_END
 95
        8
302
GRIDFORMAT
  1
GRIDFORMAT_BEGIN
 90
        0
 91
        1
 62
     0
 92
       -2
340
14
 93
        0
 40
1.125
309
GRIDFORMAT_END
 95
       16
302
GRIDFORMAT
  1
GRIDFORMAT_BEGIN
 90
        0
 91
        1
 62
     0
 92
       -2
340
14
 93
        0
 40
1.125
309
GRIDFORMAT_END
 95
       32
302
GRIDFORMAT
  1
GRIDFORMAT_BEGIN
 90
        0
 91
        1
 62
     0
 92
       -2
340
14
 93
        0
 40
1.125
309
GRIDFORMAT_END
309
TABLEFORMAT_END
  1
CELLSTYLE_BEGIN
 90
        1
 91
        1
300
_TITLE
309
CELLSTYLE_END
300
CELLSTYLE
  1
TABLEFORMAT_BEGIN
 90
        5
170
     1
 91
        0
 92
        0
 62
   257
 93
        1
300
CONTENTFORMAT
  1
CONTENTFORMAT_BEGIN
 90
        0
 91
        0
 92
      512
 93
        0
300

 40
0.0
140
1.0
 94
        5
 62
     0
340
11
144
4.5
309
CONTENTFORMAT_END
171
     1
301
MARGIN
  1
CELLMARGIN_BEGIN
 40
1.5
 40
1.5
 40
1.5
 40
1.5
 40
4.5
 40
4.5
309
CELLMARGIN_END
 94
        6
 95
        1
302
GRIDFORMAT
  1
GRIDFORMAT_BEGIN
 90
        0
 91
        1
 62
     0
 92
       -2
340
14
 93
        0
 40
1.125
309
GRIDFORMAT_END
 95
        2
302
GRIDFORMAT
  1
GRIDFORMAT_BEGIN
 90
        0
 91
        1
 62
     0
 92
       -2
340
14
 93
        0
 40
1.125
309
GRIDFORMAT_END
 95
        4
302
GRIDFORMAT
  1
GRIDFORMAT_BEGIN
 90
        0
 91
        1
 62
     0
 92
       -2
340
14
 93
        0
 40
1.125
309
GRIDFORMAT_END
 95
        8
302
GRIDFORMAT
  1
GRIDFORMAT_BEGIN
 90
        0
 91
        1
 62
     0
 92
       -2
340
14
 93
        0
 40
1.125
309
GRIDFORMAT_END
 95
       16
302
GRIDFORMAT
  1
GRIDFORMAT_BEGIN
 90
        0
 91
        1
 62
     0
 92
       -2
340
14
 93
        0
 40
1.125
309
GRIDFORMAT_END
 95
       32
302
GRIDFORMAT
  1
GRIDFORMAT_BEGIN
 90
        0
 91
        1
 62
     0
 92
       -2
340
14
 93
        0
 40
1.125
309
GRIDFORMAT_END
309
TABLEFORMAT_END
  1
CELLSTYLE_BEGIN
 90
        2
 91
        1
300
_HEADER
309
CELLSTYLE_END
300
CELLSTYLE
  1
TABLEFORMAT_BEGIN
 90
        5
170
     1
 91
        0
 92
        0
 62
   257
 93
        1
300
CONTENTFORMAT
  1
CONTENTFORMAT_BEGIN
 90
        0
 91
        0
 92
      512
 93
        0
300

 40
0.0
140
1.0
 94
        2
 62
     0
340
11
144
4.5
309
CONTENTFORMAT_END
171
     1
301
MARGIN
  1
CELLMARGIN_BEGIN
 40
1.5
 40
1.5
 40
1.5
 40
1.5
 40
4.5
 40
4.5
309
CELLMARGIN_END
 94
        6
 95
        1
302
GRIDFORMAT
  1
GRIDFORMAT_BEGIN
 90
        0
 91
        1
 62
     0
 92
       -2
340
14
 93
        0
 40
1.125
309
GRIDFORMAT_END
 95
        2
302
GRIDFORMAT
  1
GRIDFORMAT_BEGIN
 90
        0
 91
        1
 62
     0
 92
       -2
340
14
 93
        0
 40
1.125
309
GRIDFORMAT_END
 95
        4
302
GRIDFORMAT
  1
GRIDFORMAT_BEGIN
 90
        0
 91
        1
 62
     0
 92
       -2
340
14
 93
        0
 40
1.125
309
GRIDFORMAT_END
 95
        8
302
GRIDFORMAT
  1
GRIDFORMAT_BEGIN
 90
        0
 91
        1
 62
     0
 92
       -2
340
14
 93
        0
 40
1.125
309
GRIDFORMAT_END
 95
       16
302
GRIDFORMAT
  1
GRIDFORMAT_BEGIN
 90
        0
 91
        1
 62
     0
 92
       -2
340
14
 93
        0
 40
1.125
309
GRIDFORMAT_END
 95
       32
302
GRIDFORMAT
  1
GRIDFORMAT_BEGIN
 90
        0
 91
        1
 62
     0
 92
       -2
340
14
 93
        0
 40
1.125
309
GRIDFORMAT_END
309
TABLEFORMAT_END
  1
CELLSTYLE_BEGIN
 90
        3
 91
        2
300
_DATA
309
CELLSTYLE_END
  0
XRECORD
  5
1690
102
{ACAD_REACTORS
330
162
102
}
330
162
100
AcDbXrecord
280
     1
102
ACAD_ROUNDTRIP_PRE2007_TABLESTYLE
 90
      512
 91
        0
  1

 92
      512
 93
        0
  2

 94
      512
 95
        0
  3

  0
XRECORD
  5
16A3
102
{ACAD_REACTORS
330
16A2
102
}
330
16A2
100
AcDbXrecord
280
     1
102
RTVSPost2010Prop28
280
     1
102
RTVSPost2010PropOp28
 70
     1
102
RTVSPost2010Prop29
280
     1
102
RTVSPost2010PropOp29
 70
     1
102
RTVSPost2010Prop30
280
     0
102
RTVSPost2010PropOp30
 70
     1
102
RTVSPost2010Prop31
280
     0
102
RTVSPost2010PropOp31
 70
     1
102
RTVSPost2010Prop32
280
     0
102
RTVSPost2010PropOp32
 70
     1
102
RTVSPost2010Prop33
280
     0
102
RTVSPost2010PropOp33
 70
     1
102
RTVSPost2010Prop34
280
     0
102
RTVSPost2010PropOp34
 70
     1
102
RTVSPost2010Prop35
280
     0
102
RTVSPost2010PropOp35
 70
     1
102
RTVSPost2010Prop36
280
     0
102
RTVSPost2010PropOp36
 70
     1
102
RTVSPost2010Prop37
 90
       50
102
RTVSPost2010PropOp37
 70
     1
102
RTVSPost2010Prop38
140
0.0
102
RTVSPost2010PropOp38
 70
     1
102
RTVSPost2010Prop39
140
1.0
102
RTVSPost2010PropOp39
 70
     1
102
RTVSPost2010Prop40
 90
        0
102
RTVSPost2010PropOp40
 70
     1
102
RTVSPost2010Prop41ColorIndex
 90
       18
102
RTVSPost2010Prop41ColorRGB
 90
        0
102
RTVSPost2010PropOp41
 70
     1
102
RTVSPost2010Prop42
 90
       50
102
RTVSPost2010PropOp42
 70
     1
102
RTVSPost2010Prop43
 90
        3
102
RTVSPost2010PropOp43
 70
     1
102
RTVSPost2010Prop44ColorIndex
 90
        5
102
RTVSPost2010Prop44ColorRGB
 90
      255
102
RTVSPost2010PropOp44
 70
     1
102
RTVSPost2010Prop45
280
     0
102
RTVSPost2010PropOp45
 70
     1
102
RTVSPost2010Prop46
 90
       50
102
RTVSPost2010PropOp46
 70
     1
102
RTVSPost2010Prop47
 90
       50
102
RTVSPost2010PropOp47
 70
     1
102
RTVSPost2010Prop48
 90
       50
102
RTVSPost2010PropOp48
 70
     1
102
RTVSPost2010Prop49
280
     0
102
RTVSPost2010PropOp49
 70
     1
102
RTVSPost2010Prop50
 90
       50
102
RTVSPost2010PropOp50
 70
     1
102
RTVSPost2010Prop51ColorIndex
 90
      256
102
RTVSPost2010Prop51ColorRGB
 90
-16777216
102
RTVSPost2010PropOp51
 70
     0
102
RTVSPost2010Prop52
140
1.0
102
RTVSPost2010PropOp52
 70
     0
102
RTVSPost2010Prop53
 90
        2
102
RTVSPost2010PropOp53
 70
     1
102
RTVSPost2010Prop54
  1
strokes_ogs.tif
102
RTVSPost2010PropOp54
 70
     1
102
RTVSPost2010Prop55
280
     0
102
RTVSPost2010PropOp55
 70
     1
102
RTVSPost2010Prop56
140
1.0
102
RTVSPost2010PropOp56
 70
     1
102
RTVSPost2010Prop57
140
1.0
102
RTVSPost2010PropOp57
 70
     1
102
RTVSPropertyOp0
 70
     1
102
RTVSPropertyOp1
 70
     1
102
RTVSPropertyOp2
 70
     1
102
RTVSPropertyOp3
 70
     1
102
RTVSPropertyOp4
 70
     1
102
RTVSPropertyOp5
 70
     1
102
RTVSPropertyOp6
 70
     1
102
RTVSPropertyOp7
 70
     1
102
RTVSPropertyOp8
 70
     1
102
RTVSPropertyOp9
 70
     1
102
RTVSPropertyOp10
 70
     1
102
RTVSPropertyOp11
 70
     1
102
RTVSPropertyOp12
 70
     1
102
RTVSPropertyOp13
 70
     1
102
RTVSPropertyOp14
 70
     1
102
RTVSPropertyOp15
 70
     1
102
RTVSPropertyOp16
 70
     1
102
RTVSPropertyOp17
 70
     1
102
RTVSPropertyOp18
 70
     1
102
RTVSPropertyOp19
 70
     1
102
RTVSPropertyOp20
 70
     1
102
RTVSPropertyOp21
 70
     1
102
RTVSPropertyOp22
 70
     1
102
RTVSPropertyOp23
 70
     1
102
RTVSPropertyOp24
 70
     1
102
RTVSPropertyOp25
 70
     1
102
RTVSPropertyOp26
 70
     1
102
RTVSPropertyOp27
 70
     1
102
RTVSPropertyOp28
 70
     1
102
RTVSPropertyOp29
 70
     1
102
RTVSPropertyOp30
 70
     1
102
RTVSPropertyOp31
 70
     1
102
RTVSPropertyOp32
 70
     1
102
RTVSPropertyOp33
 70
     1
102
RTVSPropertyOp34
 70
     1
102
RTVSPropertyOp35
 70
     1
102
RTVSPropertyOp36
 70
     1
102
RTVSPropertyOp37
 70
     1
102
RTVSPropertyOp38
 70
     1
102
RTVSPropertyOp39
 70
     1
102
RTVSPropertyOp40
 70
     1
102
RTVSPropertyOp41
 70
     1
102
RTVSPropertyOp42
 70
     1
102
RTVSPropertyOp43
 70
     1
102
RTVSPropertyOp44
 70
     1
102
RTVSPropertyOp45
 70
     1
102
RTVSPropertyOp46
 70
     1
102
RTVSPropertyOp47
 70
     1
102
RTVSPropertyOp48
 70
     1
102
RTVSPropertyOp49
 70
     1
102
RTVSPropertyOp50
 70
     1
102
RTVSPropertyOp51
 70
     0
102
RTVSPropertyOp52
 70
     0
102
RTVSPropertyOp53
 70
     1
102
RTVSPropertyOp54
 70
     1
102
RTVSPropertyOp55
 70
     1
102
RTVSPropertyOp56
 70
     1
102
RTVSPropertyOp57
 70
     1
102
RTVSPropertyOp58
 70
     1
102
RTVSPropertyOp59
 70
     1
102
RTVSPropertyOp60
 70
     1
102
RTVSPropertyOp61
 70
     1
102
RTVSPropertyOp62
 70
     1
  0
XRECORD
  5
16A1
102
{ACAD_REACTORS
330
16A0
102
}
330
16A0
100
AcDbXrecord
280
     1
102
RTVSPost2010Prop28
280
     0
102
RTVSPost2010PropOp28
 70
     1
102
RTVSPost2010Prop29
280
     1
102
RTVSPost2010PropOp29
 70
     1
102
RTVSPost2010Prop30
280
     1
102
RTVSPost2010PropOp30
 70
     1
102
RTVSPost2010Prop31
280
     0
102
RTVSPost2010PropOp31
 70
     1
102
RTVSPost2010Prop32
280
     0
102
RTVSPost2010PropOp32
 70
     1
102
RTVSPost2010Prop33
280
     0
102
RTVSPost2010PropOp33
 70
     1
102
RTVSPost2010Prop34
280
     0
102
RTVSPost2010PropOp34
 70
     1
102
RTVSPost2010Prop35
280
     0
102
RTVSPost2010PropOp35
 70
     1
102
RTVSPost2010Prop36
280
     0
102
RTVSPost2010PropOp36
 70
     1
102
RTVSPost2010Prop37
 90
       50
102
RTVSPost2010PropOp37
 70
     1
102
RTVSPost2010Prop38
140
0.0
102
RTVSPost2010PropOp38
 70
     1
102
RTVSPost2010Prop39
140
1.0
102
RTVSPost2010PropOp39
 70
     1
102
RTVSPost2010Prop40
 90
        0
102
RTVSPost2010PropOp40
 70
     1
102
RTVSPost2010Prop41ColorIndex
 90
       18
102
RTVSPost2010Prop41ColorRGB
 90
        0
102
RTVSPost2010PropOp41
 70
     1
102
RTVSPost2010Prop42
 90
       50
102
RTVSPost2010PropOp42
 70
     1
102
RTVSPost2010Prop43
 90
        3
102
RTVSPost2010PropOp43
 70
     1
102
RTVSPost2010Prop44ColorIndex
 90
        5
102
RTVSPost2010Prop44ColorRGB
 90
      255
102
RTVSPost2010PropOp44
 70
     1
102
RTVSPost2010Prop45
280
     0
102
RTVSPost2010PropOp45
 70
     1
102
RTVSPost2010Prop46
 90
       50
102
RTVSPost2010PropOp46
 70
     1
102
RTVSPost2010Prop47
 90
       50
102
RTVSPost2010PropOp47
 70
     1
102
RTVSPost2010Prop48
 90
       50
102
RTVSPost2010PropOp48
 70
     1
102
RTVSPost2010Prop49
280
     0
102
RTVSPost2010PropOp49
 70
     1
102
RTVSPost2010Prop50
 90
       50
102
RTVSPost2010PropOp50
 70
     1
102
RTVSPost2010Prop51ColorIndex
 90
      256
102
RTVSPost2010Prop51ColorRGB
 90
-16777216
102
RTVSPost2010PropOp51
 70
     0
102
RTVSPost2010Prop52
140
1.0
102
RTVSPost2010PropOp52
 70
     0
102
RTVSPost2010Prop53
 90
        2
102
RTVSPost2010PropOp53
 70
     1
102
RTVSPost2010Prop54
  1
strokes_ogs.tif
102
RTVSPost2010PropOp54
 70
     1
102
RTVSPost2010Prop55
280
     0
102
RTVSPost2010PropOp55
 70
     1
102
RTVSPost2010Prop56
140
1.0
102
RTVSPost2010PropOp56
 70
     1
102
RTVSPost2010Prop57
140
1.0
102
RTVSPost2010PropOp57
 70
     1
102
RTVSPropertyOp0
 70
     1
102
RTVSPropertyOp1
 70
     1
102
RTVSPropertyOp2
 70
     1
102
RTVSPropertyOp3
 70
     1
102
RTVSPropertyOp4
 70
     1
102
RTVSPropertyOp5
 70
     1
102
RTVSPropertyOp6
 70
     1
102
RTVSPropertyOp7
 70
     1
102
RTVSPropertyOp8
 70
     1
102
RTVSPropertyOp9
 70
     1
102
RTVSPropertyOp10
 70
     1
102
RTVSPropertyOp11
 70
     1
102
RTVSPropertyOp12
 70
     1
102
RTVSPropertyOp13
 70
     1
102
RTVSPropertyOp14
 70
     1
102
RTVSPropertyOp15
 70
     1
102
RTVSPropertyOp16
 70
     1
102
RTVSPropertyOp17
 70
     1
102
RTVSPropertyOp18
 70
     1
102
RTVSPropertyOp19
 70
     1
102
RTVSPropertyOp20
 70
     1
102
RTVSPropertyOp21
 70
     1
102
RTVSPropertyOp22
 70
     1
102
RTVSPropertyOp23
 70
     1
102
RTVSPropertyOp24
 70
     1
102
RTVSPropertyOp25
 70
     1
102
RTVSPropertyOp26
 70
     1
102
RTVSPropertyOp27
 70
     1
102
RTVSPropertyOp28
 70
     1
102
RTVSPropertyOp29
 70
     1
102
RTVSPropertyOp30
 70
     1
102
RTVSPropertyOp31
 70
     1
102
RTVSPropertyOp32
 70
     1
102
RTVSPropertyOp33
 70
     1
102
RTVSPropertyOp34
 70
     1
102
RTVSPropertyOp35
 70
     1
102
RTVSPropertyOp36
 70
     1
102
RTVSPropertyOp37
 70
     1
102
RTVSPropertyOp38
 70
     1
102
RTVSPropertyOp39
 70
     1
102
RTVSPropertyOp40
 70
     1
102
RTVSPropertyOp41
 70
     1
102
RTVSPropertyOp42
 70
     1
102
RTVSPropertyOp43
 70
     1
102
RTVSPropertyOp44
 70
     1
102
RTVSPropertyOp45
 70
     1
102
RTVSPropertyOp46
 70
     1
102
RTVSPropertyOp47
 70
     1
102
RTVSPropertyOp48
 70
     1
102
RTVSPropertyOp49
 70
     1
102
RTVSPropertyOp50
 70
     1
102
RTVSPropertyOp51
 70
     0
102
RTVSPropertyOp52
 70
     0
102
RTVSPropertyOp53
 70
     1
102
RTVSPropertyOp54
 70
     1
102
RTVSPropertyOp55
 70
     1
102
RTVSPropertyOp56
 70
     1
102
RTVSPropertyOp57
 70
     1
102
RTVSPropertyOp58
 70
     1
102
RTVSPropertyOp59
 70
     1
102
RTVSPropertyOp60
 70
     1
102
RTVSPropertyOp61
 70
     1
102
RTVSPropertyOp62
 70
     1
  0
XRECORD
  5
16AF
102
{ACAD_REACTORS
330
16AE
102
}
330
16AE
100
AcDbXrecord
280
     1
102
RTVSPost2010Prop28
280
     0
102
RTVSPost2010PropOp28
 70
     1
102
RTVSPost2010Prop29
280
     1
102
RTVSPost2010PropOp29
 70
     1
102
RTVSPost2010Prop30
280
     1
102
RTVSPost2010PropOp30
 70
     1
102
RTVSPost2010Prop31
280
     0
102
RTVSPost2010PropOp31
 70
     1
102
RTVSPost2010Prop32
280
     0
102
RTVSPost2010PropOp32
 70
     1
102
RTVSPost2010Prop33
280
     0
102
RTVSPost2010PropOp33
 70
     1
102
RTVSPost2010Prop34
280
     0
102
RTVSPost2010PropOp34
 70
     1
102
RTVSPost2010Prop35
280
     0
102
RTVSPost2010PropOp35
 70
     1
102
RTVSPost2010Prop36
280
     0
102
RTVSPost2010PropOp36
 70
     1
102
RTVSPost2010Prop37
 90
       50
102
RTVSPost2010PropOp37
 70
     1
102
RTVSPost2010Prop38
140
0.0
102
RTVSPost2010PropOp38
 70
     1
102
RTVSPost2010Prop39
140
1.0
102
RTVSPost2010PropOp39
 70
     1
102
RTVSPost2010Prop40
 90
        0
102
RTVSPost2010PropOp40
 70
     1
102
RTVSPost2010Prop41ColorIndex
 90
       18
102
RTVSPost2010Prop41ColorRGB
 90
        0
102
RTVSPost2010PropOp41
 70
     1
102
RTVSPost2010Prop42
 90
       50
102
RTVSPost2010PropOp42
 70
     1
102
RTVSPost2010Prop43
 90
        3
102
RTVSPost2010PropOp43
 70
     1
102
RTVSPost2010Prop44ColorIndex
 90
        5
102
RTVSPost2010Prop44ColorRGB
 90
      255
102
RTVSPost2010PropOp44
 70
     1
102
RTVSPost2010Prop45
280
     0
102
RTVSPost2010PropOp45
 70
     1
102
RTVSPost2010Prop46
 90
       50
102
RTVSPost2010PropOp46
 70
     1
102
RTVSPost2010Prop47
 90
       50
102
RTVSPost2010PropOp47
 70
     1
102
RTVSPost2010Prop48
 90
       50
102
RTVSPost2010PropOp48
 70
     1
102
RTVSPost2010Prop49
280
     0
102
RTVSPost2010PropOp49
 70
     1
102
RTVSPost2010Prop50
 90
       50
102
RTVSPost2010PropOp50
 70
     1
102
RTVSPost2010Prop51ColorIndex
 90
      256
102
RTVSPost2010Prop51ColorRGB
 90
-16777216
102
RTVSPost2010PropOp51
 70
     0
102
RTVSPost2010Prop52
140
1.0
102
RTVSPost2010PropOp52
 70
     0
102
RTVSPost2010Prop53
 90
        2
102
RTVSPost2010PropOp53
 70
     1
102
RTVSPost2010Prop54
  1
strokes_ogs.tif
102
RTVSPost2010PropOp54
 70
     1
102
RTVSPost2010Prop55
280
     0
102
RTVSPost2010PropOp55
 70
     1
102
RTVSPost2010Prop56
140
1.0
102
RTVSPost2010PropOp56
 70
     1
102
RTVSPost2010Prop57
140
1.0
102
RTVSPost2010PropOp57
 70
     1
102
RTVSPropertyOp0
 70
     1
102
RTVSPropertyOp1
 70
     1
102
RTVSPropertyOp2
 70
     1
102
RTVSPropertyOp3
 70
     1
102
RTVSPropertyOp4
 70
     1
102
RTVSPropertyOp5
 70
     1
102
RTVSPropertyOp6
 70
     1
102
RTVSPropertyOp7
 70
     1
102
RTVSPropertyOp8
 70
     1
102
RTVSPropertyOp9
 70
     1
102
RTVSPropertyOp10
 70
     1
102
RTVSPropertyOp11
 70
     1
102
RTVSPropertyOp12
 70
     1
102
RTVSPropertyOp13
 70
     1
102
RTVSPropertyOp14
 70
     1
102
RTVSPropertyOp15
 70
     1
102
RTVSPropertyOp16
 70
     1
102
RTVSPropertyOp17
 70
     1
102
RTVSPropertyOp18
 70
     1
102
RTVSPropertyOp19
 70
     1
102
RTVSPropertyOp20
 70
     1
102
RTVSPropertyOp21
 70
     1
102
RTVSPropertyOp22
 70
     1
102
RTVSPropertyOp23
 70
     1
102
RTVSPropertyOp24
 70
     1
102
RTVSPropertyOp25
 70
     1
102
RTVSPropertyOp26
 70
     1
102
RTVSPropertyOp27
 70
     1
102
RTVSPropertyOp28
 70
     1
102
RTVSPropertyOp29
 70
     1
102
RTVSPropertyOp30
 70
     1
102
RTVSPropertyOp31
 70
     1
102
RTVSPropertyOp32
 70
     1
102
RTVSPropertyOp33
 70
     1
102
RTVSPropertyOp34
 70
     1
102
RTVSPropertyOp35
 70
     1
102
RTVSPropertyOp36
 70
     1
102
RTVSPropertyOp37
 70
     1
102
RTVSPropertyOp38
 70
     1
102
RTVSPropertyOp39
 70
     1
102
RTVSPropertyOp40
 70
     1
102
RTVSPropertyOp41
 70
     1
102
RTVSPropertyOp42
 70
     1
102
RTVSPropertyOp43
 70
     1
102
RTVSPropertyOp44
 70
     1
102
RTVSPropertyOp45
 70
     1
102
RTVSPropertyOp46
 70
     1
102
RTVSPropertyOp47
 70
     1
102
RTVSPropertyOp48
 70
     1
102
RTVSPropertyOp49
 70
     1
102
RTVSPropertyOp50
 70
     1
102
RTVSPropertyOp51
 70
     0
102
RTVSPropertyOp52
 70
     0
102
RTVSPropertyOp53
 70
     1
102
RTVSPropertyOp54
 70
     1
102
RTVSPropertyOp55
 70
     1
102
RTVSPropertyOp56
 70
     1
102
RTVSPropertyOp57
 70
     1
102
RTVSPropertyOp58
 70
     1
102
RTVSPropertyOp59
 70
     1
102
RTVSPropertyOp60
 70
     1
102
RTVSPropertyOp61
 70
     1
102
RTVSPropertyOp62
 70
     1
  0
XRECORD
  5
16B7
102
{ACAD_REACTORS
330
16B6
102
}
330
16B6
100
AcDbXrecord
280
     1
102
RTVSPost2010Prop28
280
     0
102
RTVSPost2010PropOp28
 70
     1
102
RTVSPost2010Prop29
280
     1
102
RTVSPost2010PropOp29
 70
     1
102
RTVSPost2010Prop30
280
     1
102
RTVSPost2010PropOp30
 70
     1
102
RTVSPost2010Prop31
280
     0
102
RTVSPost2010PropOp31
 70
     1
102
RTVSPost2010Prop32
280
     0
102
RTVSPost2010PropOp32
 70
     1
102
RTVSPost2010Prop33
280
     0
102
RTVSPost2010PropOp33
 70
     1
102
RTVSPost2010Prop34
280
     0
102
RTVSPost2010PropOp34
 70
     1
102
RTVSPost2010Prop35
280
     0
102
RTVSPost2010PropOp35
 70
     1
102
RTVSPost2010Prop36
280
     0
102
RTVSPost2010PropOp36
 70
     1
102
RTVSPost2010Prop37
 90
       50
102
RTVSPost2010PropOp37
 70
     1
102
RTVSPost2010Prop38
140
0.0
102
RTVSPost2010PropOp38
 70
     1
102
RTVSPost2010Prop39
140
1.0
102
RTVSPost2010PropOp39
 70
     1
102
RTVSPost2010Prop40
 90
        0
102
RTVSPost2010PropOp40
 70
     1
102
RTVSPost2010Prop41ColorIndex
 90
       18
102
RTVSPost2010Prop41ColorRGB
 90
        0
102
RTVSPost2010PropOp41
 70
     1
102
RTVSPost2010Prop42
 90
       50
102
RTVSPost2010PropOp42
 70
     1
102
RTVSPost2010Prop43
 90
        3
102
RTVSPost2010PropOp43
 70
     1
102
RTVSPost2010Prop44ColorIndex
 90
        5
102
RTVSPost2010Prop44ColorRGB
 90
      255
102
RTVSPost2010PropOp44
 70
     1
102
RTVSPost2010Prop45
280
     0
102
RTVSPost2010PropOp45
 70
     1
102
RTVSPost2010Prop46
 90
       50
102
RTVSPost2010PropOp46
 70
     1
102
RTVSPost2010Prop47
 90
       50
102
RTVSPost2010PropOp47
 70
     1
102
RTVSPost2010Prop48
 90
       50
102
RTVSPost2010PropOp48
 70
     1
102
RTVSPost2010Prop49
280
     0
102
RTVSPost2010PropOp49
 70
     1
102
RTVSPost2010Prop50
 90
       50
102
RTVSPost2010PropOp50
 70
     1
102
RTVSPost2010Prop51ColorIndex
 90
      256
102
RTVSPost2010Prop51ColorRGB
 90
-16777216
102
RTVSPost2010PropOp51
 70
     0
102
RTVSPost2010Prop52
140
1.0
102
RTVSPost2010PropOp52
 70
     0
102
RTVSPost2010Prop53
 90
        2
102
RTVSPost2010PropOp53
 70
     1
102
RTVSPost2010Prop54
  1
strokes_ogs.tif
102
RTVSPost2010PropOp54
 70
     1
102
RTVSPost2010Prop55
280
     0
102
RTVSPost2010PropOp55
 70
     1
102
RTVSPost2010Prop56
140
1.0
102
RTVSPost2010PropOp56
 70
     1
102
RTVSPost2010Prop57
140
1.0
102
RTVSPost2010PropOp57
 70
     1
102
RTVSPropertyOp0
 70
     1
102
RTVSPropertyOp1
 70
     1
102
RTVSPropertyOp2
 70
     1
102
RTVSPropertyOp3
 70
     1
102
RTVSPropertyOp4
 70
     1
102
RTVSPropertyOp5
 70
     1
102
RTVSPropertyOp6
 70
     1
102
RTVSPropertyOp7
 70
     1
102
RTVSPropertyOp8
 70
     1
102
RTVSPropertyOp9
 70
     1
102
RTVSPropertyOp10
 70
     1
102
RTVSPropertyOp11
 70
     1
102
RTVSPropertyOp12
 70
     1
102
RTVSPropertyOp13
 70
     1
102
RTVSPropertyOp14
 70
     1
102
RTVSPropertyOp15
 70
     1
102
RTVSPropertyOp16
 70
     1
102
RTVSPropertyOp17
 70
     1
102
RTVSPropertyOp18
 70
     1
102
RTVSPropertyOp19
 70
     1
102
RTVSPropertyOp20
 70
     1
102
RTVSPropertyOp21
 70
     1
102
RTVSPropertyOp22
 70
     1
102
RTVSPropertyOp23
 70
     1
102
RTVSPropertyOp24
 70
     1
102
RTVSPropertyOp25
 70
     1
102
RTVSPropertyOp26
 70
     1
102
RTVSPropertyOp27
 70
     1
102
RTVSPropertyOp28
 70
     1
102
RTVSPropertyOp29
 70
     1
102
RTVSPropertyOp30
 70
     1
102
RTVSPropertyOp31
 70
     1
102
RTVSPropertyOp32
 70
     1
102
RTVSPropertyOp33
 70
     1
102
RTVSPropertyOp34
 70
     1
102
RTVSPropertyOp35
 70
     1
102
RTVSPropertyOp36
 70
     1
102
RTVSPropertyOp37
 70
     1
102
RTVSPropertyOp38
 70
     1
102
RTVSPropertyOp39
 70
     1
102
RTVSPropertyOp40
 70
     1
102
RTVSPropertyOp41
 70
     1
102
RTVSPropertyOp42
 70
     1
102
RTVSPropertyOp43
 70
     1
102
RTVSPropertyOp44
 70
     1
102
RTVSPropertyOp45
 70
     1
102
RTVSPropertyOp46
 70
     1
102
RTVSPropertyOp47
 70
     1
102
RTVSPropertyOp48
 70
     1
102
RTVSPropertyOp49
 70
     1
102
RTVSPropertyOp50
 70
     1
102
RTVSPropertyOp51
 70
     0
102
RTVSPropertyOp52
 70
     0
102
RTVSPropertyOp53
 70
     1
102
RTVSPropertyOp54
 70
     1
102
RTVSPropertyOp55
 70
     1
102
RTVSPropertyOp56
 70
     1
102
RTVSPropertyOp57
 70
     1
102
RTVSPropertyOp58
 70
     1
102
RTVSPropertyOp59
 70
     1
102
RTVSPropertyOp60
 70
     1
102
RTVSPropertyOp61
 70
     1
102
RTVSPropertyOp62
 70
     1
  0
XRECORD
  5
16A9
102
{ACAD_REACTORS
330
16A8
102
}
330
16A8
100
AcDbXrecord
280
     1
102
RTVSPost2010Prop28
280
     0
102
RTVSPost2010PropOp28
 70
     1
102
RTVSPost2010Prop29
280
     1
102
RTVSPost2010PropOp29
 70
     1
102
RTVSPost2010Prop30
280
     1
102
RTVSPost2010PropOp30
 70
     1
102
RTVSPost2010Prop31
280
     0
102
RTVSPost2010PropOp31
 70
     1
102
RTVSPost2010Prop32
280
     0
102
RTVSPost2010PropOp32
 70
     1
102
RTVSPost2010Prop33
280
     0
102
RTVSPost2010PropOp33
 70
     1
102
RTVSPost2010Prop34
280
     0
102
RTVSPost2010PropOp34
 70
     1
102
RTVSPost2010Prop35
280
     0
102
RTVSPost2010PropOp35
 70
     1
102
RTVSPost2010Prop36
280
     0
102
RTVSPost2010PropOp36
 70
     1
102
RTVSPost2010Prop37
 90
       50
102
RTVSPost2010PropOp37
 70
     1
102
RTVSPost2010Prop38
140
0.0
102
RTVSPost2010PropOp38
 70
     1
102
RTVSPost2010Prop39
140
1.0
102
RTVSPost2010PropOp39
 70
     1
102
RTVSPost2010Prop40
 90
        0
102
RTVSPost2010PropOp40
 70
     1
102
RTVSPost2010Prop41ColorIndex
 90
       18
102
RTVSPost2010Prop41ColorRGB
 90
        0
102
RTVSPost2010PropOp41
 70
     1
102
RTVSPost2010Prop42
 90
       50
102
RTVSPost2010PropOp42
 70
     1
102
RTVSPost2010Prop43
 90
        3
102
RTVSPost2010PropOp43
 70
     1
102
RTVSPost2010Prop44ColorIndex
 90
        5
102
RTVSPost2010Prop44ColorRGB
 90
      255
102
RTVSPost2010PropOp44
 70
     1
102
RTVSPost2010Prop45
280
     0
102
RTVSPost2010PropOp45
 70
     1
102
RTVSPost2010Prop46
 90
       50
102
RTVSPost2010PropOp46
 70
     1
102
RTVSPost2010Prop47
 90
       50
102
RTVSPost2010PropOp47
 70
     1
102
RTVSPost2010Prop48
 90
       50
102
RTVSPost2010PropOp48
 70
     1
102
RTVSPost2010Prop49
280
     0
102
RTVSPost2010PropOp49
 70
     1
102
RTVSPost2010Prop50
 90
       50
102
RTVSPost2010PropOp50
 70
     1
102
RTVSPost2010Prop51ColorIndex
 90
      256
102
RTVSPost2010Prop51ColorRGB
 90
-16777216
102
RTVSPost2010PropOp51
 70
     0
102
RTVSPost2010Prop52
140
1.0
102
RTVSPost2010PropOp52
 70
     0
102
RTVSPost2010Prop53
 90
        2
102
RTVSPost2010PropOp53
 70
     1
102
RTVSPost2010Prop54
  1
strokes_ogs.tif
102
RTVSPost2010PropOp54
 70
     1
102
RTVSPost2010Prop55
280
     0
102
RTVSPost2010PropOp55
 70
     1
102
RTVSPost2010Prop56
140
1.0
102
RTVSPost2010PropOp56
 70
     1
102
RTVSPost2010Prop57
140
1.0
102
RTVSPost2010PropOp57
 70
     1
102
RTVSPropertyOp0
 70
     1
102
RTVSPropertyOp1
 70
     1
102
RTVSPropertyOp2
 70
     1
102
RTVSPropertyOp3
 70
     1
102
RTVSPropertyOp4
 70
     1
102
RTVSPropertyOp5
 70
     1
102
RTVSPropertyOp6
 70
     1
102
RTVSPropertyOp7
 70
     1
102
RTVSPropertyOp8
 70
     1
102
RTVSPropertyOp9
 70
     1
102
RTVSPropertyOp10
 70
     1
102
RTVSPropertyOp11
 70
     1
102
RTVSPropertyOp12
 70
     1
102
RTVSPropertyOp13
 70
     1
102
RTVSPropertyOp14
 70
     1
102
RTVSPropertyOp15
 70
     1
102
RTVSPropertyOp16
 70
     1
102
RTVSPropertyOp17
 70
     1
102
RTVSPropertyOp18
 70
     1
102
RTVSPropertyOp19
 70
     1
102
RTVSPropertyOp20
 70
     1
102
RTVSPropertyOp21
 70
     1
102
RTVSPropertyOp22
 70
     1
102
RTVSPropertyOp23
 70
     1
102
RTVSPropertyOp24
 70
     1
102
RTVSPropertyOp25
 70
     1
102
RTVSPropertyOp26
 70
     1
102
RTVSPropertyOp27
 70
     1
102
RTVSPropertyOp28
 70
     1
102
RTVSPropertyOp29
 70
     1
102
RTVSPropertyOp30
 70
     1
102
RTVSPropertyOp31
 70
     1
102
RTVSPropertyOp32
 70
     1
102
RTVSPropertyOp33
 70
     1
102
RTVSPropertyOp34
 70
     1
102
RTVSPropertyOp35
 70
     1
102
RTVSPropertyOp36
 70
     1
102
RTVSPropertyOp37
 70
     1
102
RTVSPropertyOp38
 70
     1
102
RTVSPropertyOp39
 70
     1
102
RTVSPropertyOp40
 70
     1
102
RTVSPropertyOp41
 70
     1
102
RTVSPropertyOp42
 70
     1
102
RTVSPropertyOp43
 70
     1
102
RTVSPropertyOp44
 70
     1
102
RTVSPropertyOp45
 70
     1
102
RTVSPropertyOp46
 70
     1
102
RTVSPropertyOp47
 70
     1
102
RTVSPropertyOp48
 70
     1
102
RTVSPropertyOp49
 70
     1
102
RTVSPropertyOp50
 70
     1
102
RTVSPropertyOp51
 70
     0
102
RTVSPropertyOp52
 70
     0
102
RTVSPropertyOp53
 70
     1
102
RTVSPropertyOp54
 70
     1
102
RTVSPropertyOp55
 70
     1
102
RTVSPropertyOp56
 70
     1
102
RTVSPropertyOp57
 70
     1
102
RTVSPropertyOp58
 70
     1
102
RTVSPropertyOp59
 70
     1
102
RTVSPropertyOp60
 70
     1
102
RTVSPropertyOp61
 70
     1
102
RTVSPropertyOp62
 70
     1
  0
XRECORD
  5
16AD
102
{ACAD_REACTORS
330
16AC
102
}
330
16AC
100
AcDbXrecord
280
     1
102
RTVSPost2010Prop28
280
     0
102
RTVSPost2010PropOp28
 70
     1
102
RTVSPost2010Prop29
280
     1
102
RTVSPost2010PropOp29
 70
     1
102
RTVSPost2010Prop30
280
     1
102
RTVSPost2010PropOp30
 70
     1
102
RTVSPost2010Prop31
280
     0
102
RTVSPost2010PropOp31
 70
     1
102
RTVSPost2010Prop32
280
     0
102
RTVSPost2010PropOp32
 70
     1
102
RTVSPost2010Prop33
280
     0
102
RTVSPost2010PropOp33
 70
     1
102
RTVSPost2010Prop34
280
     0
102
RTVSPost2010PropOp34
 70
     1
102
RTVSPost2010Prop35
280
     0
102
RTVSPost2010PropOp35
 70
     1
102
RTVSPost2010Prop36
280
     0
102
RTVSPost2010PropOp36
 70
     1
102
RTVSPost2010Prop37
 90
       50
102
RTVSPost2010PropOp37
 70
     1
102
RTVSPost2010Prop38
140
0.0
102
RTVSPost2010PropOp38
 70
     1
102
RTVSPost2010Prop39
140
1.0
102
RTVSPost2010PropOp39
 70
     1
102
RTVSPost2010Prop40
 90
        0
102
RTVSPost2010PropOp40
 70
     1
102
RTVSPost2010Prop41ColorIndex
 90
       18
102
RTVSPost2010Prop41ColorRGB
 90
        0
102
RTVSPost2010PropOp41
 70
     1
102
RTVSPost2010Prop42
 90
       50
102
RTVSPost2010PropOp42
 70
     1
102
RTVSPost2010Prop43
 90
        3
102
RTVSPost2010PropOp43
 70
     1
102
RTVSPost2010Prop44ColorIndex
 90
        5
102
RTVSPost2010Prop44ColorRGB
 90
      255
102
RTVSPost2010PropOp44
 70
     1
102
RTVSPost2010Prop45
280
     0
102
RTVSPost2010PropOp45
 70
     1
102
RTVSPost2010Prop46
 90
       50
102
RTVSPost2010PropOp46
 70
     1
102
RTVSPost2010Prop47
 90
       50
102
RTVSPost2010PropOp47
 70
     1
102
RTVSPost2010Prop48
 90
       50
102
RTVSPost2010PropOp48
 70
     1
102
RTVSPost2010Prop49
280
     0
102
RTVSPost2010PropOp49
 70
     1
102
RTVSPost2010Prop50
 90
       50
102
RTVSPost2010PropOp50
 70
     1
102
RTVSPost2010Prop51ColorIndex
 90
      256
102
RTVSPost2010Prop51ColorRGB
 90
-16777216
102
RTVSPost2010PropOp51
 70
     0
102
RTVSPost2010Prop52
140
1.0
102
RTVSPost2010PropOp52
 70
     0
102
RTVSPost2010Prop53
 90
        2
102
RTVSPost2010PropOp53
 70
     1
102
RTVSPost2010Prop54
  1
strokes_ogs.tif
102
RTVSPost2010PropOp54
 70
     1
102
RTVSPost2010Prop55
280
     0
102
RTVSPost2010PropOp55
 70
     1
102
RTVSPost2010Prop56
140
1.0
102
RTVSPost2010PropOp56
 70
     1
102
RTVSPost2010Prop57
140
1.0
102
RTVSPost2010PropOp57
 70
     1
102
RTVSPropertyOp0
 70
     1
102
RTVSPropertyOp1
 70
     1
102
RTVSPropertyOp2
 70
     1
102
RTVSPropertyOp3
 70
     1
102
RTVSPropertyOp4
 70
     1
102
RTVSPropertyOp5
 70
     1
102
RTVSPropertyOp6
 70
     1
102
RTVSPropertyOp7
 70
     1
102
RTVSPropertyOp8
 70
     1
102
RTVSPropertyOp9
 70
     1
102
RTVSPropertyOp10
 70
     1
102
RTVSPropertyOp11
 70
     1
102
RTVSPropertyOp12
 70
     1
102
RTVSPropertyOp13
 70
     1
102
RTVSPropertyOp14
 70
     1
102
RTVSPropertyOp15
 70
     1
102
RTVSPropertyOp16
 70
     1
102
RTVSPropertyOp17
 70
     1
102
RTVSPropertyOp18
 70
     1
102
RTVSPropertyOp19
 70
     1
102
RTVSPropertyOp20
 70
     1
102
RTVSPropertyOp21
 70
     1
102
RTVSPropertyOp22
 70
     1
102
RTVSPropertyOp23
 70
     1
102
RTVSPropertyOp24
 70
     1
102
RTVSPropertyOp25
 70
     1
102
RTVSPropertyOp26
 70
     1
102
RTVSPropertyOp27
 70
     1
102
RTVSPropertyOp28
 70
     1
102
RTVSPropertyOp29
 70
     1
102
RTVSPropertyOp30
 70
     1
102
RTVSPropertyOp31
 70
     1
102
RTVSPropertyOp32
 70
     1
102
RTVSPropertyOp33
 70
     1
102
RTVSPropertyOp34
 70
     1
102
RTVSPropertyOp35
 70
     1
102
RTVSPropertyOp36
 70
     1
102
RTVSPropertyOp37
 70
     1
102
RTVSPropertyOp38
 70
     1
102
RTVSPropertyOp39
 70
     1
102
RTVSPropertyOp40
 70
     1
102
RTVSPropertyOp41
 70
     1
102
RTVSPropertyOp42
 70
     1
102
RTVSPropertyOp43
 70
     1
102
RTVSPropertyOp44
 70
     1
102
RTVSPropertyOp45
 70
     1
102
RTVSPropertyOp46
 70
     1
102
RTVSPropertyOp47
 70
     1
102
RTVSPropertyOp48
 70
     1
102
RTVSPropertyOp49
 70
     1
102
RTVSPropertyOp50
 70
     1
102
RTVSPropertyOp51
 70
     0
102
RTVSPropertyOp52
 70
     0
102
RTVSPropertyOp53
 70
     1
102
RTVSPropertyOp54
 70
     1
102
RTVSPropertyOp55
 70
     1
102
RTVSPropertyOp56
 70
     1
102
RTVSPropertyOp57
 70
     1
102
RTVSPropertyOp58
 70
     1
102
RTVSPropertyOp59
 70
     1
102
RTVSPropertyOp60
 70
     1
102
RTVSPropertyOp61
 70
     1
102
RTVSPropertyOp62
 70
     1
  0
XRECORD
  5
16BF
102
{ACAD_REACTORS
330
16BE
102
}
330
16BE
100
AcDbXrecord
280
     1
102
RTVSPost2010Prop28
280
     0
102
RTVSPost2010PropOp28
 70
     1
102
RTVSPost2010Prop29
280
     1
102
RTVSPost2010PropOp29
 70
     1
102
RTVSPost2010Prop30
280
     1
102
RTVSPost2010PropOp30
 70
     1
102
RTVSPost2010Prop31
280
     0
102
RTVSPost2010PropOp31
 70
     1
102
RTVSPost2010Prop32
280
     0
102
RTVSPost2010PropOp32
 70
     1
102
RTVSPost2010Prop33
280
     0
102
RTVSPost2010PropOp33
 70
     1
102
RTVSPost2010Prop34
280
     0
102
RTVSPost2010PropOp34
 70
     1
102
RTVSPost2010Prop35
280
     0
102
RTVSPost2010PropOp35
 70
     1
102
RTVSPost2010Prop36
280
     0
102
RTVSPost2010PropOp36
 70
     1
102
RTVSPost2010Prop37
 90
       50
102
RTVSPost2010PropOp37
 70
     1
102
RTVSPost2010Prop38
140
0.0
102
RTVSPost2010PropOp38
 70
     1
102
RTVSPost2010Prop39
140
1.0
102
RTVSPost2010PropOp39
 70
     1
102
RTVSPost2010Prop40
 90
        0
102
RTVSPost2010PropOp40
 70
     1
102
RTVSPost2010Prop41ColorIndex
 90
       18
102
RTVSPost2010Prop41ColorRGB
 90
        0
102
RTVSPost2010PropOp41
 70
     1
102
RTVSPost2010Prop42
 90
       50
102
RTVSPost2010PropOp42
 70
     1
102
RTVSPost2010Prop43
 90
        3
102
RTVSPost2010PropOp43
 70
     1
102
RTVSPost2010Prop44ColorIndex
 90
        5
102
RTVSPost2010Prop44ColorRGB
 90
      255
102
RTVSPost2010PropOp44
 70
     1
102
RTVSPost2010Prop45
280
     0
102
RTVSPost2010PropOp45
 70
     1
102
RTVSPost2010Prop46
 90
       50
102
RTVSPost2010PropOp46
 70
     1
102
RTVSPost2010Prop47
 90
       50
102
RTVSPost2010PropOp47
 70
     1
102
RTVSPost2010Prop48
 90
       50
102
RTVSPost2010PropOp48
 70
     1
102
RTVSPost2010Prop49
280
     0
102
RTVSPost2010PropOp49
 70
     1
102
RTVSPost2010Prop50
 90
       50
102
RTVSPost2010PropOp50
 70
     1
102
RTVSPost2010Prop51ColorIndex
 90
      256
102
RTVSPost2010Prop51ColorRGB
 90
-16777216
102
RTVSPost2010PropOp51
 70
     0
102
RTVSPost2010Prop52
140
1.0
102
RTVSPost2010PropOp52
 70
     0
102
RTVSPost2010Prop53
 90
        2
102
RTVSPost2010PropOp53
 70
     1
102
RTVSPost2010Prop54
  1
strokes_ogs.tif
102
RTVSPost2010PropOp54
 70
     1
102
RTVSPost2010Prop55
280
     0
102
RTVSPost2010PropOp55
 70
     1
102
RTVSPost2010Prop56
140
1.0
102
RTVSPost2010PropOp56
 70
     1
102
RTVSPost2010Prop57
140
1.0
102
RTVSPost2010PropOp57
 70
     1
102
RTVSPropertyOp0
 70
     0
102
RTVSPropertyOp1
 70
     0
102
RTVSPropertyOp2
 70
     0
102
RTVSPropertyOp3
 70
     0
102
RTVSPropertyOp4
 70
     0
102
RTVSPropertyOp5
 70
     0
102
RTVSPropertyOp6
 70
     0
102
RTVSPropertyOp7
 70
     0
102
RTVSPropertyOp8
 70
     0
102
RTVSPropertyOp9
 70
     0
102
RTVSPropertyOp10
 70
     0
102
RTVSPropertyOp11
 70
     0
102
RTVSPropertyOp12
 70
     0
102
RTVSPropertyOp13
 70
     0
102
RTVSPropertyOp14
 70
     2
102
RTVSPropertyOp15
 70
     0
102
RTVSPropertyOp16
 70
     0
102
RTVSPropertyOp17
 70
     0
102
RTVSPropertyOp18
 70
     0
102
RTVSPropertyOp19
 70
     0
102
RTVSPropertyOp20
 70
     0
102
RTVSPropertyOp21
 70
     0
102
RTVSPropertyOp22
 70
     0
102
RTVSPropertyOp23
 70
     0
102
RTVSPropertyOp24
 70
     0
102
RTVSPropertyOp25
 70
     0
102
RTVSPropertyOp26
 70
     0
102
RTVSPropertyOp27
 70
     0
102
RTVSPropertyOp28
 70
     1
102
RTVSPropertyOp29
 70
     1
102
RTVSPropertyOp30
 70
     1
102
RTVSPropertyOp31
 70
     1
102
RTVSPropertyOp32
 70
     1
102
RTVSPropertyOp33
 70
     1
102
RTVSPropertyOp34
 70
     1
102
RTVSPropertyOp35
 70
     1
102
RTVSPropertyOp36
 70
     1
102
RTVSPropertyOp37
 70
     1
102
RTVSPropertyOp38
 70
     1
102
RTVSPropertyOp39
 70
     1
102
RTVSPropertyOp40
 70
     1
102
RTVSPropertyOp41
 70
     1
102
RTVSPropertyOp42
 70
     1
102
RTVSPropertyOp43
 70
     1
102
RTVSPropertyOp44
 70
     1
102
RTVSPropertyOp45
 70
     1
102
RTVSPropertyOp46
 70
     1
102
RTVSPropertyOp47
 70
     1
102
RTVSPropertyOp48
 70
     1
102
RTVSPropertyOp49
 70
     1
102
RTVSPropertyOp50
 70
     1
102
RTVSPropertyOp51
 70
     0
102
RTVSPropertyOp52
 70
     0
102
RTVSPropertyOp53
 70
     1
102
RTVSPropertyOp54
 70
     1
102
RTVSPropertyOp55
 70
     1
102
RTVSPropertyOp56
 70
     1
102
RTVSPropertyOp57
 70
     1
102
RTVSPropertyOp58
 70
     1
102
RTVSPropertyOp59
 70
     1
102
RTVSPropertyOp60
 70
     1
102
RTVSPropertyOp61
 70
     1
102
RTVSPropertyOp62
 70
     1
  0
XRECORD
  5
16B5
102
{ACAD_REACTORS
330
16B4
102
}
330
16B4
100
AcDbXrecord
280
     1
102
RTVSPost2010Prop28
280
     0
102
RTVSPost2010PropOp28
 70
     1
102
RTVSPost2010Prop29
280
     1
102
RTVSPost2010PropOp29
 70
     1
102
RTVSPost2010Prop30
280
     1
102
RTVSPost2010PropOp30
 70
     1
102
RTVSPost2010Prop31
280
     0
102
RTVSPost2010PropOp31
 70
     1
102
RTVSPost2010Prop32
280
     0
102
RTVSPost2010PropOp32
 70
     1
102
RTVSPost2010Prop33
280
     0
102
RTVSPost2010PropOp33
 70
     1
102
RTVSPost2010Prop34
280
     0
102
RTVSPost2010PropOp34
 70
     1
102
RTVSPost2010Prop35
280
     0
102
RTVSPost2010PropOp35
 70
     1
102
RTVSPost2010Prop36
280
     0
102
RTVSPost2010PropOp36
 70
     1
102
RTVSPost2010Prop37
 90
       50
102
RTVSPost2010PropOp37
 70
     1
102
RTVSPost2010Prop38
140
0.0
102
RTVSPost2010PropOp38
 70
     1
102
RTVSPost2010Prop39
140
1.0
102
RTVSPost2010PropOp39
 70
     1
102
RTVSPost2010Prop40
 90
        0
102
RTVSPost2010PropOp40
 70
     1
102
RTVSPost2010Prop41ColorIndex
 90
       18
102
RTVSPost2010Prop41ColorRGB
 90
        0
102
RTVSPost2010PropOp41
 70
     1
102
RTVSPost2010Prop42
 90
       50
102
RTVSPost2010PropOp42
 70
     1
102
RTVSPost2010Prop43
 90
        3
102
RTVSPost2010PropOp43
 70
     1
102
RTVSPost2010Prop44ColorIndex
 90
        5
102
RTVSPost2010Prop44ColorRGB
 90
      255
102
RTVSPost2010PropOp44
 70
     1
102
RTVSPost2010Prop45
280
     0
102
RTVSPost2010PropOp45
 70
     1
102
RTVSPost2010Prop46
 90
       50
102
RTVSPost2010PropOp46
 70
     1
102
RTVSPost2010Prop47
 90
       50
102
RTVSPost2010PropOp47
 70
     1
102
RTVSPost2010Prop48
 90
       50
102
RTVSPost2010PropOp48
 70
     1
102
RTVSPost2010Prop49
280
     0
102
RTVSPost2010PropOp49
 70
     1
102
RTVSPost2010Prop50
 90
       50
102
RTVSPost2010PropOp50
 70
     1
102
RTVSPost2010Prop51ColorIndex
 90
      256
102
RTVSPost2010Prop51ColorRGB
 90
-16777216
102
RTVSPost2010PropOp51
 70
     0
102
RTVSPost2010Prop52
140
1.0
102
RTVSPost2010PropOp52
 70
     0
102
RTVSPost2010Prop53
 90
        2
102
RTVSPost2010PropOp53
 70
     1
102
RTVSPost2010Prop54
  1
strokes_ogs.tif
102
RTVSPost2010PropOp54
 70
     1
102
RTVSPost2010Prop55
280
     0
102
RTVSPost2010PropOp55
 70
     1
102
RTVSPost2010Prop56
140
1.0
102
RTVSPost2010PropOp56
 70
     1
102
RTVSPost2010Prop57
140
1.0
102
RTVSPost2010PropOp57
 70
     1
102
RTVSPropertyOp0
 70
     1
102
RTVSPropertyOp1
 70
     1
102
RTVSPropertyOp2
 70
     1
102
RTVSPropertyOp3
 70
     1
102
RTVSPropertyOp4
 70
     1
102
RTVSPropertyOp5
 70
     1
102
RTVSPropertyOp6
 70
     1
102
RTVSPropertyOp7
 70
     1
102
RTVSPropertyOp8
 70
     1
102
RTVSPropertyOp9
 70
     1
102
RTVSPropertyOp10
 70
     1
102
RTVSPropertyOp11
 70
     1
102
RTVSPropertyOp12
 70
     1
102
RTVSPropertyOp13
 70
     1
102
RTVSPropertyOp14
 70
     1
102
RTVSPropertyOp15
 70
     1
102
RTVSPropertyOp16
 70
     1
102
RTVSPropertyOp17
 70
     1
102
RTVSPropertyOp18
 70
     1
102
RTVSPropertyOp19
 70
     1
102
RTVSPropertyOp20
 70
     1
102
RTVSPropertyOp21
 70
     1
102
RTVSPropertyOp22
 70
     1
102
RTVSPropertyOp23
 70
     1
102
RTVSPropertyOp24
 70
     1
102
RTVSPropertyOp25
 70
     1
102
RTVSPropertyOp26
 70
     1
102
RTVSPropertyOp27
 70
     1
102
RTVSPropertyOp28
 70
     1
102
RTVSPropertyOp29
 70
     1
102
RTVSPropertyOp30
 70
     1
102
RTVSPropertyOp31
 70
     1
102
RTVSPropertyOp32
 70
     1
102
RTVSPropertyOp33
 70
     1
102
RTVSPropertyOp34
 70
     1
102
RTVSPropertyOp35
 70
     1
102
RTVSPropertyOp36
 70
     1
102
RTVSPropertyOp37
 70
     1
102
RTVSPropertyOp38
 70
     1
102
RTVSPropertyOp39
 70
     1
102
RTVSPropertyOp40
 70
     1
102
RTVSPropertyOp41
 70
     1
102
RTVSPropertyOp42
 70
     1
102
RTVSPropertyOp43
 70
     1
102
RTVSPropertyOp44
 70
     1
102
RTVSPropertyOp45
 70
     1
102
RTVSPropertyOp46
 70
     1
102
RTVSPropertyOp47
 70
     1
102
RTVSPropertyOp48
 70
     1
102
RTVSPropertyOp49
 70
     1
102
RTVSPropertyOp50
 70
     1
102
RTVSPropertyOp51
 70
     0
102
RTVSPropertyOp52
 70
     0
102
RTVSPropertyOp53
 70
     1
102
RTVSPropertyOp54
 70
     1
102
RTVSPropertyOp55
 70
     1
102
RTVSPropertyOp56
 70
     1
102
RTVSPropertyOp57
 70
     1
102
RTVSPropertyOp58
 70
     1
102
RTVSPropertyOp59
 70
     1
102
RTVSPropertyOp60
 70
     1
102
RTVSPropertyOp61
 70
     1
102
RTVSPropertyOp62
 70
     1
  0
XRECORD
  5
1699
102
{ACAD_REACTORS
330
1698
102
}
330
1698
100
AcDbXrecord
280
     1
102
RTVSPost2010Prop28
280
     0
102
RTVSPost2010PropOp28
 70
     1
102
RTVSPost2010Prop29
280
     1
102
RTVSPost2010PropOp29
 70
     1
102
RTVSPost2010Prop30
280
     1
102
RTVSPost2010PropOp30
 70
     1
102
RTVSPost2010Prop31
280
     0
102
RTVSPost2010PropOp31
 70
     1
102
RTVSPost2010Prop32
280
     0
102
RTVSPost2010PropOp32
 70
     1
102
RTVSPost2010Prop33
280
     0
102
RTVSPost2010PropOp33
 70
     1
102
RTVSPost2010Prop34
280
     0
102
RTVSPost2010PropOp34
 70
     1
102
RTVSPost2010Prop35
280
     0
102
RTVSPost2010PropOp35
 70
     1
102
RTVSPost2010Prop36
280
     0
102
RTVSPost2010PropOp36
 70
     1
102
RTVSPost2010Prop37
 90
       50
102
RTVSPost2010PropOp37
 70
     1
102
RTVSPost2010Prop38
140
0.0
102
RTVSPost2010PropOp38
 70
     1
102
RTVSPost2010Prop39
140
1.0
102
RTVSPost2010PropOp39
 70
     1
102
RTVSPost2010Prop40
 90
        0
102
RTVSPost2010PropOp40
 70
     1
102
RTVSPost2010Prop41ColorIndex
 90
       18
102
RTVSPost2010Prop41ColorRGB
 90
        0
102
RTVSPost2010PropOp41
 70
     1
102
RTVSPost2010Prop42
 90
       50
102
RTVSPost2010PropOp42
 70
     1
102
RTVSPost2010Prop43
 90
        3
102
RTVSPost2010PropOp43
 70
     1
102
RTVSPost2010Prop44ColorIndex
 90
        5
102
RTVSPost2010Prop44ColorRGB
 90
      255
102
RTVSPost2010PropOp44
 70
     1
102
RTVSPost2010Prop45
280
     0
102
RTVSPost2010PropOp45
 70
     1
102
RTVSPost2010Prop46
 90
       50
102
RTVSPost2010PropOp46
 70
     1
102
RTVSPost2010Prop47
 90
       50
102
RTVSPost2010PropOp47
 70
     1
102
RTVSPost2010Prop48
 90
       50
102
RTVSPost2010PropOp48
 70
     1
102
RTVSPost2010Prop49
280
     0
102
RTVSPost2010PropOp49
 70
     1
102
RTVSPost2010Prop50
 90
       50
102
RTVSPost2010PropOp50
 70
     1
102
RTVSPost2010Prop51ColorIndex
 90
      256
102
RTVSPost2010Prop51ColorRGB
 90
-16777216
102
RTVSPost2010PropOp51
 70
     0
102
RTVSPost2010Prop52
140
1.0
102
RTVSPost2010PropOp52
 70
     0
102
RTVSPost2010Prop53
 90
        2
102
RTVSPost2010PropOp53
 70
     1
102
RTVSPost2010Prop54
  1
strokes_ogs.tif
102
RTVSPost2010PropOp54
 70
     1
102
RTVSPost2010Prop55
280
     0
102
RTVSPost2010PropOp55
 70
     1
102
RTVSPost2010Prop56
140
1.0
102
RTVSPost2010PropOp56
 70
     1
102
RTVSPost2010Prop57
140
1.0
102
RTVSPost2010PropOp57
 70
     1
102
RTVSPropertyOp0
 70
     1
102
RTVSPropertyOp1
 70
     1
102
RTVSPropertyOp2
 70
     1
102
RTVSPropertyOp3
 70
     1
102
RTVSPropertyOp4
 70
     1
102
RTVSPropertyOp5
 70
     1
102
RTVSPropertyOp6
 70
     1
102
RTVSPropertyOp7
 70
     1
102
RTVSPropertyOp8
 70
     1
102
RTVSPropertyOp9
 70
     1
102
RTVSPropertyOp10
 70
     1
102
RTVSPropertyOp11
 70
     1
102
RTVSPropertyOp12
 70
     1
102
RTVSPropertyOp13
 70
     1
102
RTVSPropertyOp14
 70
     1
102
RTVSPropertyOp15
 70
     1
102
RTVSPropertyOp16
 70
     1
102
RTVSPropertyOp17
 70
     1
102
RTVSPropertyOp18
 70
     1
102
RTVSPropertyOp19
 70
     1
102
RTVSPropertyOp20
 70
     1
102
RTVSPropertyOp21
 70
     1
102
RTVSPropertyOp22
 70
     1
102
RTVSPropertyOp23
 70
     1
102
RTVSPropertyOp24
 70
     1
102
RTVSPropertyOp25
 70
     1
102
RTVSPropertyOp26
 70
     1
102
RTVSPropertyOp27
 70
     1
102
RTVSPropertyOp28
 70
     1
102
RTVSPropertyOp29
 70
     1
102
RTVSPropertyOp30
 70
     1
102
RTVSPropertyOp31
 70
     1
102
RTVSPropertyOp32
 70
     1
102
RTVSPropertyOp33
 70
     1
102
RTVSPropertyOp34
 70
     1
102
RTVSPropertyOp35
 70
     1
102
RTVSPropertyOp36
 70
     1
102
RTVSPropertyOp37
 70
     1
102
RTVSPropertyOp38
 70
     1
102
RTVSPropertyOp39
 70
     1
102
RTVSPropertyOp40
 70
     1
102
RTVSPropertyOp41
 70
     1
102
RTVSPropertyOp42
 70
     1
102
RTVSPropertyOp43
 70
     1
102
RTVSPropertyOp44
 70
     1
102
RTVSPropertyOp45
 70
     1
102
RTVSPropertyOp46
 70
     1
102
RTVSPropertyOp47
 70
     1
102
RTVSPropertyOp48
 70
     1
102
RTVSPropertyOp49
 70
     1
102
RTVSPropertyOp50
 70
     1
102
RTVSPropertyOp51
 70
     0
102
RTVSPropertyOp52
 70
     0
102
RTVSPropertyOp53
 70
     1
102
RTVSPropertyOp54
 70
     1
102
RTVSPropertyOp55
 70
     1
102
RTVSPropertyOp56
 70
     1
102
RTVSPropertyOp57
 70
     1
102
RTVSPropertyOp58
 70
     1
102
RTVSPropertyOp59
 70
     1
102
RTVSPropertyOp60
 70
     1
102
RTVSPropertyOp61
 70
     1
102
RTVSPropertyOp62
 70
     1
  0
XRECORD
  5
169B
102
{ACAD_REACTORS
330
169A
102
}
330
169A
100
AcDbXrecord
280
     1
102
RTVSPost2010Prop28
280
     0
102
RTVSPost2010PropOp28
 70
     1
102
RTVSPost2010Prop29
280
     1
102
RTVSPost2010PropOp29
 70
     1
102
RTVSPost2010Prop30
280
     1
102
RTVSPost2010PropOp30
 70
     1
102
RTVSPost2010Prop31
280
     0
102
RTVSPost2010PropOp31
 70
     1
102
RTVSPost2010Prop32
280
     0
102
RTVSPost2010PropOp32
 70
     1
102
RTVSPost2010Prop33
280
     0
102
RTVSPost2010PropOp33
 70
     1
102
RTVSPost2010Prop34
280
     0
102
RTVSPost2010PropOp34
 70
     1
102
RTVSPost2010Prop35
280
     0
102
RTVSPost2010PropOp35
 70
     1
102
RTVSPost2010Prop36
280
     0
102
RTVSPost2010PropOp36
 70
     1
102
RTVSPost2010Prop37
 90
       50
102
RTVSPost2010PropOp37
 70
     1
102
RTVSPost2010Prop38
140
0.0
102
RTVSPost2010PropOp38
 70
     1
102
RTVSPost2010Prop39
140
1.0
102
RTVSPost2010PropOp39
 70
     1
102
RTVSPost2010Prop40
 90
        0
102
RTVSPost2010PropOp40
 70
     1
102
RTVSPost2010Prop41ColorIndex
 90
       18
102
RTVSPost2010Prop41ColorRGB
 90
        0
102
RTVSPost2010PropOp41
 70
     1
102
RTVSPost2010Prop42
 90
       50
102
RTVSPost2010PropOp42
 70
     1
102
RTVSPost2010Prop43
 90
        3
102
RTVSPost2010PropOp43
 70
     1
102
RTVSPost2010Prop44ColorIndex
 90
        5
102
RTVSPost2010Prop44ColorRGB
 90
      255
102
RTVSPost2010PropOp44
 70
     1
102
RTVSPost2010Prop45
280
     0
102
RTVSPost2010PropOp45
 70
     1
102
RTVSPost2010Prop46
 90
       50
102
RTVSPost2010PropOp46
 70
     1
102
RTVSPost2010Prop47
 90
       50
102
RTVSPost2010PropOp47
 70
     1
102
RTVSPost2010Prop48
 90
       50
102
RTVSPost2010PropOp48
 70
     1
102
RTVSPost2010Prop49
280
     0
102
RTVSPost2010PropOp49
 70
     1
102
RTVSPost2010Prop50
 90
       50
102
RTVSPost2010PropOp50
 70
     1
102
RTVSPost2010Prop51ColorIndex
 90
      256
102
RTVSPost2010Prop51ColorRGB
 90
-16777216
102
RTVSPost2010PropOp51
 70
     0
102
RTVSPost2010Prop52
140
1.0
102
RTVSPost2010PropOp52
 70
     0
102
RTVSPost2010Prop53
 90
        2
102
RTVSPost2010PropOp53
 70
     1
102
RTVSPost2010Prop54
  1
strokes_ogs.tif
102
RTVSPost2010PropOp54
 70
     1
102
RTVSPost2010Prop55
280
     0
102
RTVSPost2010PropOp55
 70
     1
102
RTVSPost2010Prop56
140
1.0
102
RTVSPost2010PropOp56
 70
     1
102
RTVSPost2010Prop57
140
1.0
102
RTVSPost2010PropOp57
 70
     1
102
RTVSPropertyOp0
 70
     1
102
RTVSPropertyOp1
 70
     1
102
RTVSPropertyOp2
 70
     1
102
RTVSPropertyOp3
 70
     1
102
RTVSPropertyOp4
 70
     1
102
RTVSPropertyOp5
 70
     1
102
RTVSPropertyOp6
 70
     1
102
RTVSPropertyOp7
 70
     1
102
RTVSPropertyOp8
 70
     1
102
RTVSPropertyOp9
 70
     1
102
RTVSPropertyOp10
 70
     1
102
RTVSPropertyOp11
 70
     1
102
RTVSPropertyOp12
 70
     1
102
RTVSPropertyOp13
 70
     1
102
RTVSPropertyOp14
 70
     1
102
RTVSPropertyOp15
 70
     1
102
RTVSPropertyOp16
 70
     1
102
RTVSPropertyOp17
 70
     1
102
RTVSPropertyOp18
 70
     1
102
RTVSPropertyOp19
 70
     1
102
RTVSPropertyOp20
 70
     1
102
RTVSPropertyOp21
 70
     1
102
RTVSPropertyOp22
 70
     1
102
RTVSPropertyOp23
 70
     1
102
RTVSPropertyOp24
 70
     1
102
RTVSPropertyOp25
 70
     1
102
RTVSPropertyOp26
 70
     1
102
RTVSPropertyOp27
 70
     1
102
RTVSPropertyOp28
 70
     1
102
RTVSPropertyOp29
 70
     1
102
RTVSPropertyOp30
 70
     1
102
RTVSPropertyOp31
 70
     1
102
RTVSPropertyOp32
 70
     1
102
RTVSPropertyOp33
 70
     1
102
RTVSPropertyOp34
 70
     1
102
RTVSPropertyOp35
 70
     1
102
RTVSPropertyOp36
 70
     1
102
RTVSPropertyOp37
 70
     1
102
RTVSPropertyOp38
 70
     1
102
RTVSPropertyOp39
 70
     1
102
RTVSPropertyOp40
 70
     1
102
RTVSPropertyOp41
 70
     1
102
RTVSPropertyOp42
 70
     1
102
RTVSPropertyOp43
 70
     1
102
RTVSPropertyOp44
 70
     1
102
RTVSPropertyOp45
 70
     1
102
RTVSPropertyOp46
 70
     1
102
RTVSPropertyOp47
 70
     1
102
RTVSPropertyOp48
 70
     1
102
RTVSPropertyOp49
 70
     1
102
RTVSPropertyOp50
 70
     1
102
RTVSPropertyOp51
 70
     0
102
RTVSPropertyOp52
 70
     0
102
RTVSPropertyOp53
 70
     1
102
RTVSPropertyOp54
 70
     1
102
RTVSPropertyOp55
 70
     1
102
RTVSPropertyOp56
 70
     1
102
RTVSPropertyOp57
 70
     1
102
RTVSPropertyOp58
 70
     1
102
RTVSPropertyOp59
 70
     1
102
RTVSPropertyOp60
 70
     1
102
RTVSPropertyOp61
 70
     1
102
RTVSPropertyOp62
 70
     1
  0
XRECORD
  5
169D
102
{ACAD_REACTORS
330
169C
102
}
330
169C
100
AcDbXrecord
280
     1
102
RTVSPost2010Prop28
280
     0
102
RTVSPost2010PropOp28
 70
     1
102
RTVSPost2010Prop29
280
     1
102
RTVSPost2010PropOp29
 70
     1
102
RTVSPost2010Prop30
280
     1
102
RTVSPost2010PropOp30
 70
     1
102
RTVSPost2010Prop31
280
     0
102
RTVSPost2010PropOp31
 70
     1
102
RTVSPost2010Prop32
280
     0
102
RTVSPost2010PropOp32
 70
     1
102
RTVSPost2010Prop33
280
     0
102
RTVSPost2010PropOp33
 70
     1
102
RTVSPost2010Prop34
280
     0
102
RTVSPost2010PropOp34
 70
     1
102
RTVSPost2010Prop35
280
     0
102
RTVSPost2010PropOp35
 70
     1
102
RTVSPost2010Prop36
280
     0
102
RTVSPost2010PropOp36
 70
     1
102
RTVSPost2010Prop37
 90
       50
102
RTVSPost2010PropOp37
 70
     1
102
RTVSPost2010Prop38
140
0.0
102
RTVSPost2010PropOp38
 70
     1
102
RTVSPost2010Prop39
140
1.0
102
RTVSPost2010PropOp39
 70
     1
102
RTVSPost2010Prop40
 90
        0
102
RTVSPost2010PropOp40
 70
     1
102
RTVSPost2010Prop41ColorIndex
 90
       18
102
RTVSPost2010Prop41ColorRGB
 90
        0
102
RTVSPost2010PropOp41
 70
     1
102
RTVSPost2010Prop42
 90
       50
102
RTVSPost2010PropOp42
 70
     1
102
RTVSPost2010Prop43
 90
        3
102
RTVSPost2010PropOp43
 70
     1
102
RTVSPost2010Prop44ColorIndex
 90
        5
102
RTVSPost2010Prop44ColorRGB
 90
      255
102
RTVSPost2010PropOp44
 70
     1
102
RTVSPost2010Prop45
280
     0
102
RTVSPost2010PropOp45
 70
     1
102
RTVSPost2010Prop46
 90
       50
102
RTVSPost2010PropOp46
 70
     1
102
RTVSPost2010Prop47
 90
       50
102
RTVSPost2010PropOp47
 70
     1
102
RTVSPost2010Prop48
 90
       50
102
RTVSPost2010PropOp48
 70
     1
102
RTVSPost2010Prop49
280
     0
102
RTVSPost2010PropOp49
 70
     1
102
RTVSPost2010Prop50
 90
       50
102
RTVSPost2010PropOp50
 70
     1
102
RTVSPost2010Prop51ColorIndex
 90
      256
102
RTVSPost2010Prop51ColorRGB
 90
-16777216
102
RTVSPost2010PropOp51
 70
     0
102
RTVSPost2010Prop52
140
1.0
102
RTVSPost2010PropOp52
 70
     0
102
RTVSPost2010Prop53
 90
        2
102
RTVSPost2010PropOp53
 70
     1
102
RTVSPost2010Prop54
  1
strokes_ogs.tif
102
RTVSPost2010PropOp54
 70
     1
102
RTVSPost2010Prop55
280
     0
102
RTVSPost2010PropOp55
 70
     1
102
RTVSPost2010Prop56
140
1.0
102
RTVSPost2010PropOp56
 70
     1
102
RTVSPost2010Prop57
140
1.0
102
RTVSPost2010PropOp57
 70
     1
102
RTVSPropertyOp0
 70
     1
102
RTVSPropertyOp1
 70
     1
102
RTVSPropertyOp2
 70
     1
102
RTVSPropertyOp3
 70
     1
102
RTVSPropertyOp4
 70
     1
102
RTVSPropertyOp5
 70
     1
102
RTVSPropertyOp6
 70
     1
102
RTVSPropertyOp7
 70
     1
102
RTVSPropertyOp8
 70
     1
102
RTVSPropertyOp9
 70
     1
102
RTVSPropertyOp10
 70
     1
102
RTVSPropertyOp11
 70
     1
102
RTVSPropertyOp12
 70
     1
102
RTVSPropertyOp13
 70
     1
102
RTVSPropertyOp14
 70
     1
102
RTVSPropertyOp15
 70
     1
102
RTVSPropertyOp16
 70
     1
102
RTVSPropertyOp17
 70
     1
102
RTVSPropertyOp18
 70
     1
102
RTVSPropertyOp19
 70
     1
102
RTVSPropertyOp20
 70
     1
102
RTVSPropertyOp21
 70
     1
102
RTVSPropertyOp22
 70
     1
102
RTVSPropertyOp23
 70
     1
102
RTVSPropertyOp24
 70
     1
102
RTVSPropertyOp25
 70
     1
102
RTVSPropertyOp26
 70
     1
102
RTVSPropertyOp27
 70
     1
102
RTVSPropertyOp28
 70
     1
102
RTVSPropertyOp29
 70
     1
102
RTVSPropertyOp30
 70
     1
102
RTVSPropertyOp31
 70
     1
102
RTVSPropertyOp32
 70
     1
102
RTVSPropertyOp33
 70
     1
102
RTVSPropertyOp34
 70
     1
102
RTVSPropertyOp35
 70
     1
102
RTVSPropertyOp36
 70
     1
102
RTVSPropertyOp37
 70
     1
102
RTVSPropertyOp38
 70
     1
102
RTVSPropertyOp39
 70
     1
102
RTVSPropertyOp40
 70
     1
102
RTVSPropertyOp41
 70
     1
102
RTVSPropertyOp42
 70
     1
102
RTVSPropertyOp43
 70
     1
102
RTVSPropertyOp44
 70
     1
102
RTVSPropertyOp45
 70
     1
102
RTVSPropertyOp46
 70
     1
102
RTVSPropertyOp47
 70
     1
102
RTVSPropertyOp48
 70
     1
102
RTVSPropertyOp49
 70
     1
102
RTVSPropertyOp50
 70
     1
102
RTVSPropertyOp51
 70
     0
102
RTVSPropertyOp52
 70
     0
102
RTVSPropertyOp53
 70
     1
102
RTVSPropertyOp54
 70
     1
102
RTVSPropertyOp55
 70
     1
102
RTVSPropertyOp56
 70
     1
102
RTVSPropertyOp57
 70
     1
102
RTVSPropertyOp58
 70
     1
102
RTVSPropertyOp59
 70
     1
102
RTVSPropertyOp60
 70
     1
102
RTVSPropertyOp61
 70
     1
102
RTVSPropertyOp62
 70
     1
  0
XRECORD
  5
169F
102
{ACAD_REACTORS
330
169E
102
}
330
169E
100
AcDbXrecord
280
     1
102
RTVSPost2010Prop28
280
     0
102
RTVSPost2010PropOp28
 70
     1
102
RTVSPost2010Prop29
280
     1
102
RTVSPost2010PropOp29
 70
     1
102
RTVSPost2010Prop30
280
     1
102
RTVSPost2010PropOp30
 70
     1
102
RTVSPost2010Prop31
280
     0
102
RTVSPost2010PropOp31
 70
     1
102
RTVSPost2010Prop32
280
     0
102
RTVSPost2010PropOp32
 70
     1
102
RTVSPost2010Prop33
280
     0
102
RTVSPost2010PropOp33
 70
     1
102
RTVSPost2010Prop34
280
     0
102
RTVSPost2010PropOp34
 70
     1
102
RTVSPost2010Prop35
280
     0
102
RTVSPost2010PropOp35
 70
     1
102
RTVSPost2010Prop36
280
     0
102
RTVSPost2010PropOp36
 70
     1
102
RTVSPost2010Prop37
 90
       50
102
RTVSPost2010PropOp37
 70
     1
102
RTVSPost2010Prop38
140
0.0
102
RTVSPost2010PropOp38
 70
     1
102
RTVSPost2010Prop39
140
1.0
102
RTVSPost2010PropOp39
 70
     1
102
RTVSPost2010Prop40
 90
        0
102
RTVSPost2010PropOp40
 70
     1
102
RTVSPost2010Prop41ColorIndex
 90
       18
102
RTVSPost2010Prop41ColorRGB
 90
        0
102
RTVSPost2010PropOp41
 70
     1
102
RTVSPost2010Prop42
 90
       50
102
RTVSPost2010PropOp42
 70
     1
102
RTVSPost2010Prop43
 90
        3
102
RTVSPost2010PropOp43
 70
     1
102
RTVSPost2010Prop44ColorIndex
 90
        5
102
RTVSPost2010Prop44ColorRGB
 90
      255
102
RTVSPost2010PropOp44
 70
     1
102
RTVSPost2010Prop45
280
     0
102
RTVSPost2010PropOp45
 70
     1
102
RTVSPost2010Prop46
 90
       50
102
RTVSPost2010PropOp46
 70
     1
102
RTVSPost2010Prop47
 90
       50
102
RTVSPost2010PropOp47
 70
     1
102
RTVSPost2010Prop48
 90
       50
102
RTVSPost2010PropOp48
 70
     1
102
RTVSPost2010Prop49
280
     0
102
RTVSPost2010PropOp49
 70
     1
102
RTVSPost2010Prop50
 90
       50
102
RTVSPost2010PropOp50
 70
     1
102
RTVSPost2010Prop51ColorIndex
 90
      256
102
RTVSPost2010Prop51ColorRGB
 90
-16777216
102
RTVSPost2010PropOp51
 70
     0
102
RTVSPost2010Prop52
140
1.0
102
RTVSPost2010PropOp52
 70
     0
102
RTVSPost2010Prop53
 90
        2
102
RTVSPost2010PropOp53
 70
     1
102
RTVSPost2010Prop54
  1
strokes_ogs.tif
102
RTVSPost2010PropOp54
 70
     1
102
RTVSPost2010Prop55
280
     0
102
RTVSPost2010PropOp55
 70
     1
102
RTVSPost2010Prop56
140
1.0
102
RTVSPost2010PropOp56
 70
     1
102
RTVSPost2010Prop57
140
1.0
102
RTVSPost2010PropOp57
 70
     1
102
RTVSPropertyOp0
 70
     1
102
RTVSPropertyOp1
 70
     1
102
RTVSPropertyOp2
 70
     1
102
RTVSPropertyOp3
 70
     1
102
RTVSPropertyOp4
 70
     1
102
RTVSPropertyOp5
 70
     1
102
RTVSPropertyOp6
 70
     1
102
RTVSPropertyOp7
 70
     1
102
RTVSPropertyOp8
 70
     1
102
RTVSPropertyOp9
 70
     1
102
RTVSPropertyOp10
 70
     1
102
RTVSPropertyOp11
 70
     1
102
RTVSPropertyOp12
 70
     1
102
RTVSPropertyOp13
 70
     1
102
RTVSPropertyOp14
 70
     1
102
RTVSPropertyOp15
 70
     1
102
RTVSPropertyOp16
 70
     1
102
RTVSPropertyOp17
 70
     1
102
RTVSPropertyOp18
 70
     1
102
RTVSPropertyOp19
 70
     1
102
RTVSPropertyOp20
 70
     1
102
RTVSPropertyOp21
 70
     1
102
RTVSPropertyOp22
 70
     1
102
RTVSPropertyOp23
 70
     1
102
RTVSPropertyOp24
 70
     1
102
RTVSPropertyOp25
 70
     1
102
RTVSPropertyOp26
 70
     1
102
RTVSPropertyOp27
 70
     1
102
RTVSPropertyOp28
 70
     1
102
RTVSPropertyOp29
 70
     1
102
RTVSPropertyOp30
 70
     1
102
RTVSPropertyOp31
 70
     1
102
RTVSPropertyOp32
 70
     1
102
RTVSPropertyOp33
 70
     1
102
RTVSPropertyOp34
 70
     1
102
RTVSPropertyOp35
 70
     1
102
RTVSPropertyOp36
 70
     1
102
RTVSPropertyOp37
 70
     1
102
RTVSPropertyOp38
 70
     1
102
RTVSPropertyOp39
 70
     1
102
RTVSPropertyOp40
 70
     1
102
RTVSPropertyOp41
 70
     1
102
RTVSPropertyOp42
 70
     1
102
RTVSPropertyOp43
 70
     1
102
RTVSPropertyOp44
 70
     1
102
RTVSPropertyOp45
 70
     1
102
RTVSPropertyOp46
 70
     1
102
RTVSPropertyOp47
 70
     1
102
RTVSPropertyOp48
 70
     1
102
RTVSPropertyOp49
 70
     1
102
RTVSPropertyOp50
 70
     1
102
RTVSPropertyOp51
 70
     0
102
RTVSPropertyOp52
 70
     0
102
RTVSPropertyOp53
 70
     1
102
RTVSPropertyOp54
 70
     1
102
RTVSPropertyOp55
 70
     1
102
RTVSPropertyOp56
 70
     1
102
RTVSPropertyOp57
 70
     1
102
RTVSPropertyOp58
 70
     1
102
RTVSPropertyOp59
 70
     1
102
RTVSPropertyOp60
 70
     1
102
RTVSPropertyOp61
 70
     1
102
RTVSPropertyOp62
 70
     1
  0
XRECORD
  5
16A7
102
{ACAD_REACTORS
330
16A6
102
}
330
16A6
100
AcDbXrecord
280
     1
102
RTVSPost2010Prop28
280
     0
102
RTVSPost2010PropOp28
 70
     1
102
RTVSPost2010Prop29
280
     1
102
RTVSPost2010PropOp29
 70
     1
102
RTVSPost2010Prop30
280
     1
102
RTVSPost2010PropOp30
 70
     1
102
RTVSPost2010Prop31
280
     0
102
RTVSPost2010PropOp31
 70
     1
102
RTVSPost2010Prop32
280
     0
102
RTVSPost2010PropOp32
 70
     1
102
RTVSPost2010Prop33
280
     0
102
RTVSPost2010PropOp33
 70
     1
102
RTVSPost2010Prop34
280
     0
102
RTVSPost2010PropOp34
 70
     1
102
RTVSPost2010Prop35
280
     0
102
RTVSPost2010PropOp35
 70
     1
102
RTVSPost2010Prop36
280
     0
102
RTVSPost2010PropOp36
 70
     1
102
RTVSPost2010Prop37
 90
       50
102
RTVSPost2010PropOp37
 70
     1
102
RTVSPost2010Prop38
140
0.0
102
RTVSPost2010PropOp38
 70
     1
102
RTVSPost2010Prop39
140
1.0
102
RTVSPost2010PropOp39
 70
     1
102
RTVSPost2010Prop40
 90
        0
102
RTVSPost2010PropOp40
 70
     1
102
RTVSPost2010Prop41ColorIndex
 90
       18
102
RTVSPost2010Prop41ColorRGB
 90
        0
102
RTVSPost2010PropOp41
 70
     1
102
RTVSPost2010Prop42
 90
       50
102
RTVSPost2010PropOp42
 70
     1
102
RTVSPost2010Prop43
 90
        3
102
RTVSPost2010PropOp43
 70
     1
102
RTVSPost2010Prop44ColorIndex
 90
        5
102
RTVSPost2010Prop44ColorRGB
 90
      255
102
RTVSPost2010PropOp44
 70
     1
102
RTVSPost2010Prop45
280
     0
102
RTVSPost2010PropOp45
 70
     1
102
RTVSPost2010Prop46
 90
       50
102
RTVSPost2010PropOp46
 70
     1
102
RTVSPost2010Prop47
 90
       50
102
RTVSPost2010PropOp47
 70
     1
102
RTVSPost2010Prop48
 90
       50
102
RTVSPost2010PropOp48
 70
     1
102
RTVSPost2010Prop49
280
     0
102
RTVSPost2010PropOp49
 70
     1
102
RTVSPost2010Prop50
 90
       50
102
RTVSPost2010PropOp50
 70
     1
102
RTVSPost2010Prop51ColorIndex
 90
      256
102
RTVSPost2010Prop51ColorRGB
 90
-16777216
102
RTVSPost2010PropOp51
 70
     0
102
RTVSPost2010Prop52
140
1.0
102
RTVSPost2010PropOp52
 70
     0
102
RTVSPost2010Prop53
 90
        2
102
RTVSPost2010PropOp53
 70
     1
102
RTVSPost2010Prop54
  1
strokes_ogs.tif
102
RTVSPost2010PropOp54
 70
     1
102
RTVSPost2010Prop55
280
     0
102
RTVSPost2010PropOp55
 70
     1
102
RTVSPost2010Prop56
140
1.0
102
RTVSPost2010PropOp56
 70
     1
102
RTVSPost2010Prop57
140
1.0
102
RTVSPost2010PropOp57
 70
     1
102
RTVSPropertyOp0
 70
     1
102
RTVSPropertyOp1
 70
     1
102
RTVSPropertyOp2
 70
     1
102
RTVSPropertyOp3
 70
     1
102
RTVSPropertyOp4
 70
     1
102
RTVSPropertyOp5
 70
     1
102
RTVSPropertyOp6
 70
     1
102
RTVSPropertyOp7
 70
     1
102
RTVSPropertyOp8
 70
     1
102
RTVSPropertyOp9
 70
     1
102
RTVSPropertyOp10
 70
     1
102
RTVSPropertyOp11
 70
     1
102
RTVSPropertyOp12
 70
     1
102
RTVSPropertyOp13
 70
     1
102
RTVSPropertyOp14
 70
     1
102
RTVSPropertyOp15
 70
     1
102
RTVSPropertyOp16
 70
     1
102
RTVSPropertyOp17
 70
     1
102
RTVSPropertyOp18
 70
     1
102
RTVSPropertyOp19
 70
     1
102
RTVSPropertyOp20
 70
     1
102
RTVSPropertyOp21
 70
     1
102
RTVSPropertyOp22
 70
     1
102
RTVSPropertyOp23
 70
     1
102
RTVSPropertyOp24
 70
     1
102
RTVSPropertyOp25
 70
     1
102
RTVSPropertyOp26
 70
     1
102
RTVSPropertyOp27
 70
     1
102
RTVSPropertyOp28
 70
     1
102
RTVSPropertyOp29
 70
     1
102
RTVSPropertyOp30
 70
     1
102
RTVSPropertyOp31
 70
     1
102
RTVSPropertyOp32
 70
     1
102
RTVSPropertyOp33
 70
     1
102
RTVSPropertyOp34
 70
     1
102
RTVSPropertyOp35
 70
     1
102
RTVSPropertyOp36
 70
     1
102
RTVSPropertyOp37
 70
     1
102
RTVSPropertyOp38
 70
     1
102
RTVSPropertyOp39
 70
     1
102
RTVSPropertyOp40
 70
     1
102
RTVSPropertyOp41
 70
     1
102
RTVSPropertyOp42
 70
     1
102
RTVSPropertyOp43
 70
     1
102
RTVSPropertyOp44
 70
     1
102
RTVSPropertyOp45
 70
     1
102
RTVSPropertyOp46
 70
     1
102
RTVSPropertyOp47
 70
     1
102
RTVSPropertyOp48
 70
     1
102
RTVSPropertyOp49
 70
     1
102
RTVSPropertyOp50
 70
     1
102
RTVSPropertyOp51
 70
     0
102
RTVSPropertyOp52
 70
     0
102
RTVSPropertyOp53
 70
     1
102
RTVSPropertyOp54
 70
     1
102
RTVSPropertyOp55
 70
     1
102
RTVSPropertyOp56
 70
     1
102
RTVSPropertyOp57
 70
     1
102
RTVSPropertyOp58
 70
     1
102
RTVSPropertyOp59
 70
     1
102
RTVSPropertyOp60
 70
     1
102
RTVSPropertyOp61
 70
     1
102
RTVSPropertyOp62
 70
     1
  0
XRECORD
  5
16BB
102
{ACAD_REACTORS
330
16BA
102
}
330
16BA
100
AcDbXrecord
280
     1
102
RTVSPost2010Prop28
280
     0
102
RTVSPost2010PropOp28
 70
     1
102
RTVSPost2010Prop29
280
     1
102
RTVSPost2010PropOp29
 70
     1
102
RTVSPost2010Prop30
280
     1
102
RTVSPost2010PropOp30
 70
     1
102
RTVSPost2010Prop31
280
     0
102
RTVSPost2010PropOp31
 70
     1
102
RTVSPost2010Prop32
280
     0
102
RTVSPost2010PropOp32
 70
     1
102
RTVSPost2010Prop33
280
     0
102
RTVSPost2010PropOp33
 70
     1
102
RTVSPost2010Prop34
280
     0
102
RTVSPost2010PropOp34
 70
     1
102
RTVSPost2010Prop35
280
     0
102
RTVSPost2010PropOp35
 70
     1
102
RTVSPost2010Prop36
280
     0
102
RTVSPost2010PropOp36
 70
     1
102
RTVSPost2010Prop37
 90
       50
102
RTVSPost2010PropOp37
 70
     1
102
RTVSPost2010Prop38
140
0.0
102
RTVSPost2010PropOp38
 70
     1
102
RTVSPost2010Prop39
140
1.0
102
RTVSPost2010PropOp39
 70
     1
102
RTVSPost2010Prop40
 90
        0
102
RTVSPost2010PropOp40
 70
     1
102
RTVSPost2010Prop41ColorIndex
 90
       18
102
RTVSPost2010Prop41ColorRGB
 90
        0
102
RTVSPost2010PropOp41
 70
     1
102
RTVSPost2010Prop42
 90
       50
102
RTVSPost2010PropOp42
 70
     1
102
RTVSPost2010Prop43
 90
        3
102
RTVSPost2010PropOp43
 70
     1
102
RTVSPost2010Prop44ColorIndex
 90
        5
102
RTVSPost2010Prop44ColorRGB
 90
      255
102
RTVSPost2010PropOp44
 70
     1
102
RTVSPost2010Prop45
280
     0
102
RTVSPost2010PropOp45
 70
     1
102
RTVSPost2010Prop46
 90
       50
102
RTVSPost2010PropOp46
 70
     1
102
RTVSPost2010Prop47
 90
       50
102
RTVSPost2010PropOp47
 70
     1
102
RTVSPost2010Prop48
 90
       50
102
RTVSPost2010PropOp48
 70
     1
102
RTVSPost2010Prop49
280
     0
102
RTVSPost2010PropOp49
 70
     1
102
RTVSPost2010Prop50
 90
       50
102
RTVSPost2010PropOp50
 70
     1
102
RTVSPost2010Prop51ColorIndex
 90
      256
102
RTVSPost2010Prop51ColorRGB
 90
-16777216
102
RTVSPost2010PropOp51
 70
     0
102
RTVSPost2010Prop52
140
1.0
102
RTVSPost2010PropOp52
 70
     0
102
RTVSPost2010Prop53
 90
        2
102
RTVSPost2010PropOp53
 70
     1
102
RTVSPost2010Prop54
  1
strokes_ogs.tif
102
RTVSPost2010PropOp54
 70
     1
102
RTVSPost2010Prop55
280
     0
102
RTVSPost2010PropOp55
 70
     1
102
RTVSPost2010Prop56
140
1.0
102
RTVSPost2010PropOp56
 70
     1
102
RTVSPost2010Prop57
140
1.0
102
RTVSPost2010PropOp57
 70
     1
102
RTVSPropertyOp0
 70
     0
102
RTVSPropertyOp1
 70
     0
102
RTVSPropertyOp2
 70
     0
102
RTVSPropertyOp3
 70
     0
102
RTVSPropertyOp4
 70
     0
102
RTVSPropertyOp5
 70
     0
102
RTVSPropertyOp6
 70
     0
102
RTVSPropertyOp7
 70
     0
102
RTVSPropertyOp8
 70
     0
102
RTVSPropertyOp9
 70
     0
102
RTVSPropertyOp10
 70
     0
102
RTVSPropertyOp11
 70
     0
102
RTVSPropertyOp12
 70
     0
102
RTVSPropertyOp13
 70
     0
102
RTVSPropertyOp14
 70
     2
102
RTVSPropertyOp15
 70
     0
102
RTVSPropertyOp16
 70
     0
102
RTVSPropertyOp17
 70
     0
102
RTVSPropertyOp18
 70
     0
102
RTVSPropertyOp19
 70
     0
102
RTVSPropertyOp20
 70
     0
102
RTVSPropertyOp21
 70
     0
102
RTVSPropertyOp22
 70
     0
102
RTVSPropertyOp23
 70
     0
102
RTVSPropertyOp24
 70
     0
102
RTVSPropertyOp25
 70
     0
102
RTVSPropertyOp26
 70
     0
102
RTVSPropertyOp27
 70
     0
102
RTVSPropertyOp28
 70
     1
102
RTVSPropertyOp29
 70
     1
102
RTVSPropertyOp30
 70
     1
102
RTVSPropertyOp31
 70
     1
102
RTVSPropertyOp32
 70
     1
102
RTVSPropertyOp33
 70
     1
102
RTVSPropertyOp34
 70
     1
102
RTVSPropertyOp35
 70
     1
102
RTVSPropertyOp36
 70
     1
102
RTVSPropertyOp37
 70
     1
102
RTVSPropertyOp38
 70
     1
102
RTVSPropertyOp39
 70
     1
102
RTVSPropertyOp40
 70
     1
102
RTVSPropertyOp41
 70
     1
102
RTVSPropertyOp42
 70
     1
102
RTVSPropertyOp43
 70
     1
102
RTVSPropertyOp44
 70
     1
102
RTVSPropertyOp45
 70
     1
102
RTVSPropertyOp46
 70
     1
102
RTVSPropertyOp47
 70
     1
102
RTVSPropertyOp48
 70
     1
102
RTVSPropertyOp49
 70
     1
102
RTVSPropertyOp50
 70
     1
102
RTVSPropertyOp51
 70
     0
102
RTVSPropertyOp52
 70
     0
102
RTVSPropertyOp53
 70
     1
102
RTVSPropertyOp54
 70
     1
102
RTVSPropertyOp55
 70
     1
102
RTVSPropertyOp56
 70
     1
102
RTVSPropertyOp57
 70
     1
102
RTVSPropertyOp58
 70
     1
102
RTVSPropertyOp59
 70
     1
102
RTVSPropertyOp60
 70
     1
102
RTVSPropertyOp61
 70
     1
102
RTVSPropertyOp62
 70
     1
  0
XRECORD
  5
16B3
102
{ACAD_REACTORS
330
16B2
102
}
330
16B2
100
AcDbXrecord
280
     1
102
RTVSPost2010Prop28
280
     0
102
RTVSPost2010PropOp28
 70
     1
102
RTVSPost2010Prop29
280
     1
102
RTVSPost2010PropOp29
 70
     1
102
RTVSPost2010Prop30
280
     1
102
RTVSPost2010PropOp30
 70
     1
102
RTVSPost2010Prop31
280
     0
102
RTVSPost2010PropOp31
 70
     1
102
RTVSPost2010Prop32
280
     0
102
RTVSPost2010PropOp32
 70
     1
102
RTVSPost2010Prop33
280
     0
102
RTVSPost2010PropOp33
 70
     1
102
RTVSPost2010Prop34
280
     0
102
RTVSPost2010PropOp34
 70
     1
102
RTVSPost2010Prop35
280
     0
102
RTVSPost2010PropOp35
 70
     1
102
RTVSPost2010Prop36
280
     0
102
RTVSPost2010PropOp36
 70
     1
102
RTVSPost2010Prop37
 90
       50
102
RTVSPost2010PropOp37
 70
     1
102
RTVSPost2010Prop38
140
0.0
102
RTVSPost2010PropOp38
 70
     1
102
RTVSPost2010Prop39
140
1.0
102
RTVSPost2010PropOp39
 70
     1
102
RTVSPost2010Prop40
 90
        0
102
RTVSPost2010PropOp40
 70
     1
102
RTVSPost2010Prop41ColorIndex
 90
       18
102
RTVSPost2010Prop41ColorRGB
 90
        0
102
RTVSPost2010PropOp41
 70
     1
102
RTVSPost2010Prop42
 90
       50
102
RTVSPost2010PropOp42
 70
     1
102
RTVSPost2010Prop43
 90
        3
102
RTVSPost2010PropOp43
 70
     1
102
RTVSPost2010Prop44ColorIndex
 90
        5
102
RTVSPost2010Prop44ColorRGB
 90
      255
102
RTVSPost2010PropOp44
 70
     1
102
RTVSPost2010Prop45
280
     0
102
RTVSPost2010PropOp45
 70
     1
102
RTVSPost2010Prop46
 90
       50
102
RTVSPost2010PropOp46
 70
     1
102
RTVSPost2010Prop47
 90
       50
102
RTVSPost2010PropOp47
 70
     1
102
RTVSPost2010Prop48
 90
       50
102
RTVSPost2010PropOp48
 70
     1
102
RTVSPost2010Prop49
280
     0
102
RTVSPost2010PropOp49
 70
     1
102
RTVSPost2010Prop50
 90
       50
102
RTVSPost2010PropOp50
 70
     1
102
RTVSPost2010Prop51ColorIndex
 90
      256
102
RTVSPost2010Prop51ColorRGB
 90
-16777216
102
RTVSPost2010PropOp51
 70
     0
102
RTVSPost2010Prop52
140
1.0
102
RTVSPost2010PropOp52
 70
     0
102
RTVSPost2010Prop53
 90
        2
102
RTVSPost2010PropOp53
 70
     1
102
RTVSPost2010Prop54
  1
strokes_ogs.tif
102
RTVSPost2010PropOp54
 70
     1
102
RTVSPost2010Prop55
280
     0
102
RTVSPost2010PropOp55
 70
     1
102
RTVSPost2010Prop56
140
1.0
102
RTVSPost2010PropOp56
 70
     1
102
RTVSPost2010Prop57
140
1.0
102
RTVSPost2010PropOp57
 70
     1
102
RTVSPropertyOp0
 70
     1
102
RTVSPropertyOp1
 70
     1
102
RTVSPropertyOp2
 70
     1
102
RTVSPropertyOp3
 70
     1
102
RTVSPropertyOp4
 70
     1
102
RTVSPropertyOp5
 70
     1
102
RTVSPropertyOp6
 70
     1
102
RTVSPropertyOp7
 70
     1
102
RTVSPropertyOp8
 70
     1
102
RTVSPropertyOp9
 70
     1
102
RTVSPropertyOp10
 70
     1
102
RTVSPropertyOp11
 70
     1
102
RTVSPropertyOp12
 70
     1
102
RTVSPropertyOp13
 70
     1
102
RTVSPropertyOp14
 70
     1
102
RTVSPropertyOp15
 70
     1
102
RTVSPropertyOp16
 70
     1
102
RTVSPropertyOp17
 70
     1
102
RTVSPropertyOp18
 70
     1
102
RTVSPropertyOp19
 70
     1
102
RTVSPropertyOp20
 70
     1
102
RTVSPropertyOp21
 70
     1
102
RTVSPropertyOp22
 70
     1
102
RTVSPropertyOp23
 70
     1
102
RTVSPropertyOp24
 70
     1
102
RTVSPropertyOp25
 70
     1
102
RTVSPropertyOp26
 70
     1
102
RTVSPropertyOp27
 70
     1
102
RTVSPropertyOp28
 70
     1
102
RTVSPropertyOp29
 70
     1
102
RTVSPropertyOp30
 70
     1
102
RTVSPropertyOp31
 70
     1
102
RTVSPropertyOp32
 70
     1
102
RTVSPropertyOp33
 70
     1
102
RTVSPropertyOp34
 70
     1
102
RTVSPropertyOp35
 70
     1
102
RTVSPropertyOp36
 70
     1
102
RTVSPropertyOp37
 70
     1
102
RTVSPropertyOp38
 70
     1
102
RTVSPropertyOp39
 70
     1
102
RTVSPropertyOp40
 70
     1
102
RTVSPropertyOp41
 70
     1
102
RTVSPropertyOp42
 70
     1
102
RTVSPropertyOp43
 70
     1
102
RTVSPropertyOp44
 70
     1
102
RTVSPropertyOp45
 70
     1
102
RTVSPropertyOp46
 70
     1
102
RTVSPropertyOp47
 70
     1
102
RTVSPropertyOp48
 70
     1
102
RTVSPropertyOp49
 70
     1
102
RTVSPropertyOp50
 70
     1
102
RTVSPropertyOp51
 70
     0
102
RTVSPropertyOp52
 70
     0
102
RTVSPropertyOp53
 70
     1
102
RTVSPropertyOp54
 70
     1
102
RTVSPropertyOp55
 70
     1
102
RTVSPropertyOp56
 70
     1
102
RTVSPropertyOp57
 70
     1
102
RTVSPropertyOp58
 70
     1
102
RTVSPropertyOp59
 70
     1
102
RTVSPropertyOp60
 70
     1
102
RTVSPropertyOp61
 70
     1
102
RTVSPropertyOp62
 70
     1
  0
XRECORD
  5
16BD
102
{ACAD_REACTORS
330
16BC
102
}
330
16BC
100
AcDbXrecord
280
     1
102
RTVSPost2010Prop28
280
     0
102
RTVSPost2010PropOp28
 70
     1
102
RTVSPost2010Prop29
280
     1
102
RTVSPost2010PropOp29
 70
     1
102
RTVSPost2010Prop30
280
     1
102
RTVSPost2010PropOp30
 70
     1
102
RTVSPost2010Prop31
280
     0
102
RTVSPost2010PropOp31
 70
     1
102
RTVSPost2010Prop32
280
     0
102
RTVSPost2010PropOp32
 70
     1
102
RTVSPost2010Prop33
280
     0
102
RTVSPost2010PropOp33
 70
     1
102
RTVSPost2010Prop34
280
     0
102
RTVSPost2010PropOp34
 70
     1
102
RTVSPost2010Prop35
280
     0
102
RTVSPost2010PropOp35
 70
     1
102
RTVSPost2010Prop36
280
     0
102
RTVSPost2010PropOp36
 70
     1
102
RTVSPost2010Prop37
 90
       50
102
RTVSPost2010PropOp37
 70
     1
102
RTVSPost2010Prop38
140
0.0
102
RTVSPost2010PropOp38
 70
     1
102
RTVSPost2010Prop39
140
1.0
102
RTVSPost2010PropOp39
 70
     1
102
RTVSPost2010Prop40
 90
        0
102
RTVSPost2010PropOp40
 70
     1
102
RTVSPost2010Prop41ColorIndex
 90
       18
102
RTVSPost2010Prop41ColorRGB
 90
        0
102
RTVSPost2010PropOp41
 70
     1
102
RTVSPost2010Prop42
 90
       50
102
RTVSPost2010PropOp42
 70
     1
102
RTVSPost2010Prop43
 90
        3
102
RTVSPost2010PropOp43
 70
     1
102
RTVSPost2010Prop44ColorIndex
 90
        5
102
RTVSPost2010Prop44ColorRGB
 90
      255
102
RTVSPost2010PropOp44
 70
     1
102
RTVSPost2010Prop45
280
     0
102
RTVSPost2010PropOp45
 70
     1
102
RTVSPost2010Prop46
 90
       50
102
RTVSPost2010PropOp46
 70
     1
102
RTVSPost2010Prop47
 90
       50
102
RTVSPost2010PropOp47
 70
     1
102
RTVSPost2010Prop48
 90
       50
102
RTVSPost2010PropOp48
 70
     1
102
RTVSPost2010Prop49
280
     0
102
RTVSPost2010PropOp49
 70
     1
102
RTVSPost2010Prop50
 90
       50
102
RTVSPost2010PropOp50
 70
     1
102
RTVSPost2010Prop51ColorIndex
 90
      256
102
RTVSPost2010Prop51ColorRGB
 90
-16777216
102
RTVSPost2010PropOp51
 70
     0
102
RTVSPost2010Prop52
140
1.0
102
RTVSPost2010PropOp52
 70
     0
102
RTVSPost2010Prop53
 90
        2
102
RTVSPost2010PropOp53
 70
     1
102
RTVSPost2010Prop54
  1
strokes_ogs.tif
102
RTVSPost2010PropOp54
 70
     1
102
RTVSPost2010Prop55
280
     0
102
RTVSPost2010PropOp55
 70
     1
102
RTVSPost2010Prop56
140
1.0
102
RTVSPost2010PropOp56
 70
     1
102
RTVSPost2010Prop57
140
1.0
102
RTVSPost2010PropOp57
 70
     1
102
RTVSPropertyOp0
 70
     0
102
RTVSPropertyOp1
 70
     0
102
RTVSPropertyOp2
 70
     0
102
RTVSPropertyOp3
 70
     0
102
RTVSPropertyOp4
 70
     0
102
RTVSPropertyOp5
 70
     0
102
RTVSPropertyOp6
 70
     0
102
RTVSPropertyOp7
 70
     0
102
RTVSPropertyOp8
 70
     0
102
RTVSPropertyOp9
 70
     0
102
RTVSPropertyOp10
 70
     0
102
RTVSPropertyOp11
 70
     0
102
RTVSPropertyOp12
 70
     0
102
RTVSPropertyOp13
 70
     0
102
RTVSPropertyOp14
 70
     2
102
RTVSPropertyOp15
 70
     0
102
RTVSPropertyOp16
 70
     0
102
RTVSPropertyOp17
 70
     0
102
RTVSPropertyOp18
 70
     0
102
RTVSPropertyOp19
 70
     0
102
RTVSPropertyOp20
 70
     0
102
RTVSPropertyOp21
 70
     0
102
RTVSPropertyOp22
 70
     0
102
RTVSPropertyOp23
 70
     0
102
RTVSPropertyOp24
 70
     0
102
RTVSPropertyOp25
 70
     0
102
RTVSPropertyOp26
 70
     0
102
RTVSPropertyOp27
 70
     0
102
RTVSPropertyOp28
 70
     1
102
RTVSPropertyOp29
 70
     1
102
RTVSPropertyOp30
 70
     1
102
RTVSPropertyOp31
 70
     1
102
RTVSPropertyOp32
 70
     1
102
RTVSPropertyOp33
 70
     1
102
RTVSPropertyOp34
 70
     1
102
RTVSPropertyOp35
 70
     1
102
RTVSPropertyOp36
 70
     1
102
RTVSPropertyOp37
 70
     1
102
RTVSPropertyOp38
 70
     1
102
RTVSPropertyOp39
 70
     1
102
RTVSPropertyOp40
 70
     1
102
RTVSPropertyOp41
 70
     1
102
RTVSPropertyOp42
 70
     1
102
RTVSPropertyOp43
 70
     1
102
RTVSPropertyOp44
 70
     1
102
RTVSPropertyOp45
 70
     1
102
RTVSPropertyOp46
 70
     1
102
RTVSPropertyOp47
 70
     1
102
RTVSPropertyOp48
 70
     1
102
RTVSPropertyOp49
 70
     1
102
RTVSPropertyOp50
 70
     1
102
RTVSPropertyOp51
 70
     0
102
RTVSPropertyOp52
 70
     0
102
RTVSPropertyOp53
 70
     1
102
RTVSPropertyOp54
 70
     1
102
RTVSPropertyOp55
 70
     1
102
RTVSPropertyOp56
 70
     1
102
RTVSPropertyOp57
 70
     1
102
RTVSPropertyOp58
 70
     1
102
RTVSPropertyOp59
 70
     1
102
RTVSPropertyOp60
 70
     1
102
RTVSPropertyOp61
 70
     1
102
RTVSPropertyOp62
 70
     1
  0
XRECORD
  5
16AB
102
{ACAD_REACTORS
330
16AA
102
}
330
16AA
100
AcDbXrecord
280
     1
102
RTVSPost2010Prop28
280
     0
102
RTVSPost2010PropOp28
 70
     1
102
RTVSPost2010Prop29
280
     1
102
RTVSPost2010PropOp29
 70
     1
102
RTVSPost2010Prop30
280
     1
102
RTVSPost2010PropOp30
 70
     1
102
RTVSPost2010Prop31
280
     0
102
RTVSPost2010PropOp31
 70
     1
102
RTVSPost2010Prop32
280
     0
102
RTVSPost2010PropOp32
 70
     1
102
RTVSPost2010Prop33
280
     0
102
RTVSPost2010PropOp33
 70
     1
102
RTVSPost2010Prop34
280
     0
102
RTVSPost2010PropOp34
 70
     1
102
RTVSPost2010Prop35
280
     0
102
RTVSPost2010PropOp35
 70
     1
102
RTVSPost2010Prop36
280
     0
102
RTVSPost2010PropOp36
 70
     1
102
RTVSPost2010Prop37
 90
       50
102
RTVSPost2010PropOp37
 70
     1
102
RTVSPost2010Prop38
140
0.0
102
RTVSPost2010PropOp38
 70
     1
102
RTVSPost2010Prop39
140
1.0
102
RTVSPost2010PropOp39
 70
     1
102
RTVSPost2010Prop40
 90
        0
102
RTVSPost2010PropOp40
 70
     1
102
RTVSPost2010Prop41ColorIndex
 90
       18
102
RTVSPost2010Prop41ColorRGB
 90
        0
102
RTVSPost2010PropOp41
 70
     1
102
RTVSPost2010Prop42
 90
       50
102
RTVSPost2010PropOp42
 70
     1
102
RTVSPost2010Prop43
 90
        3
102
RTVSPost2010PropOp43
 70
     1
102
RTVSPost2010Prop44ColorIndex
 90
        5
102
RTVSPost2010Prop44ColorRGB
 90
      255
102
RTVSPost2010PropOp44
 70
     1
102
RTVSPost2010Prop45
280
     0
102
RTVSPost2010PropOp45
 70
     1
102
RTVSPost2010Prop46
 90
       50
102
RTVSPost2010PropOp46
 70
     1
102
RTVSPost2010Prop47
 90
       50
102
RTVSPost2010PropOp47
 70
     1
102
RTVSPost2010Prop48
 90
       50
102
RTVSPost2010PropOp48
 70
     1
102
RTVSPost2010Prop49
280
     0
102
RTVSPost2010PropOp49
 70
     1
102
RTVSPost2010Prop50
 90
       50
102
RTVSPost2010PropOp50
 70
     1
102
RTVSPost2010Prop51ColorIndex
 90
      256
102
RTVSPost2010Prop51ColorRGB
 90
-16777216
102
RTVSPost2010PropOp51
 70
     0
102
RTVSPost2010Prop52
140
1.0
102
RTVSPost2010PropOp52
 70
     0
102
RTVSPost2010Prop53
 90
        2
102
RTVSPost2010PropOp53
 70
     1
102
RTVSPost2010Prop54
  1
strokes_ogs.tif
102
RTVSPost2010PropOp54
 70
     1
102
RTVSPost2010Prop55
280
     0
102
RTVSPost2010PropOp55
 70
     1
102
RTVSPost2010Prop56
140
1.0
102
RTVSPost2010PropOp56
 70
     1
102
RTVSPost2010Prop57
140
1.0
102
RTVSPost2010PropOp57
 70
     1
102
RTVSPropertyOp0
 70
     1
102
RTVSPropertyOp1
 70
     1
102
RTVSPropertyOp2
 70
     1
102
RTVSPropertyOp3
 70
     1
102
RTVSPropertyOp4
 70
     1
102
RTVSPropertyOp5
 70
     1
102
RTVSPropertyOp6
 70
     1
102
RTVSPropertyOp7
 70
     1
102
RTVSPropertyOp8
 70
     1
102
RTVSPropertyOp9
 70
     1
102
RTVSPropertyOp10
 70
     1
102
RTVSPropertyOp11
 70
     1
102
RTVSPropertyOp12
 70
     1
102
RTVSPropertyOp13
 70
     1
102
RTVSPropertyOp14
 70
     1
102
RTVSPropertyOp15
 70
     1
102
RTVSPropertyOp16
 70
     1
102
RTVSPropertyOp17
 70
     1
102
RTVSPropertyOp18
 70
     1
102
RTVSPropertyOp19
 70
     1
102
RTVSPropertyOp20
 70
     1
102
RTVSPropertyOp21
 70
     1
102
RTVSPropertyOp22
 70
     1
102
RTVSPropertyOp23
 70
     1
102
RTVSPropertyOp24
 70
     1
102
RTVSPropertyOp25
 70
     1
102
RTVSPropertyOp26
 70
     1
102
RTVSPropertyOp27
 70
     1
102
RTVSPropertyOp28
 70
     1
102
RTVSPropertyOp29
 70
     1
102
RTVSPropertyOp30
 70
     1
102
RTVSPropertyOp31
 70
     1
102
RTVSPropertyOp32
 70
     1
102
RTVSPropertyOp33
 70
     1
102
RTVSPropertyOp34
 70
     1
102
RTVSPropertyOp35
 70
     1
102
RTVSPropertyOp36
 70
     1
102
RTVSPropertyOp37
 70
     1
102
RTVSPropertyOp38
 70
     1
102
RTVSPropertyOp39
 70
     1
102
RTVSPropertyOp40
 70
     1
102
RTVSPropertyOp41
 70
     1
102
RTVSPropertyOp42
 70
     1
102
RTVSPropertyOp43
 70
     1
102
RTVSPropertyOp44
 70
     1
102
RTVSPropertyOp45
 70
     1
102
RTVSPropertyOp46
 70
     1
102
RTVSPropertyOp47
 70
     1
102
RTVSPropertyOp48
 70
     1
102
RTVSPropertyOp49
 70
     1
102
RTVSPropertyOp50
 70
     1
102
RTVSPropertyOp51
 70
     0
102
RTVSPropertyOp52
 70
     0
102
RTVSPropertyOp53
 70
     1
102
RTVSPropertyOp54
 70
     1
102
RTVSPropertyOp55
 70
     1
102
RTVSPropertyOp56
 70
     1
102
RTVSPropertyOp57
 70
     1
102
RTVSPropertyOp58
 70
     1
102
RTVSPropertyOp59
 70
     1
102
RTVSPropertyOp60
 70
     1
102
RTVSPropertyOp61
 70
     1
102
RTVSPropertyOp62
 70
     1
  0
XRECORD
  5
16C9
102
{ACAD_REACTORS
330
16C8
102
}
330
16C8
100
AcDbXrecord
280
     1
102
RTVSPost2010Prop28
280
     0
102
RTVSPost2010PropOp28
 70
     1
102
RTVSPost2010Prop29
280
     1
102
RTVSPost2010PropOp29
 70
     1
102
RTVSPost2010Prop30
280
     1
102
RTVSPost2010PropOp30
 70
     1
102
RTVSPost2010Prop31
280
     0
102
RTVSPost2010PropOp31
 70
     1
102
RTVSPost2010Prop32
280
     0
102
RTVSPost2010PropOp32
 70
     1
102
RTVSPost2010Prop33
280
     0
102
RTVSPost2010PropOp33
 70
     1
102
RTVSPost2010Prop34
280
     0
102
RTVSPost2010PropOp34
 70
     1
102
RTVSPost2010Prop35
280
     0
102
RTVSPost2010PropOp35
 70
     1
102
RTVSPost2010Prop36
280
     0
102
RTVSPost2010PropOp36
 70
     1
102
RTVSPost2010Prop37
 90
       50
102
RTVSPost2010PropOp37
 70
     1
102
RTVSPost2010Prop38
140
0.0
102
RTVSPost2010PropOp38
 70
     1
102
RTVSPost2010Prop39
140
1.0
102
RTVSPost2010PropOp39
 70
     1
102
RTVSPost2010Prop40
 90
        0
102
RTVSPost2010PropOp40
 70
     1
102
RTVSPost2010Prop41ColorIndex
 90
       18
102
RTVSPost2010Prop41ColorRGB
 90
        0
102
RTVSPost2010PropOp41
 70
     1
102
RTVSPost2010Prop42
 90
       50
102
RTVSPost2010PropOp42
 70
     1
102
RTVSPost2010Prop43
 90
        3
102
RTVSPost2010PropOp43
 70
     1
102
RTVSPost2010Prop44ColorIndex
 90
        5
102
RTVSPost2010Prop44ColorRGB
 90
      255
102
RTVSPost2010PropOp44
 70
     1
102
RTVSPost2010Prop45
280
     0
102
RTVSPost2010PropOp45
 70
     1
102
RTVSPost2010Prop46
 90
       50
102
RTVSPost2010PropOp46
 70
     1
102
RTVSPost2010Prop47
 90
       50
102
RTVSPost2010PropOp47
 70
     1
102
RTVSPost2010Prop48
 90
       50
102
RTVSPost2010PropOp48
 70
     1
102
RTVSPost2010Prop49
280
     0
102
RTVSPost2010PropOp49
 70
     1
102
RTVSPost2010Prop50
 90
       50
102
RTVSPost2010PropOp50
 70
     1
102
RTVSPost2010Prop51ColorIndex
 90
      256
102
RTVSPost2010Prop51ColorRGB
 90
-16777216
102
RTVSPost2010PropOp51
 70
     0
102
RTVSPost2010Prop52
140
1.0
102
RTVSPost2010PropOp52
 70
     0
102
RTVSPost2010Prop53
 90
        2
102
RTVSPost2010PropOp53
 70
     1
102
RTVSPost2010Prop54
  1
strokes_ogs.tif
102
RTVSPost2010PropOp54
 70
     1
102
RTVSPost2010Prop55
280
     0
102
RTVSPost2010PropOp55
 70
     1
102
RTVSPost2010Prop56
140
1.0
102
RTVSPost2010PropOp56
 70
     1
102
RTVSPost2010Prop57
140
1.0
102
RTVSPost2010PropOp57
 70
     1
102
RTVSPropertyOp0
 70
     1
102
RTVSPropertyOp1
 70
     1
102
RTVSPropertyOp2
 70
     1
102
RTVSPropertyOp3
 70
     1
102
RTVSPropertyOp4
 70
     1
102
RTVSPropertyOp5
 70
     1
102
RTVSPropertyOp6
 70
     1
102
RTVSPropertyOp7
 70
     1
102
RTVSPropertyOp8
 70
     1
102
RTVSPropertyOp9
 70
     1
102
RTVSPropertyOp10
 70
     1
102
RTVSPropertyOp11
 70
     1
102
RTVSPropertyOp12
 70
     1
102
RTVSPropertyOp13
 70
     1
102
RTVSPropertyOp14
 70
     1
102
RTVSPropertyOp15
 70
     1
102
RTVSPropertyOp16
 70
     1
102
RTVSPropertyOp17
 70
     1
102
RTVSPropertyOp18
 70
     1
102
RTVSPropertyOp19
 70
     1
102
RTVSPropertyOp20
 70
     1
102
RTVSPropertyOp21
 70
     1
102
RTVSPropertyOp22
 70
     1
102
RTVSPropertyOp23
 70
     1
102
RTVSPropertyOp24
 70
     1
102
RTVSPropertyOp25
 70
     1
102
RTVSPropertyOp26
 70
     1
102
RTVSPropertyOp27
 70
     1
102
RTVSPropertyOp28
 70
     1
102
RTVSPropertyOp29
 70
     1
102
RTVSPropertyOp30
 70
     1
102
RTVSPropertyOp31
 70
     1
102
RTVSPropertyOp32
 70
     1
102
RTVSPropertyOp33
 70
     1
102
RTVSPropertyOp34
 70
     1
102
RTVSPropertyOp35
 70
     1
102
RTVSPropertyOp36
 70
     1
102
RTVSPropertyOp37
 70
     1
102
RTVSPropertyOp38
 70
     1
102
RTVSPropertyOp39
 70
     1
102
RTVSPropertyOp40
 70
     1
102
RTVSPropertyOp41
 70
     1
102
RTVSPropertyOp42
 70
     1
102
RTVSPropertyOp43
 70
     1
102
RTVSPropertyOp44
 70
     1
102
RTVSPropertyOp45
 70
     1
102
RTVSPropertyOp46
 70
     1
102
RTVSPropertyOp47
 70
     1
102
RTVSPropertyOp48
 70
     1
102
RTVSPropertyOp49
 70
     1
102
RTVSPropertyOp50
 70
     1
102
RTVSPropertyOp51
 70
     0
102
RTVSPropertyOp52
 70
     0
102
RTVSPropertyOp53
 70
     1
102
RTVSPropertyOp54
 70
     1
102
RTVSPropertyOp55
 70
     1
102
RTVSPropertyOp56
 70
     1
102
RTVSPropertyOp57
 70
     1
102
RTVSPropertyOp58
 70
     1
102
RTVSPropertyOp59
 70
     1
102
RTVSPropertyOp60
 70
     1
102
RTVSPropertyOp61
 70
     1
102
RTVSPropertyOp62
 70
     1
  0
XRECORD
  5
16C7
102
{ACAD_REACTORS
330
16C6
102
}
330
16C6
100
AcDbXrecord
280
     1
102
RTVSPost2010Prop28
280
     0
102
RTVSPost2010PropOp28
 70
     1
102
RTVSPost2010Prop29
280
     1
102
RTVSPost2010PropOp29
 70
     1
102
RTVSPost2010Prop30
280
     1
102
RTVSPost2010PropOp30
 70
     1
102
RTVSPost2010Prop31
280
     0
102
RTVSPost2010PropOp31
 70
     1
102
RTVSPost2010Prop32
280
     0
102
RTVSPost2010PropOp32
 70
     1
102
RTVSPost2010Prop33
280
     0
102
RTVSPost2010PropOp33
 70
     1
102
RTVSPost2010Prop34
280
     0
102
RTVSPost2010PropOp34
 70
     1
102
RTVSPost2010Prop35
280
     0
102
RTVSPost2010PropOp35
 70
     1
102
RTVSPost2010Prop36
280
     0
102
RTVSPost2010PropOp36
 70
     1
102
RTVSPost2010Prop37
 90
       50
102
RTVSPost2010PropOp37
 70
     1
102
RTVSPost2010Prop38
140
0.0
102
RTVSPost2010PropOp38
 70
     1
102
RTVSPost2010Prop39
140
1.0
102
RTVSPost2010PropOp39
 70
     1
102
RTVSPost2010Prop40
 90
        0
102
RTVSPost2010PropOp40
 70
     1
102
RTVSPost2010Prop41ColorIndex
 90
       18
102
RTVSPost2010Prop41ColorRGB
 90
        0
102
RTVSPost2010PropOp41
 70
     1
102
RTVSPost2010Prop42
 90
       50
102
RTVSPost2010PropOp42
 70
     1
102
RTVSPost2010Prop43
 90
        3
102
RTVSPost2010PropOp43
 70
     1
102
RTVSPost2010Prop44ColorIndex
 90
        5
102
RTVSPost2010Prop44ColorRGB
 90
      255
102
RTVSPost2010PropOp44
 70
     1
102
RTVSPost2010Prop45
280
     0
102
RTVSPost2010PropOp45
 70
     1
102
RTVSPost2010Prop46
 90
       50
102
RTVSPost2010PropOp46
 70
     1
102
RTVSPost2010Prop47
 90
       50
102
RTVSPost2010PropOp47
 70
     1
102
RTVSPost2010Prop48
 90
       50
102
RTVSPost2010PropOp48
 70
     1
102
RTVSPost2010Prop49
280
     0
102
RTVSPost2010PropOp49
 70
     1
102
RTVSPost2010Prop50
 90
       50
102
RTVSPost2010PropOp50
 70
     1
102
RTVSPost2010Prop51ColorIndex
 90
      256
102
RTVSPost2010Prop51ColorRGB
 90
-16777216
102
RTVSPost2010PropOp51
 70
     0
102
RTVSPost2010Prop52
140
1.0
102
RTVSPost2010PropOp52
 70
     0
102
RTVSPost2010Prop53
 90
        2
102
RTVSPost2010PropOp53
 70
     1
102
RTVSPost2010Prop54
  1
strokes_ogs.tif
102
RTVSPost2010PropOp54
 70
     1
102
RTVSPost2010Prop55
280
     0
102
RTVSPost2010PropOp55
 70
     1
102
RTVSPost2010Prop56
140
1.0
102
RTVSPost2010PropOp56
 70
     1
102
RTVSPost2010Prop57
140
1.0
102
RTVSPost2010PropOp57
 70
     1
102
RTVSPropertyOp0
 70
     1
102
RTVSPropertyOp1
 70
     1
102
RTVSPropertyOp2
 70
     1
102
RTVSPropertyOp3
 70
     1
102
RTVSPropertyOp4
 70
     1
102
RTVSPropertyOp5
 70
     1
102
RTVSPropertyOp6
 70
     1
102
RTVSPropertyOp7
 70
     1
102
RTVSPropertyOp8
 70
     1
102
RTVSPropertyOp9
 70
     1
102
RTVSPropertyOp10
 70
     1
102
RTVSPropertyOp11
 70
     1
102
RTVSPropertyOp12
 70
     1
102
RTVSPropertyOp13
 70
     1
102
RTVSPropertyOp14
 70
     1
102
RTVSPropertyOp15
 70
     1
102
RTVSPropertyOp16
 70
     1
102
RTVSPropertyOp17
 70
     1
102
RTVSPropertyOp18
 70
     1
102
RTVSPropertyOp19
 70
     1
102
RTVSPropertyOp20
 70
     1
102
RTVSPropertyOp21
 70
     1
102
RTVSPropertyOp22
 70
     1
102
RTVSPropertyOp23
 70
     1
102
RTVSPropertyOp24
 70
     1
102
RTVSPropertyOp25
 70
     1
102
RTVSPropertyOp26
 70
     1
102
RTVSPropertyOp27
 70
     1
102
RTVSPropertyOp28
 70
     1
102
RTVSPropertyOp29
 70
     1
102
RTVSPropertyOp30
 70
     1
102
RTVSPropertyOp31
 70
     1
102
RTVSPropertyOp32
 70
     1
102
RTVSPropertyOp33
 70
     1
102
RTVSPropertyOp34
 70
     1
102
RTVSPropertyOp35
 70
     1
102
RTVSPropertyOp36
 70
     1
102
RTVSPropertyOp37
 70
     1
102
RTVSPropertyOp38
 70
     1
102
RTVSPropertyOp39
 70
     1
102
RTVSPropertyOp40
 70
     1
102
RTVSPropertyOp41
 70
     1
102
RTVSPropertyOp42
 70
     1
102
RTVSPropertyOp43
 70
     1
102
RTVSPropertyOp44
 70
     1
102
RTVSPropertyOp45
 70
     1
102
RTVSPropertyOp46
 70
     1
102
RTVSPropertyOp47
 70
     1
102
RTVSPropertyOp48
 70
     1
102
RTVSPropertyOp49
 70
     1
102
RTVSPropertyOp50
 70
     1
102
RTVSPropertyOp51
 70
     0
102
RTVSPropertyOp52
 70
     0
102
RTVSPropertyOp53
 70
     1
102
RTVSPropertyOp54
 70
     1
102
RTVSPropertyOp55
 70
     1
102
RTVSPropertyOp56
 70
     1
102
RTVSPropertyOp57
 70
     1
102
RTVSPropertyOp58
 70
     1
102
RTVSPropertyOp59
 70
     1
102
RTVSPropertyOp60
 70
     1
102
RTVSPropertyOp61
 70
     1
102
RTVSPropertyOp62
 70
     1
  0
XRECORD
  5
16C1
102
{ACAD_REACTORS
330
16C0
102
}
330
16C0
100
AcDbXrecord
280
     1
102
RTVSPost2010Prop28
280
     0
102
RTVSPost2010PropOp28
 70
     1
102
RTVSPost2010Prop29
280
     1
102
RTVSPost2010PropOp29
 70
     1
102
RTVSPost2010Prop30
280
     1
102
RTVSPost2010PropOp30
 70
     1
102
RTVSPost2010Prop31
280
     0
102
RTVSPost2010PropOp31
 70
     1
102
RTVSPost2010Prop32
280
     0
102
RTVSPost2010PropOp32
 70
     1
102
RTVSPost2010Prop33
280
     0
102
RTVSPost2010PropOp33
 70
     1
102
RTVSPost2010Prop34
280
     0
102
RTVSPost2010PropOp34
 70
     1
102
RTVSPost2010Prop35
280
     0
102
RTVSPost2010PropOp35
 70
     1
102
RTVSPost2010Prop36
280
     0
102
RTVSPost2010PropOp36
 70
     1
102
RTVSPost2010Prop37
 90
       50
102
RTVSPost2010PropOp37
 70
     1
102
RTVSPost2010Prop38
140
0.0
102
RTVSPost2010PropOp38
 70
     1
102
RTVSPost2010Prop39
140
1.0
102
RTVSPost2010PropOp39
 70
     1
102
RTVSPost2010Prop40
 90
        0
102
RTVSPost2010PropOp40
 70
     1
102
RTVSPost2010Prop41ColorIndex
 90
       18
102
RTVSPost2010Prop41ColorRGB
 90
        0
102
RTVSPost2010PropOp41
 70
     1
102
RTVSPost2010Prop42
 90
       50
102
RTVSPost2010PropOp42
 70
     1
102
RTVSPost2010Prop43
 90
        3
102
RTVSPost2010PropOp43
 70
     1
102
RTVSPost2010Prop44ColorIndex
 90
        5
102
RTVSPost2010Prop44ColorRGB
 90
      255
102
RTVSPost2010PropOp44
 70
     1
102
RTVSPost2010Prop45
280
     0
102
RTVSPost2010PropOp45
 70
     1
102
RTVSPost2010Prop46
 90
       50
102
RTVSPost2010PropOp46
 70
     1
102
RTVSPost2010Prop47
 90
       50
102
RTVSPost2010PropOp47
 70
     1
102
RTVSPost2010Prop48
 90
       50
102
RTVSPost2010PropOp48
 70
     1
102
RTVSPost2010Prop49
280
     0
102
RTVSPost2010PropOp49
 70
     1
102
RTVSPost2010Prop50
 90
       50
102
RTVSPost2010PropOp50
 70
     1
102
RTVSPost2010Prop51ColorIndex
 90
      256
102
RTVSPost2010Prop51ColorRGB
 90
-16777216
102
RTVSPost2010PropOp51
 70
     0
102
RTVSPost2010Prop52
140
1.0
102
RTVSPost2010PropOp52
 70
     0
102
RTVSPost2010Prop53
 90
        2
102
RTVSPost2010PropOp53
 70
     1
102
RTVSPost2010Prop54
  1
strokes_ogs.tif
102
RTVSPost2010PropOp54
 70
     1
102
RTVSPost2010Prop55
280
     0
102
RTVSPost2010PropOp55
 70
     1
102
RTVSPost2010Prop56
140
1.0
102
RTVSPost2010PropOp56
 70
     1
102
RTVSPost2010Prop57
140
1.0
102
RTVSPost2010PropOp57
 70
     1
102
RTVSPropertyOp0
 70
     1
102
RTVSPropertyOp1
 70
     1
102
RTVSPropertyOp2
 70
     1
102
RTVSPropertyOp3
 70
     1
102
RTVSPropertyOp4
 70
     1
102
RTVSPropertyOp5
 70
     1
102
RTVSPropertyOp6
 70
     1
102
RTVSPropertyOp7
 70
     1
102
RTVSPropertyOp8
 70
     1
102
RTVSPropertyOp9
 70
     1
102
RTVSPropertyOp10
 70
     1
102
RTVSPropertyOp11
 70
     1
102
RTVSPropertyOp12
 70
     1
102
RTVSPropertyOp13
 70
     1
102
RTVSPropertyOp14
 70
     1
102
RTVSPropertyOp15
 70
     1
102
RTVSPropertyOp16
 70
     1
102
RTVSPropertyOp17
 70
     1
102
RTVSPropertyOp18
 70
     1
102
RTVSPropertyOp19
 70
     1
102
RTVSPropertyOp20
 70
     1
102
RTVSPropertyOp21
 70
     1
102
RTVSPropertyOp22
 70
     1
102
RTVSPropertyOp23
 70
     1
102
RTVSPropertyOp24
 70
     1
102
RTVSPropertyOp25
 70
     1
102
RTVSPropertyOp26
 70
     1
102
RTVSPropertyOp27
 70
     1
102
RTVSPropertyOp28
 70
     1
102
RTVSPropertyOp29
 70
     1
102
RTVSPropertyOp30
 70
     1
102
RTVSPropertyOp31
 70
     1
102
RTVSPropertyOp32
 70
     1
102
RTVSPropertyOp33
 70
     1
102
RTVSPropertyOp34
 70
     1
102
RTVSPropertyOp35
 70
     1
102
RTVSPropertyOp36
 70
     1
102
RTVSPropertyOp37
 70
     1
102
RTVSPropertyOp38
 70
     1
102
RTVSPropertyOp39
 70
     1
102
RTVSPropertyOp40
 70
     1
102
RTVSPropertyOp41
 70
     1
102
RTVSPropertyOp42
 70
     1
102
RTVSPropertyOp43
 70
     1
102
RTVSPropertyOp44
 70
     1
102
RTVSPropertyOp45
 70
     1
102
RTVSPropertyOp46
 70
     1
102
RTVSPropertyOp47
 70
     1
102
RTVSPropertyOp48
 70
     1
102
RTVSPropertyOp49
 70
     1
102
RTVSPropertyOp50
 70
     1
102
RTVSPropertyOp51
 70
     0
102
RTVSPropertyOp52
 70
     0
102
RTVSPropertyOp53
 70
     1
102
RTVSPropertyOp54
 70
     1
102
RTVSPropertyOp55
 70
     1
102
RTVSPropertyOp56
 70
     1
102
RTVSPropertyOp57
 70
     1
102
RTVSPropertyOp58
 70
     1
102
RTVSPropertyOp59
 70
     1
102
RTVSPropertyOp60
 70
     1
102
RTVSPropertyOp61
 70
     1
102
RTVSPropertyOp62
 70
     1
  0
XRECORD
  5
16C3
102
{ACAD_REACTORS
330
16C2
102
}
330
16C2
100
AcDbXrecord
280
     1
102
RTVSPost2010Prop28
280
     0
102
RTVSPost2010PropOp28
 70
     1
102
RTVSPost2010Prop29
280
     1
102
RTVSPost2010PropOp29
 70
     1
102
RTVSPost2010Prop30
280
     1
102
RTVSPost2010PropOp30
 70
     1
102
RTVSPost2010Prop31
280
     0
102
RTVSPost2010PropOp31
 70
     1
102
RTVSPost2010Prop32
280
     0
102
RTVSPost2010PropOp32
 70
     1
102
RTVSPost2010Prop33
280
     0
102
RTVSPost2010PropOp33
 70
     1
102
RTVSPost2010Prop34
280
     0
102
RTVSPost2010PropOp34
 70
     1
102
RTVSPost2010Prop35
280
     0
102
RTVSPost2010PropOp35
 70
     1
102
RTVSPost2010Prop36
280
     0
102
RTVSPost2010PropOp36
 70
     1
102
RTVSPost2010Prop37
 90
       50
102
RTVSPost2010PropOp37
 70
     1
102
RTVSPost2010Prop38
140
0.0
102
RTVSPost2010PropOp38
 70
     1
102
RTVSPost2010Prop39
140
1.0
102
RTVSPost2010PropOp39
 70
     1
102
RTVSPost2010Prop40
 90
        0
102
RTVSPost2010PropOp40
 70
     1
102
RTVSPost2010Prop41ColorIndex
 90
       18
102
RTVSPost2010Prop41ColorRGB
 90
        0
102
RTVSPost2010PropOp41
 70
     1
102
RTVSPost2010Prop42
 90
       50
102
RTVSPost2010PropOp42
 70
     1
102
RTVSPost2010Prop43
 90
        3
102
RTVSPost2010PropOp43
 70
     1
102
RTVSPost2010Prop44ColorIndex
 90
        5
102
RTVSPost2010Prop44ColorRGB
 90
      255
102
RTVSPost2010PropOp44
 70
     1
102
RTVSPost2010Prop45
280
     0
102
RTVSPost2010PropOp45
 70
     1
102
RTVSPost2010Prop46
 90
       50
102
RTVSPost2010PropOp46
 70
     1
102
RTVSPost2010Prop47
 90
       50
102
RTVSPost2010PropOp47
 70
     1
102
RTVSPost2010Prop48
 90
       50
102
RTVSPost2010PropOp48
 70
     1
102
RTVSPost2010Prop49
280
     0
102
RTVSPost2010PropOp49
 70
     1
102
RTVSPost2010Prop50
 90
       50
102
RTVSPost2010PropOp50
 70
     1
102
RTVSPost2010Prop51ColorIndex
 90
      256
102
RTVSPost2010Prop51ColorRGB
 90
-16777216
102
RTVSPost2010PropOp51
 70
     0
102
RTVSPost2010Prop52
140
1.0
102
RTVSPost2010PropOp52
 70
     0
102
RTVSPost2010Prop53
 90
        2
102
RTVSPost2010PropOp53
 70
     1
102
RTVSPost2010Prop54
  1
strokes_ogs.tif
102
RTVSPost2010PropOp54
 70
     1
102
RTVSPost2010Prop55
280
     0
102
RTVSPost2010PropOp55
 70
     1
102
RTVSPost2010Prop56
140
1.0
102
RTVSPost2010PropOp56
 70
     1
102
RTVSPost2010Prop57
140
1.0
102
RTVSPost2010PropOp57
 70
     1
102
RTVSPropertyOp0
 70
     1
102
RTVSPropertyOp1
 70
     1
102
RTVSPropertyOp2
 70
     1
102
RTVSPropertyOp3
 70
     1
102
RTVSPropertyOp4
 70
     1
102
RTVSPropertyOp5
 70
     1
102
RTVSPropertyOp6
 70
     1
102
RTVSPropertyOp7
 70
     1
102
RTVSPropertyOp8
 70
     1
102
RTVSPropertyOp9
 70
     1
102
RTVSPropertyOp10
 70
     1
102
RTVSPropertyOp11
 70
     1
102
RTVSPropertyOp12
 70
     1
102
RTVSPropertyOp13
 70
     1
102
RTVSPropertyOp14
 70
     1
102
RTVSPropertyOp15
 70
     1
102
RTVSPropertyOp16
 70
     1
102
RTVSPropertyOp17
 70
     1
102
RTVSPropertyOp18
 70
     1
102
RTVSPropertyOp19
 70
     1
102
RTVSPropertyOp20
 70
     1
102
RTVSPropertyOp21
 70
     1
102
RTVSPropertyOp22
 70
     1
102
RTVSPropertyOp23
 70
     1
102
RTVSPropertyOp24
 70
     1
102
RTVSPropertyOp25
 70
     1
102
RTVSPropertyOp26
 70
     1
102
RTVSPropertyOp27
 70
     1
102
RTVSPropertyOp28
 70
     1
102
RTVSPropertyOp29
 70
     1
102
RTVSPropertyOp30
 70
     1
102
RTVSPropertyOp31
 70
     1
102
RTVSPropertyOp32
 70
     1
102
RTVSPropertyOp33
 70
     1
102
RTVSPropertyOp34
 70
     1
102
RTVSPropertyOp35
 70
     1
102
RTVSPropertyOp36
 70
     1
102
RTVSPropertyOp37
 70
     1
102
RTVSPropertyOp38
 70
     1
102
RTVSPropertyOp39
 70
     1
102
RTVSPropertyOp40
 70
     1
102
RTVSPropertyOp41
 70
     1
102
RTVSPropertyOp42
 70
     1
102
RTVSPropertyOp43
 70
     1
102
RTVSPropertyOp44
 70
     1
102
RTVSPropertyOp45
 70
     1
102
RTVSPropertyOp46
 70
     1
102
RTVSPropertyOp47
 70
     1
102
RTVSPropertyOp48
 70
     1
102
RTVSPropertyOp49
 70
     1
102
RTVSPropertyOp50
 70
     1
102
RTVSPropertyOp51
 70
     0
102
RTVSPropertyOp52
 70
     0
102
RTVSPropertyOp53
 70
     1
102
RTVSPropertyOp54
 70
     1
102
RTVSPropertyOp55
 70
     1
102
RTVSPropertyOp56
 70
     1
102
RTVSPropertyOp57
 70
     1
102
RTVSPropertyOp58
 70
     1
102
RTVSPropertyOp59
 70
     1
102
RTVSPropertyOp60
 70
     1
102
RTVSPropertyOp61
 70
     1
102
RTVSPropertyOp62
 70
     1
  0
XRECORD
  5
16B1
102
{ACAD_REACTORS
330
16B0
102
}
330
16B0
100
AcDbXrecord
280
     1
102
RTVSPost2010Prop28
280
     0
102
RTVSPost2010PropOp28
 70
     1
102
RTVSPost2010Prop29
280
     1
102
RTVSPost2010PropOp29
 70
     1
102
RTVSPost2010Prop30
280
     1
102
RTVSPost2010PropOp30
 70
     1
102
RTVSPost2010Prop31
280
     0
102
RTVSPost2010PropOp31
 70
     1
102
RTVSPost2010Prop32
280
     0
102
RTVSPost2010PropOp32
 70
     1
102
RTVSPost2010Prop33
280
     0
102
RTVSPost2010PropOp33
 70
     1
102
RTVSPost2010Prop34
280
     0
102
RTVSPost2010PropOp34
 70
     1
102
RTVSPost2010Prop35
280
     0
102
RTVSPost2010PropOp35
 70
     1
102
RTVSPost2010Prop36
280
     0
102
RTVSPost2010PropOp36
 70
     1
102
RTVSPost2010Prop37
 90
       50
102
RTVSPost2010PropOp37
 70
     1
102
RTVSPost2010Prop38
140
0.0
102
RTVSPost2010PropOp38
 70
     1
102
RTVSPost2010Prop39
140
1.0
102
RTVSPost2010PropOp39
 70
     1
102
RTVSPost2010Prop40
 90
        0
102
RTVSPost2010PropOp40
 70
     1
102
RTVSPost2010Prop41ColorIndex
 90
       18
102
RTVSPost2010Prop41ColorRGB
 90
        0
102
RTVSPost2010PropOp41
 70
     1
102
RTVSPost2010Prop42
 90
       50
102
RTVSPost2010PropOp42
 70
     1
102
RTVSPost2010Prop43
 90
        3
102
RTVSPost2010PropOp43
 70
     1
102
RTVSPost2010Prop44ColorIndex
 90
        5
102
RTVSPost2010Prop44ColorRGB
 90
      255
102
RTVSPost2010PropOp44
 70
     1
102
RTVSPost2010Prop45
280
     0
102
RTVSPost2010PropOp45
 70
     1
102
RTVSPost2010Prop46
 90
       50
102
RTVSPost2010PropOp46
 70
     1
102
RTVSPost2010Prop47
 90
       50
102
RTVSPost2010PropOp47
 70
     1
102
RTVSPost2010Prop48
 90
       50
102
RTVSPost2010PropOp48
 70
     1
102
RTVSPost2010Prop49
280
     0
102
RTVSPost2010PropOp49
 70
     1
102
RTVSPost2010Prop50
 90
       50
102
RTVSPost2010PropOp50
 70
     1
102
RTVSPost2010Prop51ColorIndex
 90
      256
102
RTVSPost2010Prop51ColorRGB
 90
-16777216
102
RTVSPost2010PropOp51
 70
     0
102
RTVSPost2010Prop52
140
1.0
102
RTVSPost2010PropOp52
 70
     0
102
RTVSPost2010Prop53
 90
        2
102
RTVSPost2010PropOp53
 70
     1
102
RTVSPost2010Prop54
  1
strokes_ogs.tif
102
RTVSPost2010PropOp54
 70
     1
102
RTVSPost2010Prop55
280
     0
102
RTVSPost2010PropOp55
 70
     1
102
RTVSPost2010Prop56
140
1.0
102
RTVSPost2010PropOp56
 70
     1
102
RTVSPost2010Prop57
140
1.0
102
RTVSPost2010PropOp57
 70
     1
102
RTVSPropertyOp0
 70
     1
102
RTVSPropertyOp1
 70
     1
102
RTVSPropertyOp2
 70
     1
102
RTVSPropertyOp3
 70
     1
102
RTVSPropertyOp4
 70
     1
102
RTVSPropertyOp5
 70
     1
102
RTVSPropertyOp6
 70
     1
102
RTVSPropertyOp7
 70
     1
102
RTVSPropertyOp8
 70
     1
102
RTVSPropertyOp9
 70
     1
102
RTVSPropertyOp10
 70
     1
102
RTVSPropertyOp11
 70
     1
102
RTVSPropertyOp12
 70
     1
102
RTVSPropertyOp13
 70
     1
102
RTVSPropertyOp14
 70
     1
102
RTVSPropertyOp15
 70
     1
102
RTVSPropertyOp16
 70
     1
102
RTVSPropertyOp17
 70
     1
102
RTVSPropertyOp18
 70
     1
102
RTVSPropertyOp19
 70
     1
102
RTVSPropertyOp20
 70
     1
102
RTVSPropertyOp21
 70
     1
102
RTVSPropertyOp22
 70
     1
102
RTVSPropertyOp23
 70
     1
102
RTVSPropertyOp24
 70
     1
102
RTVSPropertyOp25
 70
     1
102
RTVSPropertyOp26
 70
     1
102
RTVSPropertyOp27
 70
     1
102
RTVSPropertyOp28
 70
     1
102
RTVSPropertyOp29
 70
     1
102
RTVSPropertyOp30
 70
     1
102
RTVSPropertyOp31
 70
     1
102
RTVSPropertyOp32
 70
     1
102
RTVSPropertyOp33
 70
     1
102
RTVSPropertyOp34
 70
     1
102
RTVSPropertyOp35
 70
     1
102
RTVSPropertyOp36
 70
     1
102
RTVSPropertyOp37
 70
     1
102
RTVSPropertyOp38
 70
     1
102
RTVSPropertyOp39
 70
     1
102
RTVSPropertyOp40
 70
     1
102
RTVSPropertyOp41
 70
     1
102
RTVSPropertyOp42
 70
     1
102
RTVSPropertyOp43
 70
     1
102
RTVSPropertyOp44
 70
     1
102
RTVSPropertyOp45
 70
     1
102
RTVSPropertyOp46
 70
     1
102
RTVSPropertyOp47
 70
     1
102
RTVSPropertyOp48
 70
     1
102
RTVSPropertyOp49
 70
     1
102
RTVSPropertyOp50
 70
     1
102
RTVSPropertyOp51
 70
     0
102
RTVSPropertyOp52
 70
     0
102
RTVSPropertyOp53
 70
     1
102
RTVSPropertyOp54
 70
     1
102
RTVSPropertyOp55
 70
     1
102
RTVSPropertyOp56
 70
     1
102
RTVSPropertyOp57
 70
     1
102
RTVSPropertyOp58
 70
     1
102
RTVSPropertyOp59
 70
     1
102
RTVSPropertyOp60
 70
     1
102
RTVSPropertyOp61
 70
     1
102
RTVSPropertyOp62
 70
     1
  0
XRECORD
  5
16A5
102
{ACAD_REACTORS
330
16A4
102
}
330
16A4
100
AcDbXrecord
280
     1
102
RTVSPost2010Prop28
280
     0
102
RTVSPost2010PropOp28
 70
     1
102
RTVSPost2010Prop29
280
     1
102
RTVSPost2010PropOp29
 70
     1
102
RTVSPost2010Prop30
280
     1
102
RTVSPost2010PropOp30
 70
     1
102
RTVSPost2010Prop31
280
     0
102
RTVSPost2010PropOp31
 70
     1
102
RTVSPost2010Prop32
280
     0
102
RTVSPost2010PropOp32
 70
     1
102
RTVSPost2010Prop33
280
     0
102
RTVSPost2010PropOp33
 70
     1
102
RTVSPost2010Prop34
280
     0
102
RTVSPost2010PropOp34
 70
     1
102
RTVSPost2010Prop35
280
     0
102
RTVSPost2010PropOp35
 70
     1
102
RTVSPost2010Prop36
280
     0
102
RTVSPost2010PropOp36
 70
     1
102
RTVSPost2010Prop37
 90
       50
102
RTVSPost2010PropOp37
 70
     1
102
RTVSPost2010Prop38
140
0.0
102
RTVSPost2010PropOp38
 70
     1
102
RTVSPost2010Prop39
140
1.0
102
RTVSPost2010PropOp39
 70
     1
102
RTVSPost2010Prop40
 90
        0
102
RTVSPost2010PropOp40
 70
     1
102
RTVSPost2010Prop41ColorIndex
 90
       18
102
RTVSPost2010Prop41ColorRGB
 90
        0
102
RTVSPost2010PropOp41
 70
     1
102
RTVSPost2010Prop42
 90
       50
102
RTVSPost2010PropOp42
 70
     1
102
RTVSPost2010Prop43
 90
        3
102
RTVSPost2010PropOp43
 70
     1
102
RTVSPost2010Prop44ColorIndex
 90
        5
102
RTVSPost2010Prop44ColorRGB
 90
      255
102
RTVSPost2010PropOp44
 70
     1
102
RTVSPost2010Prop45
280
     0
102
RTVSPost2010PropOp45
 70
     1
102
RTVSPost2010Prop46
 90
       50
102
RTVSPost2010PropOp46
 70
     1
102
RTVSPost2010Prop47
 90
       50
102
RTVSPost2010PropOp47
 70
     1
102
RTVSPost2010Prop48
 90
       50
102
RTVSPost2010PropOp48
 70
     1
102
RTVSPost2010Prop49
280
     0
102
RTVSPost2010PropOp49
 70
     1
102
RTVSPost2010Prop50
 90
       50
102
RTVSPost2010PropOp50
 70
     1
102
RTVSPost2010Prop51ColorIndex
 90
      256
102
RTVSPost2010Prop51ColorRGB
 90
-16777216
102
RTVSPost2010PropOp51
 70
     0
102
RTVSPost2010Prop52
140
1.0
102
RTVSPost2010PropOp52
 70
     0
102
RTVSPost2010Prop53
 90
        2
102
RTVSPost2010PropOp53
 70
     1
102
RTVSPost2010Prop54
  1
strokes_ogs.tif
102
RTVSPost2010PropOp54
 70
     1
102
RTVSPost2010Prop55
280
     0
102
RTVSPost2010PropOp55
 70
     1
102
RTVSPost2010Prop56
140
1.0
102
RTVSPost2010PropOp56
 70
     1
102
RTVSPost2010Prop57
140
1.0
102
RTVSPost2010PropOp57
 70
     1
102
RTVSPropertyOp0
 70
     1
102
RTVSPropertyOp1
 70
     1
102
RTVSPropertyOp2
 70
     1
102
RTVSPropertyOp3
 70
     1
102
RTVSPropertyOp4
 70
     1
102
RTVSPropertyOp5
 70
     1
102
RTVSPropertyOp6
 70
     1
102
RTVSPropertyOp7
 70
     1
102
RTVSPropertyOp8
 70
     1
102
RTVSPropertyOp9
 70
     1
102
RTVSPropertyOp10
 70
     1
102
RTVSPropertyOp11
 70
     1
102
RTVSPropertyOp12
 70
     1
102
RTVSPropertyOp13
 70
     1
102
RTVSPropertyOp14
 70
     1
102
RTVSPropertyOp15
 70
     1
102
RTVSPropertyOp16
 70
     1
102
RTVSPropertyOp17
 70
     1
102
RTVSPropertyOp18
 70
     1
102
RTVSPropertyOp19
 70
     1
102
RTVSPropertyOp20
 70
     1
102
RTVSPropertyOp21
 70
     1
102
RTVSPropertyOp22
 70
     1
102
RTVSPropertyOp23
 70
     1
102
RTVSPropertyOp24
 70
     1
102
RTVSPropertyOp25
 70
     1
102
RTVSPropertyOp26
 70
     1
102
RTVSPropertyOp27
 70
     1
102
RTVSPropertyOp28
 70
     1
102
RTVSPropertyOp29
 70
     1
102
RTVSPropertyOp30
 70
     1
102
RTVSPropertyOp31
 70
     1
102
RTVSPropertyOp32
 70
     1
102
RTVSPropertyOp33
 70
     1
102
RTVSPropertyOp34
 70
     1
102
RTVSPropertyOp35
 70
     1
102
RTVSPropertyOp36
 70
     1
102
RTVSPropertyOp37
 70
     1
102
RTVSPropertyOp38
 70
     1
102
RTVSPropertyOp39
 70
     1
102
RTVSPropertyOp40
 70
     1
102
RTVSPropertyOp41
 70
     1
102
RTVSPropertyOp42
 70
     1
102
RTVSPropertyOp43
 70
     1
102
RTVSPropertyOp44
 70
     1
102
RTVSPropertyOp45
 70
     1
102
RTVSPropertyOp46
 70
     1
102
RTVSPropertyOp47
 70
     1
102
RTVSPropertyOp48
 70
     1
102
RTVSPropertyOp49
 70
     1
102
RTVSPropertyOp50
 70
     1
102
RTVSPropertyOp51
 70
     0
102
RTVSPropertyOp52
 70
     0
102
RTVSPropertyOp53
 70
     1
102
RTVSPropertyOp54
 70
     1
102
RTVSPropertyOp55
 70
     1
102
RTVSPropertyOp56
 70
     1
102
RTVSPropertyOp57
 70
     1
102
RTVSPropertyOp58
 70
     1
102
RTVSPropertyOp59
 70
     1
102
RTVSPropertyOp60
 70
     1
102
RTVSPropertyOp61
 70
     1
102
RTVSPropertyOp62
 70
     1
  0
XRECORD
  5
16C5
102
{ACAD_REACTORS
330
16C4
102
}
330
16C4
100
AcDbXrecord
280
     1
102
RTVSPost2010Prop28
280
     0
102
RTVSPost2010PropOp28
 70
     1
102
RTVSPost2010Prop29
280
     1
102
RTVSPost2010PropOp29
 70
     1
102
RTVSPost2010Prop30
280
     1
102
RTVSPost2010PropOp30
 70
     1
102
RTVSPost2010Prop31
280
     0
102
RTVSPost2010PropOp31
 70
     1
102
RTVSPost2010Prop32
280
     0
102
RTVSPost2010PropOp32
 70
     1
102
RTVSPost2010Prop33
280
     0
102
RTVSPost2010PropOp33
 70
     1
102
RTVSPost2010Prop34
280
     0
102
RTVSPost2010PropOp34
 70
     1
102
RTVSPost2010Prop35
280
     0
102
RTVSPost2010PropOp35
 70
     1
102
RTVSPost2010Prop36
280
     0
102
RTVSPost2010PropOp36
 70
     1
102
RTVSPost2010Prop37
 90
       50
102
RTVSPost2010PropOp37
 70
     1
102
RTVSPost2010Prop38
140
0.0
102
RTVSPost2010PropOp38
 70
     1
102
RTVSPost2010Prop39
140
1.0
102
RTVSPost2010PropOp39
 70
     1
102
RTVSPost2010Prop40
 90
        0
102
RTVSPost2010PropOp40
 70
     1
102
RTVSPost2010Prop41ColorIndex
 90
       18
102
RTVSPost2010Prop41ColorRGB
 90
        0
102
RTVSPost2010PropOp41
 70
     1
102
RTVSPost2010Prop42
 90
       50
102
RTVSPost2010PropOp42
 70
     1
102
RTVSPost2010Prop43
 90
        3
102
RTVSPost2010PropOp43
 70
     1
102
RTVSPost2010Prop44ColorIndex
 90
        5
102
RTVSPost2010Prop44ColorRGB
 90
      255
102
RTVSPost2010PropOp44
 70
     1
102
RTVSPost2010Prop45
280
     0
102
RTVSPost2010PropOp45
 70
     1
102
RTVSPost2010Prop46
 90
       50
102
RTVSPost2010PropOp46
 70
     1
102
RTVSPost2010Prop47
 90
       50
102
RTVSPost2010PropOp47
 70
     1
102
RTVSPost2010Prop48
 90
       50
102
RTVSPost2010PropOp48
 70
     1
102
RTVSPost2010Prop49
280
     0
102
RTVSPost2010PropOp49
 70
     1
102
RTVSPost2010Prop50
 90
       50
102
RTVSPost2010PropOp50
 70
     1
102
RTVSPost2010Prop51ColorIndex
 90
      256
102
RTVSPost2010Prop51ColorRGB
 90
-16777216
102
RTVSPost2010PropOp51
 70
     0
102
RTVSPost2010Prop52
140
1.0
102
RTVSPost2010PropOp52
 70
     0
102
RTVSPost2010Prop53
 90
        2
102
RTVSPost2010PropOp53
 70
     1
102
RTVSPost2010Prop54
  1
strokes_ogs.tif
102
RTVSPost2010PropOp54
 70
     1
102
RTVSPost2010Prop55
280
     0
102
RTVSPost2010PropOp55
 70
     1
102
RTVSPost2010Prop56
140
1.0
102
RTVSPost2010PropOp56
 70
     1
102
RTVSPost2010Prop57
140
1.0
102
RTVSPost2010PropOp57
 70
     1
102
RTVSPropertyOp0
 70
     1
102
RTVSPropertyOp1
 70
     1
102
RTVSPropertyOp2
 70
     1
102
RTVSPropertyOp3
 70
     1
102
RTVSPropertyOp4
 70
     1
102
RTVSPropertyOp5
 70
     1
102
RTVSPropertyOp6
 70
     1
102
RTVSPropertyOp7
 70
     1
102
RTVSPropertyOp8
 70
     1
102
RTVSPropertyOp9
 70
     1
102
RTVSPropertyOp10
 70
     1
102
RTVSPropertyOp11
 70
     1
102
RTVSPropertyOp12
 70
     1
102
RTVSPropertyOp13
 70
     1
102
RTVSPropertyOp14
 70
     1
102
RTVSPropertyOp15
 70
     1
102
RTVSPropertyOp16
 70
     1
102
RTVSPropertyOp17
 70
     1
102
RTVSPropertyOp18
 70
     1
102
RTVSPropertyOp19
 70
     1
102
RTVSPropertyOp20
 70
     1
102
RTVSPropertyOp21
 70
     1
102
RTVSPropertyOp22
 70
     1
102
RTVSPropertyOp23
 70
     1
102
RTVSPropertyOp24
 70
     1
102
RTVSPropertyOp25
 70
     1
102
RTVSPropertyOp26
 70
     1
102
RTVSPropertyOp27
 70
     1
102
RTVSPropertyOp28
 70
     1
102
RTVSPropertyOp29
 70
     1
102
RTVSPropertyOp30
 70
     1
102
RTVSPropertyOp31
 70
     1
102
RTVSPropertyOp32
 70
     1
102
RTVSPropertyOp33
 70
     1
102
RTVSPropertyOp34
 70
     1
102
RTVSPropertyOp35
 70
     1
102
RTVSPropertyOp36
 70
     1
102
RTVSPropertyOp37
 70
     1
102
RTVSPropertyOp38
 70
     1
102
RTVSPropertyOp39
 70
     1
102
RTVSPropertyOp40
 70
     1
102
RTVSPropertyOp41
 70
     1
102
RTVSPropertyOp42
 70
     1
102
RTVSPropertyOp43
 70
     1
102
RTVSPropertyOp44
 70
     1
102
RTVSPropertyOp45
 70
     1
102
RTVSPropertyOp46
 70
     1
102
RTVSPropertyOp47
 70
     1
102
RTVSPropertyOp48
 70
     1
102
RTVSPropertyOp49
 70
     1
102
RTVSPropertyOp50
 70
     1
102
RTVSPropertyOp51
 70
     0
102
RTVSPropertyOp52
 70
     0
102
RTVSPropertyOp53
 70
     1
102
RTVSPropertyOp54
 70
     1
102
RTVSPropertyOp55
 70
     1
102
RTVSPropertyOp56
 70
     1
102
RTVSPropertyOp57
 70
     1
102
RTVSPropertyOp58
 70
     1
102
RTVSPropertyOp59
 70
     1
102
RTVSPropertyOp60
 70
     1
102
RTVSPropertyOp61
 70
     1
102
RTVSPropertyOp62
 70
     1
  0
ENDSEC
  0
EOF
