  0
SECTION
  2
HEADER
  9
$ACADVER
  1
AC1015
  9
$ACADMAINTVER
 70
    18
  9
$DWGCODEPAGE
  3
ANSI_1252
  9
$INSBASE
 10
0.0
 20
0.0
 30
0.0
  9
$EXTMIN
 10
-198.7783806011759
 20
-536.1734618467435
 30
-0.0015258207003583
  9
$EXTMAX
 10
196.7980964211724
 20
255.4972235435821
 30
0.0000000349246037
  9
$LIMMIN
 10
0.0
 20
0.0
  9
$LIMMAX
 10
420.0
 20
297.0
  9
$ORTHOMODE
 70
     0
  9
$REGENMODE
 70
     1
  9
$FILLMODE
 70
     1
  9
$QTEXTMODE
 70
     0
  9
$MIRRTEXT
 70
     0
  9
$LTSCALE
 40
1.0
  9
$ATTMODE
 70
     1
  9
$TEXTSIZE
 40
2.5
  9
$TRACEWID
 40
1.0
  9
$TEXTSTYLE
  7
Standard
  9
$CLAYER
  8
0
  9
$CELTYPE
  6
ByLayer
  9
$CECOLOR
 62
   256
  9
$CELTSCALE
 40
1.0
  9
$DISPSILH
 70
     0
  9
$DIMSCALE
 40
1.0
  9
$DIMASZ
 40
2.5
  9
$DIMEXO
 40
0.625
  9
$DIMDLI
 40
3.75
  9
$DIMRND
 40
0.0
  9
$DIMDLE
 40
0.0
  9
$DIMEXE
 40
1.25
  9
$DIMTP
 40
0.0
  9
$DIMTM
 40
0.0
  9
$DIMTXT
 40
2.5
  9
$DIMCEN
 40
2.5
  9
$DIMTSZ
 40
0.0
  9
$DIMTOL
 70
     0
  9
$DIMLIM
 70
     0
  9
$DIMTIH
 70
     0
  9
$DIMTOH
 70
     0
  9
$DIMSE1
 70
     0
  9
$DIMSE2
 70
     0
  9
$DIMTAD
 70
     1
  9
$DIMZIN
 70
     8
  9
$DIMBLK
  1

  9
$DIMASO
 70
     1
  9
$DIMSHO
 70
     1
  9
$DIMPOST
  1

  9
$DIMAPOST
  1

  9
$DIMALT
 70
     0
  9
$DIMALTD
 70
     3
  9
$DIMALTF
 40
0.03937007874016
  9
$DIMLFAC
 40
1.0
  9
$DIMTOFL
 70
     1
  9
$DIMTVP
 40
0.0
  9
$DIMTIX
 70
     0
  9
$DIMSOXD
 70
     0
  9
$DIMSAH
 70
     0
  9
$DIMBLK1
  1

  9
$DIMBLK2
  1

  9
$DIMSTYLE
  2
ISO-25
  9
$DIMCLRD
 70
     0
  9
$DIMCLRE
 70
     0
  9
$DIMCLRT
 70
     0
  9
$DIMTFAC
 40
1.0
  9
$DIMGAP
 40
0.625
  9
$DIMJUST
 70
     0
  9
$DIMSD1
 70
     0
  9
$DIMSD2
 70
     0
  9
$DIMTOLJ
 70
     0
  9
$DIMTZIN
 70
     8
  9
$DIMALTZ
 70
     0
  9
$DIMALTTZ
 70
     0
  9
$DIMUPT
 70
     0
  9
$DIMDEC
 70
     2
  9
$DIMTDEC
 70
     2
  9
$DIMALTU
 70
     2
  9
$DIMALTTD
 70
     3
  9
$DIMTXSTY
  7
Standard
  9
$DIMAUNIT
 70
     0
  9
$DIMADEC
 70
     0
  9
$DIMALTRND
 40
0.0
  9
$DIMAZIN
 70
     0
  9
$DIMDSEP
 70
    44
  9
$DIMATFIT
 70
     3
  9
$DIMFRAC
 70
     0
  9
$DIMLDRBLK
  1

  9
$DIMLUNIT
 70
     2
  9
$DIMLWD
 70
    -2
  9
$DIMLWE
 70
    -2
  9
$DIMTMOVE
 70
     0
  9
$LUNITS
 70
     2
  9
$LUPREC
 70
     4
  9
$SKETCHINC
 40
1.0
  9
$FILLETRAD
 40
0.0
  9
$AUNITS
 70
     0
  9
$AUPREC
 70
     0
  9
$MENU
  1
.
  9
$ELEVATION
 40
0.0
  9
$PELEVATION
 40
0.0
  9
$THICKNESS
 40
0.0
  9
$LIMCHECK
 70
     0
  9
$CHAMFERA
 40
0.0
  9
$CHAMFERB
 40
0.0
  9
$CHAMFERC
 40
0.0
  9
$CHAMFERD
 40
0.0
  9
$SKPOLY
 70
     0
  9
$TDCREATE
 40
2460286.622500000
  9
$TDUCREATE
 40
2460286.330833334
  9
$TDUPDATE
 40
2460286.638136574
  9
$TDUUPDATE
 40
2460286.346469908
  9
$TDINDWG
 40
0.0048263889
  9
$TDUSRTIMER
 40
0.0048263889
  9
$USRTIMER
 70
     1
  9
$ANGBASE
 50
0.0
  9
$ANGDIR
 70
     0
  9
$PDMODE
 70
     0
  9
$PDSIZE
 40
0.0
  9
$PLINEWID
 40
0.0
  9
$SPLFRAME
 70
     0
  9
$SPLINETYPE
 70
     6
  9
$SPLINESEGS
 70
     8
  9
$HANDSEED
  5
C478
  9
$SURFTAB1
 70
     6
  9
$SURFTAB2
 70
     6
  9
$SURFTYPE
 70
     6
  9
$SURFU
 70
     6
  9
$SURFV
 70
     6
  9
$UCSBASE
  2

  9
$UCSNAME
  2

  9
$UCSORG
 10
0.0
 20
0.0
 30
0.0
  9
$UCSXDIR
 10
1.0
 20
0.0
 30
0.0
  9
$UCSYDIR
 10
0.0
 20
1.0
 30
0.0
  9
$UCSORTHOREF
  2

  9
$UCSORTHOVIEW
 70
     0
  9
$UCSORGTOP
 10
0.0
 20
0.0
 30
0.0
  9
$UCSORGBOTTOM
 10
0.0
 20
0.0
 30
0.0
  9
$UCSORGLEFT
 10
0.0
 20
0.0
 30
0.0
  9
$UCSORGRIGHT
 10
0.0
 20
0.0
 30
0.0
  9
$UCSORGFRONT
 10
0.0
 20
0.0
 30
0.0
  9
$UCSORGBACK
 10
0.0
 20
0.0
 30
0.0
  9
$PUCSBASE
  2

  9
$PUCSNAME
  2

  9
$PUCSORG
 10
0.0
 20
0.0
 30
0.0
  9
$PUCSXDIR
 10
1.0
 20
0.0
 30
0.0
  9
$PUCSYDIR
 10
0.0
 20
1.0
 30
0.0
  9
$PUCSORTHOREF
  2

  9
$PUCSORTHOVIEW
 70
     0
  9
$PUCSORGTOP
 10
0.0
 20
0.0
 30
0.0
  9
$PUCSORGBOTTOM
 10
0.0
 20
0.0
 30
0.0
  9
$PUCSORGLEFT
 10
0.0
 20
0.0
 30
0.0
  9
$PUCSORGRIGHT
 10
0.0
 20
0.0
 30
0.0
  9
$PUCSORGFRONT
 10
0.0
 20
0.0
 30
0.0
  9
$PUCSORGBACK
 10
0.0
 20
0.0
 30
0.0
  9
$USERI1
 70
     0
  9
$USERI2
 70
     0
  9
$USERI3
 70
     0
  9
$USERI4
 70
     0
  9
$USERI5
 70
     0
  9
$USERR1
 40
0.0
  9
$USERR2
 40
0.0
  9
$USERR3
 40
0.0
  9
$USERR4
 40
0.0
  9
$USERR5
 40
0.0
  9
$WORLDVIEW
 70
     1
  9
$SHADEDGE
 70
     3
  9
$SHADEDIF
 70
    70
  9
$TILEMODE
 70
     1
  9
$MAXACTVP
 70
    48
  9
$PINSBASE
 10
0.0
 20
0.0
 30
0.0
  9
$PLIMCHECK
 70
     0
  9
$PEXTMIN
 10
0.0
 20
0.0
 30
0.0
  9
$PEXTMAX
 10
0.0
 20
0.0
 30
0.0
  9
$PLIMMIN
 10
0.0
 20
0.0
  9
$PLIMMAX
 10
12.0
 20
9.0
  9
$UNITMODE
 70
     0
  9
$VISRETAIN
 70
     1
  9
$PLINEGEN
 70
     0
  9
$PSLTSCALE
 70
     1
  9
$TREEDEPTH
 70
  3020
  9
$CMLSTYLE
  2
Standard
  9
$CMLJUST
 70
     0
  9
$CMLSCALE
 40
20.0
  9
$PROXYGRAPHICS
 70
     1
  9
$MEASUREMENT
 70
     1
  9
$CELWEIGHT
370
    -1
  9
$ENDCAPS
280
     0
  9
$JOINSTYLE
280
     0
  9
$LWDISPLAY
290
     0
  9
$INSUNITS
 70
     4
  9
$HYPERLINKBASE
  1

  9
$STYLESHEET
  1

  9
$XEDIT
290
     1
  9
$CEPSNTYPE
380
     0
  9
$PSTYLEMODE
290
     1
  9
$FINGERPRINTGUID
  2
{F076C30E-3F10-754B-AD36-B589FE558AAC}
  9
$VERSIONGUID
  2
{27B7A8B7-2842-5B43-B06D-3B654578C0D4}
  9
$EXTNAMES
290
     1
  9
$PSVPSCALE
 40
0.0
  9
$OLESTARTUP
290
     0
  0
ENDSEC
  0
SECTION
  2
CLASSES
  0
CLASS
  1
ACDBDICTIONARYWDFLT
  2
AcDbDictionaryWithDefault
  3
ObjectDBX Classes
 90
        0
280
     0
281
     0
  0
CLASS
  1
ACDBPLACEHOLDER
  2
AcDbPlaceHolder
  3
ObjectDBX Classes
 90
        0
280
     0
281
     0
  0
CLASS
  1
LAYOUT
  2
AcDbLayout
  3
ObjectDBX Classes
 90
        0
280
     0
281
     0
  0
CLASS
  1
DICTIONARYVAR
  2
AcDbDictionaryVar
  3
ObjectDBX Classes
 90
        0
280
     0
281
     0
  0
CLASS
  1
TABLESTYLE
  2
AcDbTableStyle
  3
ObjectDBX Classes
 90
     4095
280
     0
281
     0
  0
CLASS
  1
MATERIAL
  2
AcDbMaterial
  3
ObjectDBX Classes
 90
     1153
280
     0
281
     0
  0
CLASS
  1
VISUALSTYLE
  2
AcDbVisualStyle
  3
ObjectDBX Classes
 90
     4095
280
     0
281
     0
  0
CLASS
  1
SCALE
  2
AcDbScale
  3
ObjectDBX Classes
 90
     1153
280
     0
281
     0
  0
CLASS
  1
MLEADERSTYLE
  2
AcDbMLeaderStyle
  3
ACDB_MLEADERSTYLE_CLASS
 90
     4095
280
     0
281
     0
  0
CLASS
  1
CELLSTYLEMAP
  2
AcDbCellStyleMap
  3
ObjectDBX Classes
 90
     1152
280
     0
281
     0
  0
CLASS
  1
EXACXREFPANELOBJECT
  2
ExAcXREFPanelObject
  3
EXAC_ESW
 90
    33793
280
     0
281
     0
  0
CLASS
  1
NPOCOLLECTION
  2
AcDbImpNonPersistentObjectsCollection
  3
ObjectDBX Classes
 90
    33921
280
     0
281
     0
  0
CLASS
  1
LAYER_INDEX
  2
AcDbLayerIndex
  3
ObjectDBX Classes
 90
    32768
280
     0
281
     0
  0
CLASS
  1
SPATIAL_INDEX
  2
AcDbSpatialIndex
  3
ObjectDBX Classes
 90
    32768
280
     0
281
     0
  0
CLASS
  1
IDBUFFER
  2
AcDbIdBuffer
  3
ObjectDBX Classes
 90
    32768
280
     0
281
     0
  0
CLASS
  1
ACDBSECTIONVIEWSTYLE
  2
AcDbSectionViewStyle
  3
ObjectDBX Classes
 90
     1025
280
     0
281
     0
  0
CLASS
  1
ACDBDETAILVIEWSTYLE
  2
AcDbDetailViewStyle
  3
ObjectDBX Classes
 90
     1025
280
     0
281
     0
  0
CLASS
  1
XRECORD
  2
AcDbXrecord
  3
ObjectDBX Classes
 90
        0
280
     0
281
     0
  0
ENDSEC
  0
SECTION
  2
TABLES
  0
TABLE
  2
VPORT
  5
8
102
{ACAD_XDICTIONARY
360
C386
102
}
330
0
100
AcDbSymbolTable
 70
     1
  0
VPORT
  5
EA
330
8
100
AcDbSymbolTableRecord
100
AcDbViewportTableRecord
  2
*Active
 70
     0
 10
0.0
 20
0.0
 11
1.0
 21
1.0
 12
-0.9901420900017399
 22
-140.3381191515807
 13
0.0
 23
0.0
 14
10.0
 24
10.0
 15
10.0
 25
10.0
 16
0.0
 26
0.0
 36
1.0
 17
0.0
 27
0.0
 37
0.0
 40
841.8700300899457
 41
0.9846153846153846
 42
50.0
 43
0.0
 44
0.0
 50
0.0
 51
0.0
 71
     0
 72
  1000
 73
     1
 74
     3
 75
     0
 76
     1
 77
     0
 78
     0
281
     0
 65
     1
110
0.0
120
0.0
130
0.0
111
1.0
121
0.0
131
0.0
112
0.0
122
1.0
132
0.0
 79
     0
146
0.0
1001
ACAD_NAV_VCDISPLAY
1070
     3
  0
ENDTAB
  0
TABLE
  2
LTYPE
  5
5
330
0
100
AcDbSymbolTable
 70
     1
  0
LTYPE
  5
14
330
5
100
AcDbSymbolTableRecord
100
AcDbLinetypeTableRecord
  2
ByBlock
 70
     0
  3

 72
    65
 73
     0
 40
0.0
  0
LTYPE
  5
15
330
5
100
AcDbSymbolTableRecord
100
AcDbLinetypeTableRecord
  2
ByLayer
 70
     0
  3

 72
    65
 73
     0
 40
0.0
  0
LTYPE
  5
16
330
5
100
AcDbSymbolTableRecord
100
AcDbLinetypeTableRecord
  2
Continuous
 70
     0
  3
Solid line
 72
    65
 73
     0
 40
0.0
  0
ENDTAB
  0
TABLE
  2
LAYER
  5
2
102
{ACAD_XDICTIONARY
360
1FF
102
}
330
0
100
AcDbSymbolTable
 70
     1
  0
LAYER
  5
10
102
{ACAD_XDICTIONARY
360
13C
102
}
330
2
100
AcDbSymbolTableRecord
100
AcDbLayerTableRecord
  2
0
 70
     0
 62
     7
  6
Continuous
370
    -3
390
F
  0
ENDTAB
  0
TABLE
  2
STYLE
  5
3
330
0
100
AcDbSymbolTable
 70
     1
  0
STYLE
  5
11
330
3
100
AcDbSymbolTableRecord
100
AcDbTextStyleTableRecord
  2
Standard
 70
     0
 40
0.0
 41
1.0
 50
0.0
 71
     0
 42
2.5
  3
arial.ttf
  4

1001
ACAD
1000
Arial
1071
       34
  0
ENDTAB
  0
TABLE
  2
VIEW
  5
6
330
0
100
AcDbSymbolTable
 70
     0
  0
ENDTAB
  0
TABLE
  2
UCS
  5
7
330
0
100
AcDbSymbolTable
 70
     0
  0
ENDTAB
  0
TABLE
  2
APPID
  5
9
330
0
100
AcDbSymbolTable
 70
     8
  0
APPID
  5
12
330
9
100
AcDbSymbolTableRecord
100
AcDbRegAppTableRecord
  2
ACAD
 70
     0
  0
APPID
  5
9E
330
9
100
AcDbSymbolTableRecord
100
AcDbRegAppTableRecord
  2
ACAD_PSEXT
 70
     0
  0
APPID
  5
133
330
9
100
AcDbSymbolTableRecord
100
AcDbRegAppTableRecord
  2
AcadAnnoPO
 70
     0
  0
APPID
  5
134
330
9
100
AcDbSymbolTableRecord
100
AcDbRegAppTableRecord
  2
AcadAnnotative
 70
     0
  0
APPID
  5
135
330
9
100
AcDbSymbolTableRecord
100
AcDbRegAppTableRecord
  2
ACAD_DSTYLE_DIMJAG
 70
     0
  0
APPID
  5
136
330
9
100
AcDbSymbolTableRecord
100
AcDbRegAppTableRecord
  2
ACAD_DSTYLE_DIMTALN
 70
     0
  0
APPID
  5
165
330
9
100
AcDbSymbolTableRecord
100
AcDbRegAppTableRecord
  2
ACAD_MLEADERVER
 70
     0
  0
APPID
  5
217
330
9
100
AcDbSymbolTableRecord
100
AcDbRegAppTableRecord
  2
ACAD_NAV_VCDISPLAY
 70
     0
  0
ENDTAB
  0
TABLE
  2
DIMSTYLE
  5
A
330
0
100
AcDbSymbolTable
 70
     1
100
AcDbDimStyleTable
 71
     0
  0
DIMSTYLE
105
27
330
A
100
AcDbSymbolTableRecord
100
AcDbDimStyleTableRecord
  2
ISO-25
 70
     0
 41
2.5
 42
0.625
 43
3.75
 44
1.25
 73
     0
 74
     0
 77
     1
 78
     8
140
2.5
141
2.5
143
0.03937007874016
147
0.625
171
     3
172
     1
271
     2
272
     2
274
     3
278
    44
283
     0
284
     8
340
11
  0
ENDTAB
  0
TABLE
  2
BLOCK_RECORD
  5
1
330
0
100
AcDbSymbolTable
 70
     7
  0
BLOCK_RECORD
  5
1F
102
{ACAD_XDICTIONARY
360
1CE
102
}
330
1
100
AcDbSymbolTableRecord
100
AcDbBlockTableRecord
  2
*Model_Space
340
22
  0
BLOCK_RECORD
  5
D2
102
{ACAD_XDICTIONARY
360
C339
102
}
330
1
100
AcDbSymbolTableRecord
100
AcDbBlockTableRecord
  2
*Paper_Space
340
D3
  0
BLOCK_RECORD
  5
D6
102
{ACAD_XDICTIONARY
360
C33B
102
}
330
1
100
AcDbSymbolTableRecord
100
AcDbBlockTableRecord
  2
*Paper_Space0
340
D7
  0
BLOCK_RECORD
  5
C151
330
1
100
AcDbSymbolTableRecord
100
AcDbBlockTableRecord
  2
PBWS90-Front
340
0
102
{BLKREFS
331
C32F
102
}
  0
BLOCK_RECORD
  5
C190
330
1
100
AcDbSymbolTableRecord
100
AcDbBlockTableRecord
  2
PBWS90-Left
340
0
102
{BLKREFS
331
C330
102
}
  0
BLOCK_RECORD
  5
C1CA
330
1
100
AcDbSymbolTableRecord
100
AcDbBlockTableRecord
  2
PBWS90-Right
340
0
102
{BLKREFS
331
C331
102
}
  0
BLOCK_RECORD
  5
C204
330
1
100
AcDbSymbolTableRecord
100
AcDbBlockTableRecord
  2
PBWS90-Top
340
0
102
{BLKREFS
331
C332
102
}
  0
BLOCK_RECORD
  5
C245
330
1
100
AcDbSymbolTableRecord
100
AcDbBlockTableRecord
  2
PBWS90-Bottom
340
0
102
{BLKREFS
331
C333
102
}
  0
BLOCK_RECORD
  5
C270
330
1
100
AcDbSymbolTableRecord
100
AcDbBlockTableRecord
  2
PBWS90-ISO
340
0
102
{BLKREFS
331
C334
102
}
  0
ENDTAB
  0
ENDSEC
  0
SECTION
  2
BLOCKS
  0
BLOCK
  5
20
330
1F
100
AcDbEntity
  8
0
100
AcDbBlockBegin
  2
*Model_Space
 70
     0
 10
0.0
 20
0.0
 30
0.0
  3
*Model_Space
  1

  0
ENDBLK
  5
21
330
1F
100
AcDbEntity
  8
0
100
AcDbBlockEnd
  0
BLOCK
  5
D4
330
D2
100
AcDbEntity
 67
     1
  8
0
100
AcDbBlockBegin
  2
*Paper_Space
 70
     0
 10
0.0
 20
0.0
 30
0.0
  3
*Paper_Space
  1

  0
ENDBLK
  5
D5
330
D2
100
AcDbEntity
 67
     1
  8
0
100
AcDbBlockEnd
  0
BLOCK
  5
D8
330
D6
100
AcDbEntity
 67
     1
  8
0
100
AcDbBlockBegin
  2
*Paper_Space0
 70
     0
 10
0.0
 20
0.0
 30
0.0
  3
*Paper_Space0
  1

  0
ENDBLK
  5
D9
330
D6
100
AcDbEntity
 67
     1
  8
0
100
AcDbBlockEnd
  0
BLOCK
  5
C152
330
C151
100
AcDbEntity
  8
0
100
AcDbBlockBegin
  2
PBWS90-Front
 70
     0
 10
0.0
 20
0.0
 30
0.0
  3
PBWS90-Front
  1

  0
LINE
  5
C154
330
C151
100
AcDbEntity
  8
0
100
AcDbLine
 10
18.30651650629851
 20
0.0
 30
0.0
 11
18.30699894281665
 21
0.0
 31
0.0
  0
LINE
  5
C155
330
C151
100
AcDbEntity
  8
0
100
AcDbLine
 10
3.276516506298439
 20
-2.999999999999924
 30
0.0
 11
3.276516506298432
 21
-5.99999999999992
 31
0.0
  0
LINE
  5
C156
330
C151
100
AcDbEntity
  8
0
100
AcDbLine
 10
18.30699894281678
 20
-5.999999999999832
 30
0.0
 11
18.30699894281666
 21
0.0
 31
0.0
  0
LINE
  5
C157
330
C151
100
AcDbEntity
  8
0
100
AcDbLine
 10
-8.723483493701509
 20
-197.937
 30
0.0
 11
-8.723483493701566
 21
-49.99999999999992
 31
0.0
  0
LINE
  5
C158
330
C151
100
AcDbEntity
  8
0
100
AcDbLine
 10
3.276516506298538
 20
-197.9370000000001
 30
0.0
 11
-8.723483493701511
 21
-197.937
 31
0.0
  0
LINE
  5
C159
330
C151
100
AcDbEntity
  8
0
100
AcDbLine
 10
-3.541502978362069
 20
-61.43933982822012
 30
0.0
 11
1.408244489943768
 21
-66.38908729652597
 31
0.0
  0
ARC
  5
C15A
330
C151
100
AcDbEntity
  8
0
100
AcDbCircle
 10
0.347584318163961
 20
-67.44974746830577
 30
0.0
 40
1.499999999999995
100
AcDbArc
 50
225.0000000000004
 51
44.9999999999996
  0
LINE
  5
C15B
330
C151
100
AcDbEntity
  8
0
100
AcDbLine
 10
-0.7130758536158567
 20
-68.51040764008562
 30
0.0
 11
-5.662823321921712
 21
-63.56066017177977
 31
0.0
  0
ARC
  5
C15C
330
C151
100
AcDbEntity
  8
0
100
AcDbCircle
 10
-4.602163150141898
 20
-62.49999999999993
 30
0.0
 40
1.499999999999986
100
AcDbArc
 50
44.99999999999948
 51
225.0000000000003
  0
LINE
  5
C15D
330
C151
100
AcDbEntity
  8
0
100
AcDbLine
 10
-3.541502978362074
 20
-81.43933982822018
 30
0.0
 11
1.408244489943762
 21
-86.38908729652598
 31
0.0
  0
ARC
  5
C15E
330
C151
100
AcDbEntity
  8
0
100
AcDbCircle
 10
0.3475843181639732
 20
-87.44974746830578
 30
0.0
 40
1.499999999999995
100
AcDbArc
 50
224.9999999999989
 51
45.00000000000103
  0
LINE
  5
C15F
330
C151
100
AcDbEntity
  8
0
100
AcDbLine
 10
-0.7130758536158589
 20
-88.51040764008558
 30
0.0
 11
-5.662823321921704
 21
-83.5606601717798
 31
0.0
  0
ARC
  5
C160
330
C151
100
AcDbEntity
  8
0
100
AcDbCircle
 10
-4.60216315014189
 20
-82.49999999999998
 30
0.0
 40
1.499999999999986
100
AcDbArc
 50
44.99999999999942
 51
225.0000000000003
  0
LINE
  5
C161
330
C151
100
AcDbEntity
  8
0
100
AcDbLine
 10
-3.541502978362059
 20
-101.4393398282201
 30
0.0
 11
1.408244489943791
 21
-106.389087296526
 31
0.0
  0
ARC
  5
C162
330
C151
100
AcDbEntity
  8
0
100
AcDbCircle
 10
0.347584318163981
 20
-107.4497474683058
 30
0.0
 40
1.499999999999995
100
AcDbArc
 50
224.999999999999
 51
45.00000000000008
  0
LINE
  5
C163
330
C151
100
AcDbEntity
  8
0
100
AcDbLine
 10
-0.7130758536158606
 20
-108.5104076400856
 30
0.0
 11
-5.662823321921668
 21
-103.5606601717798
 31
0.0
  0
ARC
  5
C164
330
C151
100
AcDbEntity
  8
0
100
AcDbCircle
 10
-4.602163150141888
 20
-102.5
 30
0.0
 40
1.499999999999986
100
AcDbArc
 50
45.00000000000027
 51
225.0000000000003
  0
LINE
  5
C165
330
C151
100
AcDbEntity
  8
0
100
AcDbLine
 10
-3.541502978362052
 20
-121.4393398282202
 30
0.0
 11
1.408244489943791
 21
-126.389087296526
 31
0.0
  0
ARC
  5
C166
330
C151
100
AcDbEntity
  8
0
100
AcDbCircle
 10
0.3475843181639899
 20
-127.4497474683058
 30
0.0
 40
1.499999999999995
100
AcDbArc
 50
225.0000000000001
 51
45.00000000000015
  0
LINE
  5
C167
330
C151
100
AcDbEntity
  8
0
100
AcDbLine
 10
-0.7130758536158112
 20
-128.5104076400856
 30
0.0
 11
-5.662823321921677
 21
-123.5606601717798
 31
0.0
  0
ARC
  5
C168
330
C151
100
AcDbEntity
  8
0
100
AcDbCircle
 10
-4.60216315014186
 20
-122.5
 30
0.0
 40
1.499999999999986
100
AcDbArc
 50
45.00000000000055
 51
224.9999999999994
  0
LINE
  5
C169
330
C151
100
AcDbEntity
  8
0
100
AcDbLine
 10
-3.541502978362045
 20
-141.4393398282202
 30
0.0
 11
1.408244489943788
 21
-146.389087296526
 31
0.0
  0
ARC
  5
C16A
330
C151
100
AcDbEntity
  8
0
100
AcDbCircle
 10
0.3475843181640054
 20
-147.4497474683058
 30
0.0
 40
1.499999999999995
100
AcDbArc
 50
224.9999999999999
 51
45.00000000000008
  0
LINE
  5
C16B
330
C151
100
AcDbEntity
  8
0
100
AcDbLine
 10
-0.7130758536158406
 20
-148.5104076400856
 30
0.0
 11
-5.662823321921676
 21
-143.5606601717798
 31
0.0
  0
ARC
  5
C16C
330
C151
100
AcDbEntity
  8
0
100
AcDbCircle
 10
-4.602163150141858
 20
-142.5000000000001
 30
0.0
 40
1.499999999999986
100
AcDbArc
 50
45.00000000000142
 51
224.9999999999984
  0
LINE
  5
C16D
330
C151
100
AcDbEntity
  8
0
100
AcDbLine
 10
-3.541502978362032
 20
-161.4393398282202
 30
0.0
 11
1.408244489943821
 21
-166.389087296526
 31
0.0
  0
ARC
  5
C16E
330
C151
100
AcDbEntity
  8
0
100
AcDbCircle
 10
0.3475843181640188
 20
-167.4497474683059
 30
0.0
 40
1.499999999999995
100
AcDbArc
 50
225.0000000000005
 51
45.00000000000287
  0
LINE
  5
C16F
330
C151
100
AcDbEntity
  8
0
100
AcDbLine
 10
-0.713075853615809
 20
-168.5104076400857
 30
0.0
 11
-5.662823321921651
 21
-163.5606601717799
 31
0.0
  0
ARC
  5
C170
330
C151
100
AcDbEntity
  8
0
100
AcDbCircle
 10
-4.602163150141841
 20
-162.5
 30
0.0
 40
1.499999999999986
100
AcDbArc
 50
45.00000000000276
 51
224.9999999999993
  0
LINE
  5
C171
330
C151
100
AcDbEntity
  8
0
100
AcDbLine
 10
-3.541502978362002
 20
-181.4393398282202
 30
0.0
 11
1.4082444899438
 21
-186.389087296526
 31
0.0
  0
ARC
  5
C172
330
C151
100
AcDbEntity
  8
0
100
AcDbCircle
 10
0.3475843181640199
 20
-187.4497474683058
 30
0.0
 40
1.499999999999995
100
AcDbArc
 50
225.0000000000009
 51
45.00000000000095
  0
LINE
  5
C173
330
C151
100
AcDbEntity
  8
0
100
AcDbLine
 10
-0.7130758536158389
 20
-188.5104076400857
 30
0.0
 11
-5.662823321921654
 21
-183.5606601717798
 31
0.0
  0
ARC
  5
C174
330
C151
100
AcDbEntity
  8
0
100
AcDbCircle
 10
-4.602163150141839
 20
-182.5
 30
0.0
 40
1.499999999999986
100
AcDbArc
 50
44.99999999999913
 51
224.9999999999994
  0
LINE
  5
C175
330
C151
100
AcDbEntity
  8
0
100
AcDbLine
 10
-20.28148349370161
 20
-5.999999999999928
 30
0.0
 11
-8.723483493701566
 21
-49.99999999999993
 31
0.0
  0
LINE
  5
C176
330
C151
100
AcDbEntity
  8
0
100
AcDbLine
 10
-20.28148349370159
 20
-5.999999999999929
 30
0.0
 11
-20.28148349370159
 21
-2.99999999999995
 31
0.0
  0
LINE
  5
C177
330
C151
100
AcDbEntity
  8
0
100
AcDbLine
 10
9.276516506298509
 20
-40.37802623350088
 30
0.0
 11
18.30699894281676
 21
-5.999999999999827
 31
0.0
  0
ARC
  5
C178
330
C151
100
AcDbEntity
  8
0
100
AcDbCircle
 10
0.5569989428159618
 20
56.50000000000028
 30
0.0
 40
2.500000000000004
100
AcDbArc
 50
128.148114212189
 51
231.85188578782
  0
CIRCLE
  5
C179
330
C151
100
AcDbEntity
  8
0
100
AcDbCircle
 10
-2.531483493701522
 20
56.50000000000005
 30
0.0
 40
2.5
  0
CIRCLE
  5
C17A
330
C151
100
AcDbEntity
  8
0
100
AcDbCircle
 10
-12.28148349370152
 20
44.00000000000005
 30
0.0
 40
2.5
  0
CIRCLE
  5
C17B
330
C151
100
AcDbEntity
  8
0
100
AcDbCircle
 10
9.306516506298578
 20
68.00000000000008
 30
0.0
 40
4.250000000000003
  0
LINE
  5
C17C
330
C151
100
AcDbEntity
  8
0
100
AcDbLine
 10
18.30651650629851
 20
-2.999999999999958
 30
0.0
 11
-20.28148349370152
 21
-2.999999999999952
 31
0.0
  0
LINE
  5
C17D
330
C151
100
AcDbEntity
  8
0
100
AcDbLine
 10
18.306998942816
 20
3.000000000000047
 30
0.0
 11
18.30699894281606
 21
0.0
 31
0.0
  0
LINE
  5
C17E
330
C151
100
AcDbEntity
  8
0
100
AcDbLine
 10
-20.28148349370149
 20
2.999999999999957
 30
0.0
 11
-20.2814834937015
 21
-3.000000000000013
 31
0.0
  0
LINE
  5
C17F
330
C151
100
AcDbEntity
  8
0
100
AcDbLine
 10
18.30651650629853
 20
-2.999999999999988
 30
0.0
 11
18.30651650629853
 21
3.000000000000037
 31
0.0
  0
LINE
  5
C180
330
C151
100
AcDbEntity
  8
0
100
AcDbLine
 10
13.306998942816
 20
77.00000000000031
 30
0.0
 11
18.30699894281608
 21
72.00000000000034
 31
0.0
  0
LINE
  5
C181
330
C151
100
AcDbEntity
  8
0
100
AcDbLine
 10
13.30651650629851
 20
77.00000000000016
 30
0.0
 11
18.3065165062983
 21
72.00000000000013
 31
0.0
  0
LINE
  5
C182
330
C151
100
AcDbEntity
  8
0
100
AcDbLine
 10
-20.28148349370153
 20
72.00000000000009
 30
0.0
 11
-15.28148349370154
 21
77.00000000000009
 31
0.0
  0
LINE
  5
C183
330
C151
100
AcDbEntity
  8
0
100
AcDbLine
 10
18.30699894281608
 20
72.00000000000034
 30
0.0
 11
18.306998942816
 21
3.000000000000042
 31
0.0
  0
LINE
  5
C184
330
C151
100
AcDbEntity
  8
0
100
AcDbLine
 10
13.306998942816
 20
77.00000000000031
 30
0.0
 11
13.30651650629848
 21
77.00000000000031
 31
0.0
  0
LINE
  5
C185
330
C151
100
AcDbEntity
  8
0
100
AcDbLine
 10
-15.28148349370154
 20
77.00000000000009
 30
0.0
 11
13.30651650629851
 21
77.00000000000016
 31
0.0
  0
LINE
  5
C186
330
C151
100
AcDbEntity
  8
0
100
AcDbLine
 10
-20.2814834937015
 20
2.999999999999957
 30
0.0
 11
-20.28148349370153
 21
72.00000000000009
 31
0.0
  0
LINE
  5
C187
330
C151
100
AcDbEntity
  8
0
100
AcDbLine
 10
18.3065165062983
 20
72.00000000000013
 30
0.0
 11
18.30651650629853
 21
3.000000000000042
 31
0.0
  0
SPLINE
  5
C188
330
C151
100
AcDbEntity
  8
0
100
AcDbSpline
210
0.0
220
0.0
230
1.0
 70
     8
 71
     3
 72
     8
 73
     4
 74
     0
 42
0.000000001
 43
0.0000000001
 40
-0.7853981633974483
 40
-0.7853981633974483
 40
-0.7853981633974483
 40
-0.7853981633974483
 40
0.4300566693912247
 40
0.4300566693912247
 40
0.4300566693912247
 40
0.4300566693912247
 10
5.321844428310395
 20
-5.999999999999693
 30
0.0
 10
5.321844428310395
 20
-6.60772741639403
 30
0.0
 10
5.102816812626903
 20
-7.194170623525196
 30
0.0
 10
4.729484267181228
 20
-7.406279775322119
 30
0.0
  0
SPLINE
  5
C189
330
C151
100
AcDbEntity
  8
0
100
AcDbSpline
210
0.0
220
0.0
230
1.0
 70
     8
 71
     3
 72
    14
 73
    10
 74
     0
 42
0.000000001
 43
0.0000000001
 40
-0.7853981633973792
 40
-0.7853981633973792
 40
-0.7853981633973792
 40
-0.7853981633973792
 40
0.3160919271552687
 40
0.3160919271552687
 40
0.3160919271552687
 40
1.29976473377554
 40
1.29976473377554
 40
1.29976473377554
 40
2.356194490192194
 40
2.356194490192194
 40
2.356194490192194
 40
2.356194490192194
 10
3.276516506298003
 20
-5.999999999999764
 30
0.0
 10
3.276516506298062
 20
-6.550745045276089
 30
0.0
 10
3.779084263782237
 20
-7.088739243413973
 30
0.0
 10
4.50056867014626
 20
-7.337823404552387
 30
0.0
 10
5.144881857371377
 20
-7.560265093291271
 30
0.0
 10
5.917324802815072
 20
-7.547882186586224
 30
0.0
 10
6.461771453089498
 20
-7.305906800767622
 30
0.0
 10
7.046487873285624
 20
-7.046033806232506
 30
0.0
 10
7.367172350322126
 20
-6.528214878208235
 30
0.0
 10
7.367172350322215
 20
-5.999999999999906
 30
0.0
  0
LINE
  5
C18A
330
C151
100
AcDbEntity
  8
0
100
AcDbLine
 10
7.367172350322555
 20
-5.999999999999693
 30
0.0
 11
7.367172350322554
 21
-2.999999999999964
 31
0.0
  0
LINE
  5
C18B
330
C151
100
AcDbEntity
  8
0
100
AcDbLine
 10
5.321844428310507
 20
-5.999999999999693
 30
0.0
 11
5.321844428310505
 21
-2.999999999999964
 31
0.0
  0
LINE
  5
C18C
330
C151
100
AcDbEntity
  8
0
100
AcDbLine
 10
-8.723483493701513
 20
-197.9370000000001
 30
0.0
 11
-11.25100105718312
 21
-197.9370000000001
 31
0.0
  0
LINE
  5
C18D
330
C151
100
AcDbEntity
  8
0
100
AcDbLine
 10
9.276516506298534
 20
-197.9370000000002
 30
0.0
 11
3.276516506298539
 21
-197.9370000000002
 31
0.0
  0
LINE
  5
C18E
330
C151
100
AcDbEntity
  8
0
100
AcDbLine
 10
-11.25100105718312
 20
-197.9370000000001
 30
0.0
 11
-11.25100105718321
 21
-40.37802623350124
 31
0.0
  0
LINE
  5
C18F
330
C151
100
AcDbEntity
  8
0
100
AcDbLine
 10
9.276516506298595
 20
-197.9370000000003
 30
0.0
 11
9.276516506298509
 21
-2.999999999999971
 31
0.0
  0
ENDBLK
  5
C153
330
C151
100
AcDbEntity
  8
0
100
AcDbBlockEnd
  0
BLOCK
  5
C191
330
C190
100
AcDbEntity
  8
0
100
AcDbBlockBegin
  2
PBWS90-Left
 70
     0
 10
0.0
 20
0.0
 30
0.0
  3
PBWS90-Left
  1

  0
ARC
  5
C193
330
C190
100
AcDbEntity
  8
0
100
AcDbCircle
 10
-9.536272079978804
 20
-5.999999999999831
 30
0.0
 40
3.000000000000013
100
AcDbArc
 50
0.0
 51
89.99999999999992
  0
ARC
  5
C194
330
C190
100
AcDbEntity
  8
0
100
AcDbCircle
 10
-9.536272079978804
 20
-5.999999999999831
 30
0.0
 40
6.000000000000014
100
AcDbArc
 50
39.78608288672496
 51
89.99999999999998
  0
LINE
  5
C195
330
C190
100
AcDbEntity
  8
0
100
AcDbLine
 10
-6.536272079978811
 20
-5.999999999999841
 30
0.0
 11
-6.53627207997884
 21
-197.9370000000001
 31
0.0
  0
LINE
  5
C196
330
C190
100
AcDbEntity
  8
0
100
AcDbLine
 10
-17.25427207997852
 20
0.0
 30
0.0
 11
-41.01299894247855
 21
0.0
 31
0.0
  0
LINE
  5
C197
330
C190
100
AcDbEntity
  8
0
100
AcDbLine
 10
-41.01299894247855
 20
-2.999999999999837
 30
0.0
 11
-17.25427207997852
 21
-2.999999999999804
 31
0.0
  0
LINE
  5
C198
330
C190
100
AcDbEntity
  8
0
100
AcDbLine
 10
-12.25427207997861
 20
0.0
 30
0.0
 11
-17.25427207997852
 21
0.0
 31
0.0
  0
LINE
  5
C199
330
C190
100
AcDbEntity
  8
0
100
AcDbLine
 10
-17.25427207997852
 20
0.0
 30
0.0
 11
-17.25427207997852
 21
-2.999999999999804
 31
0.0
  0
LINE
  5
C19A
330
C190
100
AcDbEntity
  8
0
100
AcDbLine
 10
-17.25427207997852
 20
-2.999999999999804
 30
0.0
 11
-12.25427207997861
 21
-2.999999999999794
 31
0.0
  0
LINE
  5
C19B
330
C190
100
AcDbEntity
  8
0
100
AcDbLine
 10
-12.25427207997861
 20
-2.999999999999794
 30
0.0
 11
-12.25427207997861
 21
0.0
 31
0.0
  0
LINE
  5
C19C
330
C190
100
AcDbEntity
  8
0
100
AcDbLine
 10
-10.7542720799788
 20
0.0
 30
0.0
 11
-12.25427207997876
 21
0.0
 31
0.0
  0
LINE
  5
C19D
330
C190
100
AcDbEntity
  8
0
100
AcDbLine
 10
-12.25427207997876
 20
-2.999999999999796
 30
0.0
 11
-10.75427207997879
 21
-2.999999999999794
 31
0.0
  0
LINE
  5
C19E
330
C190
100
AcDbEntity
  8
0
100
AcDbLine
 10
-9.536272079978804
 20
0.0
 30
0.0
 11
-10.7542720799788
 21
0.0
 31
0.0
  0
LINE
  5
C19F
330
C190
100
AcDbEntity
  8
0
100
AcDbLine
 10
-10.75427207997879
 20
-2.999999999999816
 30
0.0
 11
-9.5362720799788
 21
-2.999999999999811
 31
0.0
  0
LINE
  5
C1A0
330
C190
100
AcDbEntity
  8
0
100
AcDbLine
 10
42.98700105732374
 20
0.0
 30
0.0
 11
11.51027419482368
 21
0.0
 31
0.0
  0
ARC
  5
C1A1
330
C190
100
AcDbEntity
  8
0
100
AcDbCircle
 10
11.5102741948237
 20
-5.999999999999938
 30
0.0
 40
5.999999999999991
100
AcDbArc
 50
90.00000000000019
 51
180.0
  0
ARC
  5
C1A2
330
C190
100
AcDbEntity
  8
0
100
AcDbCircle
 10
11.5102741948237
 20
-5.999999999999938
 30
0.0
 40
2.999999999999988
100
AcDbArc
 50
90.00000000000033
 51
180.0
  0
LINE
  5
C1A3
330
C190
100
AcDbEntity
  8
0
100
AcDbLine
 10
11.51027419482368
 20
-2.999999999999954
 30
0.0
 11
42.98700105732375
 21
-2.999999999999952
 31
0.0
  0
LINE
  5
C1A4
330
C190
100
AcDbEntity
  8
0
100
AcDbLine
 10
8.510274194823644
 20
-197.937
 30
0.0
 11
8.510274194823844
 21
-49.99999999999992
 31
0.0
  0
LINE
  5
C1A5
330
C190
100
AcDbEntity
  8
0
100
AcDbLine
 10
5.510274194823829
 20
-49.99999999999992
 30
0.0
 11
5.51027419482363
 21
-197.937
 31
0.0
  0
LINE
  5
C1A6
330
C190
100
AcDbEntity
  8
0
100
AcDbLine
 10
5.51027419482363
 20
-197.937
 30
0.0
 11
8.510274194823644
 21
-197.937
 31
0.0
  0
LINE
  5
C1A7
330
C190
100
AcDbEntity
  8
0
100
AcDbLine
 10
8.510274194823676
 20
-5.999999999999928
 30
0.0
 11
8.510274194823844
 21
-49.99999999999993
 31
0.0
  0
LINE
  5
C1A8
330
C190
100
AcDbEntity
  8
0
100
AcDbLine
 10
5.510274194823829
 20
-49.99999999999992
 30
0.0
 11
5.510274194823658
 21
-5.999999999999916
 31
0.0
  0
LINE
  5
C1A9
330
C190
100
AcDbEntity
  8
0
100
AcDbLine
 10
5.510274194823658
 20
-5.99999999999992
 30
0.0
 11
8.510274194823676
 21
-5.999999999999928
 31
0.0
  0
LINE
  5
C1AA
330
C190
100
AcDbEntity
  8
0
100
AcDbLine
 10
8.510274194823844
 20
-49.99999999999993
 30
0.0
 11
5.510274194823829
 21
-49.99999999999992
 31
0.0
  0
LINE
  5
C1AB
330
C190
100
AcDbEntity
  8
0
100
AcDbLine
 10
5.463727920021215
 20
0.0
 30
0.0
 11
6.899640295498277
 21
0.0
 31
0.0
  0
LINE
  5
C1AC
330
C190
100
AcDbEntity
  8
0
100
AcDbLine
 10
-4.92563818065344
 20
-5.999999999999866
 30
0.0
 11
-4.92563818065344
 21
0.0
 31
0.0
  0
LINE
  5
C1AD
330
C190
100
AcDbEntity
  8
0
100
AcDbLine
 10
6.899640295498265
 20
-2.160461610246418
 30
0.0
 11
6.899640295498277
 21
0.0
 31
0.0
  0
LINE
  5
C1AE
330
C190
100
AcDbEntity
  8
0
100
AcDbLine
 10
5.463727920021216
 20
0.0
 30
0.0
 11
-4.925638180653441
 21
0.0
 31
0.0
  0
LINE
  5
C1AF
330
C190
100
AcDbEntity
  8
0
100
AcDbLine
 10
-44.0129989424785
 20
72.0000000000003
 30
0.0
 11
-44.01299894247856
 21
77.00000000000033
 31
0.0
  0
LINE
  5
C1B0
330
C190
100
AcDbEntity
  8
0
100
AcDbLine
 10
48.98700105732395
 20
77.00000000000009
 30
0.0
 11
45.98700105732393
 21
77.00000000000009
 31
0.0
  0
LINE
  5
C1B1
330
C190
100
AcDbEntity
  8
0
100
AcDbLine
 10
45.98700105732393
 20
77.00000000000009
 30
0.0
 11
45.98700105732407
 21
72.00000000000009
 31
0.0
  0
LINE
  5
C1B2
330
C190
100
AcDbEntity
  8
0
100
AcDbLine
 10
48.98700105732395
 20
72.00000000000009
 30
0.0
 11
48.98700105732395
 21
77.00000000000009
 31
0.0
  0
LINE
  5
C1B3
330
C190
100
AcDbEntity
  8
0
100
AcDbLine
 10
45.98700105732407
 20
72.00000000000009
 30
0.0
 11
48.98700105732395
 21
72.00000000000009
 31
0.0
  0
LINE
  5
C1B4
330
C190
100
AcDbEntity
  8
0
100
AcDbLine
 10
-47.01299894247855
 20
77.00000000000033
 30
0.0
 11
-47.01299894247853
 21
72.00000000000033
 31
0.0
  0
LINE
  5
C1B5
330
C190
100
AcDbEntity
  8
0
100
AcDbLine
 10
-47.01299894247853
 20
72.00000000000033
 30
0.0
 11
-44.0129989424785
 21
72.0000000000003
 31
0.0
  0
LINE
  5
C1B6
330
C190
100
AcDbEntity
  8
0
100
AcDbLine
 10
-44.01299894247856
 20
77.00000000000033
 30
0.0
 11
-47.01299894247855
 21
77.00000000000033
 31
0.0
  0
LINE
  5
C1B7
330
C190
100
AcDbEntity
  8
0
100
AcDbLine
 10
-44.0129989424785
 20
72.0000000000003
 30
0.0
 11
-44.01299894247859
 21
3.000000000000033
 31
0.0
  0
LINE
  5
C1B8
330
C190
100
AcDbEntity
  8
0
100
AcDbLine
 10
45.98700105732407
 20
72.00000000000009
 30
0.0
 11
45.9870010573239
 21
2.999999999999936
 31
0.0
  0
LINE
  5
C1B9
330
C190
100
AcDbEntity
  8
0
100
AcDbLine
 10
48.98700105732389
 20
2.999999999999957
 30
0.0
 11
48.98700105732395
 21
72.00000000000009
 31
0.0
  0
LINE
  5
C1BA
330
C190
100
AcDbEntity
  8
0
100
AcDbLine
 10
-47.01299894247853
 20
72.00000000000033
 30
0.0
 11
-47.0129989424786
 21
3.000000000000051
 31
0.0
  0
ARC
  5
C1BB
330
C190
100
AcDbEntity
  8
0
100
AcDbCircle
 10
-41.01299894247862
 20
3.00000000000004
 30
0.0
 40
5.999999999999991
100
AcDbArc
 50
180.0
 51
270.0000000000006
  0
ARC
  5
C1BC
330
C190
100
AcDbEntity
  8
0
100
AcDbCircle
 10
-41.01299894247862
 20
3.00000000000004
 30
0.0
 40
2.999999999999989
100
AcDbArc
 50
180.0
 51
270.0000000000013
  0
ARC
  5
C1BD
330
C190
100
AcDbEntity
  8
0
100
AcDbCircle
 10
42.98700105732395
 20
2.999999999999947
 30
0.0
 40
5.99999999999996
100
AcDbArc
 50
269.999999999998
 51
0.0
  0
ARC
  5
C1BE
330
C190
100
AcDbEntity
  8
0
100
AcDbCircle
 10
42.98700105732395
 20
2.999999999999947
 30
0.0
 40
2.999999999999939
100
AcDbArc
 50
269.9999999999957
 51
0.0
  0
SPLINE
  5
C1BF
330
C190
100
AcDbEntity
  8
0
100
AcDbSpline
210
0.0
220
0.0
230
1.0
 70
     8
 71
     3
 72
    11
 73
     7
 74
     0
 42
0.000000001
 43
0.0000000001
 40
1.343715047942798
 40
1.343715047942798
 40
1.343715047942798
 40
1.343715047942798
 40
1.56916514439576
 40
1.56916514439576
 40
1.56916514439576
 40
2.356194490192133
 40
2.356194490192133
 40
2.356194490192133
 40
2.356194490192133
 10
5.461260584833613
 20
-7.269812748612362
 30
0.0
 10
5.475114289613181
 20
-7.211311675663221
 30
0.0
 10
5.485452431583186
 20
-7.141967410822437
 30
0.0
 10
5.492045067768392
 20
-7.062388890137292
 30
0.0
 10
5.515059465302698
 20
-6.784586254167513
 30
0.0
 10
5.510274194823657
 20
-6.393514672898201
 30
0.0
 10
5.510274194823658
 20
-6.000000000000014
 30
0.0
  0
SPLINE
  5
C1C0
330
C190
100
AcDbEntity
  8
0
100
AcDbSpline
210
0.0
220
0.0
230
1.0
 70
     8
 71
     3
 72
    14
 73
    10
 74
     0
 42
0.000000001
 43
0.0000000001
 40
-0.7853981633974377
 40
-0.7853981633974377
 40
-0.7853981633974377
 40
-0.7853981633974377
 40
0.3160919271552164
 40
0.3160919271552164
 40
0.3160919271552164
 40
1.29976473377549
 40
1.29976473377549
 40
1.29976473377549
 40
2.3561944901923
 40
2.3561944901923
 40
2.3561944901923
 40
2.3561944901923
 10
-6.536272079978829
 20
-5.999999999999863
 30
0.0
 10
-6.536272079978829
 20
-6.550745045276191
 30
0.0
 10
-6.560437653343999
 20
-7.088739243414084
 30
0.0
 10
-6.410086539099786
 20
-7.337823404552522
 30
0.0
 10
-6.275817239906288
 20
-7.56026509329143
 30
0.0
 10
-5.962032630250283
 20
-7.547882186586411
 30
0.0
 10
-5.620969801961993
 20
-7.305906800767829
 30
0.0
 10
-5.254680403509079
 20
-7.046033806232698
 30
0.0
 10
-4.925638180653418
 20
-6.528214878208307
 30
0.0
 10
-4.925638180653399
 20
-5.999999999999902
 30
0.0
  0
LINE
  5
C1C1
330
C190
100
AcDbEntity
  8
0
100
AcDbLine
 10
5.463727920021187
 20
-197.9370000000001
 30
0.0
 11
-6.536272079978845
 21
-197.9370000000001
 31
0.0
  0
LINE
  5
C1C2
330
C190
100
AcDbEntity
  8
0
100
AcDbLine
 10
5.463727920021184
 20
-197.9370000000003
 30
0.0
 11
5.51027419482363
 21
-197.9370000000003
 31
0.0
  0
ARC
  5
C1C3
330
C190
100
AcDbEntity
  8
0
100
AcDbCircle
 10
-12.24337886116555
 20
-3.999999999999805
 30
0.0
 40
1.0
100
AcDbArc
 50
45.0000000000001
 51
89.99999999999987
  0
ARC
  5
C1C4
330
C190
100
AcDbEntity
  8
0
100
AcDbCircle
 10
-7.536272079979037
 20
-8.707106781186331
 30
0.0
 40
1.0
100
AcDbArc
 50
0.0
 51
45.00000000000003
  0
ARC
  5
C1C5
330
C190
100
AcDbEntity
  8
0
100
AcDbCircle
 10
14.21738097601026
 20
-3.999999999999942
 30
0.0
 40
1.0
100
AcDbArc
 50
90.00000000000012
 51
134.9999999999999
  0
ARC
  5
C1C6
330
C190
100
AcDbEntity
  8
0
100
AcDbCircle
 10
9.510274194823578
 20
-8.707106781186627
 30
0.0
 40
1.0
100
AcDbArc
 50
134.9999999999999
 51
180.0
  0
LINE
  5
C1C7
330
C190
100
AcDbEntity
  8
0
100
AcDbLine
 10
-6.829165298792487
 20
-7.999999999999775
 30
0.0
 11
-11.536272079979
 21
-3.292893218813253
 31
0.0
  0
LINE
  5
C1C8
330
C190
100
AcDbEntity
  8
0
100
AcDbLine
 10
8.80316741363703
 20
-8.000000000000081
 30
0.0
 11
13.51027419482371
 21
-3.292893218813393
 31
0.0
  0
LINE
  5
C1C9
330
C190
100
AcDbEntity
  8
0
100
AcDbLine
 10
5.463727920021187
 20
-197.9370000000001
 30
0.0
 11
5.463727920021224
 21
0.0
 31
0.0
  0
ENDBLK
  5
C192
330
C190
100
AcDbEntity
  8
0
100
AcDbBlockEnd
  0
BLOCK
  5
C1CB
330
C1CA
100
AcDbEntity
  8
0
100
AcDbBlockBegin
  2
PBWS90-Right
 70
     0
 10
0.0
 20
0.0
 30
0.0
  3
PBWS90-Right
  1

  0
LINE
  5
C1CD
330
C1CA
100
AcDbEntity
  8
0
100
AcDbLine
 10
6.536272079979071
 20
-197.9370000000001
 30
0.0
 11
6.536272079979513
 21
-49.99999999999992
 31
0.0
  0
LINE
  5
C1CE
330
C1CA
100
AcDbEntity
  8
0
100
AcDbLine
 10
3.536272079978879
 20
-49.99999999999992
 30
0.0
 11
3.53627207997908
 21
-197.9370000000001
 31
0.0
  0
LINE
  5
C1CF
330
C1CA
100
AcDbEntity
  8
0
100
AcDbLine
 10
3.53627207997908
 20
-197.9370000000001
 30
0.0
 11
6.536272079979071
 21
-197.9370000000001
 31
0.0
  0
LINE
  5
C1D0
330
C1CA
100
AcDbEntity
  8
0
100
AcDbLine
 10
6.53627207997926
 20
-5.999999999999828
 30
0.0
 11
6.536272079979513
 21
-49.99999999999992
 31
0.0
  0
LINE
  5
C1D1
330
C1CA
100
AcDbEntity
  8
0
100
AcDbLine
 10
3.536272079978879
 20
-49.99999999999992
 30
0.0
 11
3.536272079979237
 21
-5.999999999999836
 31
0.0
  0
LINE
  5
C1D2
330
C1CA
100
AcDbEntity
  8
0
100
AcDbLine
 10
3.536272079979237
 20
-5.999999999999829
 30
0.0
 11
6.53627207997926
 21
-5.999999999999828
 31
0.0
  0
LINE
  5
C1D3
330
C1CA
100
AcDbEntity
  8
0
100
AcDbLine
 10
6.536272079979513
 20
-49.99999999999992
 30
0.0
 11
3.536272079978879
 21
-49.99999999999992
 31
0.0
  0
LINE
  5
C1D4
330
C1CA
100
AcDbEntity
  8
0
100
AcDbLine
 10
41.0129989424793
 20
0.0
 30
0.0
 11
9.536272079979251
 21
0.0
 31
0.0
  0
ARC
  5
C1D5
330
C1CA
100
AcDbEntity
  8
0
100
AcDbCircle
 10
9.536272079979241
 20
-5.999999999999818
 30
0.0
 40
6.000000000000021
100
AcDbArc
 50
89.99999999999992
 51
180.0
  0
ARC
  5
C1D6
330
C1CA
100
AcDbEntity
  8
0
100
AcDbCircle
 10
9.536272079979241
 20
-5.999999999999818
 30
0.0
 40
3.000000000000014
100
AcDbArc
 50
89.99999999999969
 51
180.0
  0
LINE
  5
C1D7
330
C1CA
100
AcDbEntity
  8
0
100
AcDbLine
 10
9.536272079979257
 20
-2.999999999999807
 30
0.0
 11
41.01299894247929
 21
-2.999999999999809
 31
0.0
  0
ARC
  5
C1D8
330
C1CA
100
AcDbEntity
  8
0
100
AcDbCircle
 10
-11.51027419482362
 20
-5.999999999999927
 30
0.0
 40
6.000000000000017
100
AcDbArc
 50
39.78608288672517
 51
89.99999999999996
  0
ARC
  5
C1D9
330
C1CA
100
AcDbEntity
  8
0
100
AcDbCircle
 10
-11.51027419482363
 20
-5.999999999999936
 30
0.0
 40
3.000000000000013
100
AcDbArc
 50
0.0
 51
89.9999999999998
  0
LINE
  5
C1DA
330
C1CA
100
AcDbEntity
  8
0
100
AcDbLine
 10
-19.22827419482357
 20
0.0
 30
0.0
 11
-42.98700105732366
 21
0.0
 31
0.0
  0
LINE
  5
C1DB
330
C1CA
100
AcDbEntity
  8
0
100
AcDbLine
 10
-42.98700105732364
 20
-2.999999999999957
 30
0.0
 11
-19.22827419482358
 21
-2.999999999999911
 31
0.0
  0
LINE
  5
C1DC
330
C1CA
100
AcDbEntity
  8
0
100
AcDbLine
 10
-14.22827419482359
 20
0.0
 30
0.0
 11
-19.22827419482357
 21
0.0
 31
0.0
  0
LINE
  5
C1DD
330
C1CA
100
AcDbEntity
  8
0
100
AcDbLine
 10
-19.22827419482357
 20
0.0
 30
0.0
 11
-19.22827419482357
 21
-2.999999999999911
 31
0.0
  0
LINE
  5
C1DE
330
C1CA
100
AcDbEntity
  8
0
100
AcDbLine
 10
-19.22827419482357
 20
-2.999999999999911
 30
0.0
 11
-14.22827419482359
 21
-2.9999999999999
 31
0.0
  0
LINE
  5
C1DF
330
C1CA
100
AcDbEntity
  8
0
100
AcDbLine
 10
-14.22827419482359
 20
-2.9999999999999
 30
0.0
 11
-14.22827419482359
 21
0.0
 31
0.0
  0
LINE
  5
C1E0
330
C1CA
100
AcDbEntity
  8
0
100
AcDbLine
 10
-12.72827419482361
 20
0.0
 30
0.0
 11
-14.22827419482362
 21
0.0
 31
0.0
  0
LINE
  5
C1E1
330
C1CA
100
AcDbEntity
  8
0
100
AcDbLine
 10
-14.22827419482362
 20
-2.999999999999911
 30
0.0
 11
-12.72827419482361
 21
-2.999999999999913
 31
0.0
  0
LINE
  5
C1E2
330
C1CA
100
AcDbEntity
  8
0
100
AcDbLine
 10
-11.51027419482362
 20
0.0
 30
0.0
 11
-12.72827419482361
 21
0.0
 31
0.0
  0
LINE
  5
C1E3
330
C1CA
100
AcDbEntity
  8
0
100
AcDbLine
 10
-12.72827419482361
 20
-2.999999999999915
 30
0.0
 11
-11.51027419482362
 21
-2.999999999999927
 31
0.0
  0
LINE
  5
C1E4
330
C1CA
100
AcDbEntity
  8
0
100
AcDbLine
 10
-8.510274194823622
 20
-197.9370000000001
 30
0.0
 11
-8.51027419482361
 21
-5.999999999999907
 31
0.0
  0
LINE
  5
C1E5
330
C1CA
100
AcDbEntity
  8
0
100
AcDbLine
 10
3.489725805176451
 20
0.0
 30
0.0
 11
-6.899640295498268
 21
0.0
 31
0.0
  0
LINE
  5
C1E6
330
C1CA
100
AcDbEntity
  8
0
100
AcDbLine
 10
4.925638180653439
 20
-2.160461610246709
 30
0.0
 11
4.92563818065344
 21
0.0
 31
0.0
  0
LINE
  5
C1E7
330
C1CA
100
AcDbEntity
  8
0
100
AcDbLine
 10
3.489725805176469
 20
0.0
 30
0.0
 11
4.92563818065344
 21
0.0
 31
0.0
  0
LINE
  5
C1E8
330
C1CA
100
AcDbEntity
  8
0
100
AcDbLine
 10
-6.899640295498265
 20
-5.999999999999693
 30
0.0
 11
-6.899640295498277
 21
0.0
 31
0.0
  0
LINE
  5
C1E9
330
C1CA
100
AcDbEntity
  8
0
100
AcDbLine
 10
47.01299894247916
 20
72.00000000000034
 30
0.0
 11
47.01299894247906
 21
77.00000000000028
 31
0.0
  0
LINE
  5
C1EA
330
C1CA
100
AcDbEntity
  8
0
100
AcDbLine
 10
47.01299894247906
 20
77.00000000000028
 30
0.0
 11
44.01299894247906
 21
77.00000000000031
 31
0.0
  0
LINE
  5
C1EB
330
C1CA
100
AcDbEntity
  8
0
100
AcDbLine
 10
44.01299894247906
 20
77.00000000000031
 30
0.0
 11
44.01299894247916
 21
72.00000000000034
 31
0.0
  0
LINE
  5
C1EC
330
C1CA
100
AcDbEntity
  8
0
100
AcDbLine
 10
44.01299894247916
 20
72.00000000000034
 30
0.0
 11
47.01299894247916
 21
72.00000000000034
 31
0.0
  0
LINE
  5
C1ED
330
C1CA
100
AcDbEntity
  8
0
100
AcDbLine
 10
-48.98700105732388
 20
77.00000000000016
 30
0.0
 11
-48.98700105732387
 21
72.00000000000013
 31
0.0
  0
LINE
  5
C1EE
330
C1CA
100
AcDbEntity
  8
0
100
AcDbLine
 10
-48.98700105732387
 20
72.00000000000013
 30
0.0
 11
-45.98700105732386
 21
72.00000000000013
 31
0.0
  0
LINE
  5
C1EF
330
C1CA
100
AcDbEntity
  8
0
100
AcDbLine
 10
-45.98700105732386
 20
72.00000000000013
 30
0.0
 11
-45.98700105732389
 21
77.00000000000014
 31
0.0
  0
LINE
  5
C1F0
330
C1CA
100
AcDbEntity
  8
0
100
AcDbLine
 10
-45.98700105732389
 20
77.00000000000014
 30
0.0
 11
-48.98700105732388
 21
77.00000000000016
 31
0.0
  0
LINE
  5
C1F1
330
C1CA
100
AcDbEntity
  8
0
100
AcDbLine
 10
44.01299894247916
 20
72.00000000000034
 30
0.0
 11
44.01299894247929
 21
3.000000000000042
 31
0.0
  0
LINE
  5
C1F2
330
C1CA
100
AcDbEntity
  8
0
100
AcDbLine
 10
47.01299894247931
 20
3.000000000000058
 30
0.0
 11
47.01299894247916
 21
72.00000000000034
 31
0.0
  0
LINE
  5
C1F3
330
C1CA
100
AcDbEntity
  8
0
100
AcDbLine
 10
-45.98700105732386
 20
72.00000000000013
 30
0.0
 11
-45.98700105732381
 21
3.000000000000033
 31
0.0
  0
LINE
  5
C1F4
330
C1CA
100
AcDbEntity
  8
0
100
AcDbLine
 10
-48.98700105732387
 20
72.00000000000013
 30
0.0
 11
-48.98700105732382
 21
3.000000000000042
 31
0.0
  0
ARC
  5
C1F5
330
C1CA
100
AcDbEntity
  8
0
100
AcDbCircle
 10
41.01299894247937
 20
3.000000000000047
 30
0.0
 40
5.999999999999955
100
AcDbArc
 50
269.9999999999993
 51
0.0
  0
ARC
  5
C1F6
330
C1CA
100
AcDbEntity
  8
0
100
AcDbCircle
 10
41.01299894247937
 20
3.000000000000047
 30
0.0
 40
2.999999999999932
100
AcDbArc
 50
269.9999999999986
 51
0.0
  0
ARC
  5
C1F7
330
C1CA
100
AcDbEntity
  8
0
100
AcDbCircle
 10
-42.98700105732383
 20
3.000000000000022
 30
0.0
 40
6.00000000000001
100
AcDbArc
 50
180.0
 51
270.0000000000019
  0
ARC
  5
C1F8
330
C1CA
100
AcDbEntity
  8
0
100
AcDbCircle
 10
-42.98700105732383
 20
3.000000000000022
 30
0.0
 40
3.000000000000011
100
AcDbArc
 50
180.0
 51
270.0000000000033
  0
SPLINE
  5
C1F9
330
C1CA
100
AcDbEntity
  8
0
100
AcDbSpline
210
0.0
220
0.0
230
1.0
 70
     8
 71
     3
 72
    14
 73
    10
 74
     0
 42
0.000000001
 43
0.0000000001
 40
-0.7853981633973792
 40
-0.7853981633973792
 40
-0.7853981633973792
 40
-0.7853981633973792
 40
0.3160919271552687
 40
0.3160919271552687
 40
0.3160919271552687
 40
1.29976473377554
 40
1.29976473377554
 40
1.29976473377554
 40
2.356194490192194
 40
2.356194490192194
 40
2.356194490192194
 40
2.356194490192194
 10
-8.510274194823601
 20
-5.999999999999764
 30
0.0
 10
-8.510274194823603
 20
-6.550745045276089
 30
0.0
 10
-8.534439768188814
 20
-7.088739243413973
 30
0.0
 10
-8.384088653944649
 20
-7.337823404552387
 30
0.0
 10
-8.249819354751187
 20
-7.560265093291271
 30
0.0
 10
-7.936034745095232
 20
-7.547882186586224
 30
0.0
 10
-7.594971916806986
 20
-7.305906800767622
 30
0.0
 10
-7.228682518354179
 20
-7.046033806232506
 30
0.0
 10
-6.8996402954986
 20
-6.528214878208235
 30
0.0
 10
-6.899640295498519
 20
-5.999999999999906
 30
0.0
  0
SPLINE
  5
C1FA
330
C1CA
100
AcDbEntity
  8
0
100
AcDbSpline
210
0.0
220
0.0
230
1.0
 70
     8
 71
     3
 72
    11
 73
     7
 74
     0
 42
0.000000001
 43
0.0000000001
 40
-0.2270812788512146
 40
-0.2270812788512146
 40
-0.2270812788512146
 40
-0.2270812788512146
 40
-0.0016311823990607
 40
-0.0016311823990607
 40
-0.0016311823990607
 40
0.7853981633974376
 40
0.7853981633974376
 40
0.7853981633974376
 40
0.7853981633974376
 10
3.487258469988877
 20
-7.269812748611817
 30
0.0
 10
3.501112174768372
 20
-7.211311675662801
 30
0.0
 10
3.51145031673833
 20
-7.141967410822223
 30
0.0
 10
3.518042952923514
 20
-7.062388890137355
 30
0.0
 10
3.541057350457832
 20
-6.784586254167512
 30
0.0
 10
3.536272079978791
 20
-6.393514672898113
 30
0.0
 10
3.536272079978795
 20
-5.999999999999863
 30
0.0
  0
LINE
  5
C1FB
330
C1CA
100
AcDbEntity
  8
0
100
AcDbLine
 10
3.48972580517646
 20
-197.9370000000001
 30
0.0
 11
3.536272079978834
 21
-197.9370000000001
 31
0.0
  0
LINE
  5
C1FC
330
C1CA
100
AcDbEntity
  8
0
100
AcDbLine
 10
3.489725805176405
 20
-197.9370000000002
 30
0.0
 11
-8.51027419482363
 21
-197.9370000000002
 31
0.0
  0
ARC
  5
C1FD
330
C1CA
100
AcDbEntity
  8
0
100
AcDbCircle
 10
12.24337886116555
 20
-3.999999999999805
 30
0.0
 40
1.0
100
AcDbArc
 50
90.00000000000012
 51
134.9999999999999
  0
ARC
  5
C1FE
330
C1CA
100
AcDbEntity
  8
0
100
AcDbCircle
 10
7.536272079979037
 20
-8.707106781186331
 30
0.0
 40
1.0
100
AcDbArc
 50
134.9999999999999
 51
180.0
  0
ARC
  5
C1FF
330
C1CA
100
AcDbEntity
  8
0
100
AcDbCircle
 10
-14.21738097601026
 20
-3.999999999999942
 30
0.0
 40
1.0
100
AcDbArc
 50
45.0000000000001
 51
89.99999999999987
  0
ARC
  5
C200
330
C1CA
100
AcDbEntity
  8
0
100
AcDbCircle
 10
-9.510274194823578
 20
-8.707106781186627
 30
0.0
 40
1.0
100
AcDbArc
 50
0.0
 51
45.00000000000003
  0
LINE
  5
C201
330
C1CA
100
AcDbEntity
  8
0
100
AcDbLine
 10
6.829165298792487
 20
-7.999999999999775
 30
0.0
 11
11.536272079979
 21
-3.292893218813253
 31
0.0
  0
LINE
  5
C202
330
C1CA
100
AcDbEntity
  8
0
100
AcDbLine
 10
-8.80316741363703
 20
-8.000000000000081
 30
0.0
 11
-13.51027419482371
 21
-3.292893218813393
 31
0.0
  0
LINE
  5
C203
330
C1CA
100
AcDbEntity
  8
0
100
AcDbLine
 10
3.489725805176463
 20
-197.9370000000003
 30
0.0
 11
3.489725805176476
 21
0.0
 31
0.0
  0
ENDBLK
  5
C1CC
330
C1CA
100
AcDbEntity
  8
0
100
AcDbBlockEnd
  0
BLOCK
  5
C205
330
C204
100
AcDbEntity
  8
0
100
AcDbBlockBegin
  2
PBWS90-Top
 70
     0
 10
0.0
 20
0.0
 30
0.0
  3
PBWS90-Top
  1

  0
LINE
  5
C207
330
C204
100
AcDbEntity
  8
0
100
AcDbLine
 10
6.748998942816752
 20
3.536272079979033
 30
0.0
 11
9.699619020070226
 21
3.536272079979089
 31
0.0
  0
LINE
  5
C208
330
C204
100
AcDbEntity
  8
0
100
AcDbLine
 10
3.398378865563272
 20
3.53627207997897
 30
0.0
 11
6.748998942816739
 21
3.536272079979033
 31
0.0
  0
LINE
  5
C209
330
C204
100
AcDbEntity
  8
0
100
AcDbLine
 10
-8.723483493701561
 20
-5.510274194823575
 30
0.0
 11
-11.67410357095516
 21
-5.510274194823574
 31
0.0
  0
LINE
  5
C20A
330
C204
100
AcDbEntity
  8
0
100
AcDbLine
 10
-5.372863416447976
 20
-5.510274194823574
 30
0.0
 11
-8.723483493701561
 21
-5.510274194823575
 31
0.0
  0
LINE
  5
C20B
330
C204
100
AcDbEntity
  8
0
100
AcDbLine
 10
-5.251001057183382
 20
9.536272079978804
 30
0.0
 11
-5.251001057183267
 21
3.536272079978791
 31
0.0
  0
LINE
  5
C20C
330
C204
100
AcDbEntity
  8
0
100
AcDbLine
 10
-5.25100105718328
 20
3.5362720799788
 30
0.0
 11
1.337311284732157
 21
3.53627207997893
 31
0.0
  0
LINE
  5
C20D
330
C204
100
AcDbEntity
  8
0
100
AcDbLine
 10
1.337311284732158
 20
3.53627207997893
 30
0.0
 11
3.398378865563276
 21
3.53627207997897
 31
0.0
  0
LINE
  5
C20E
330
C204
100
AcDbEntity
  8
0
100
AcDbLine
 10
3.276516506298447
 20
-11.51027419482362
 30
0.0
 11
3.276516506298436
 21
-5.510274194823606
 31
0.0
  0
LINE
  5
C20F
330
C204
100
AcDbEntity
  8
0
100
AcDbLine
 10
3.276516506298442
 20
-5.51027419482361
 30
0.0
 11
-3.31179583561693
 21
-5.51027419482363
 31
0.0
  0
LINE
  5
C210
330
C204
100
AcDbEntity
  8
0
100
AcDbLine
 10
-3.31179583561693
 20
-5.51027419482363
 30
0.0
 11
-5.372863416447978
 21
-5.510274194823637
 31
0.0
  0
LINE
  5
C211
330
C204
100
AcDbEntity
  8
0
100
AcDbLine
 10
18.30699894281608
 20
41.0129989424793
 30
0.0
 11
18.30699894281665
 21
9.536272079979251
 31
0.0
  0
LINE
  5
C212
330
C204
100
AcDbEntity
  8
0
100
AcDbLine
 10
9.699619020070262
 20
3.536272079979067
 30
0.0
 11
18.30699894281676
 21
3.536272079979237
 31
0.0
  0
LINE
  5
C213
330
C204
100
AcDbEntity
  8
0
100
AcDbLine
 10
18.30699894281678
 20
3.536272079979221
 30
0.0
 11
18.30699894281666
 21
9.53627207997925
 31
0.0
  0
LINE
  5
C214
330
C204
100
AcDbEntity
  8
0
100
AcDbLine
 10
-20.28100105718355
 20
17.25427207997852
 30
0.0
 11
-20.281001057184
 21
41.01299894247855
 31
0.0
  0
LINE
  5
C215
330
C204
100
AcDbEntity
  8
0
100
AcDbLine
 10
-6.751001057183438
 20
12.25427207997877
 30
0.0
 11
-15.28100105718344
 21
12.25427207997861
 31
0.0
  0
LINE
  5
C216
330
C204
100
AcDbEntity
  8
0
100
AcDbLine
 10
-15.28100105718344
 20
12.25427207997861
 30
0.0
 11
-20.28100105718355
 21
17.25427207997852
 31
0.0
  0
LINE
  5
C217
330
C204
100
AcDbEntity
  8
0
100
AcDbLine
 10
13.30651650629844
 20
-14.22827419482359
 30
0.0
 11
18.30651650629845
 21
-19.22827419482357
 31
0.0
  0
ARC
  5
C218
330
C204
100
AcDbEntity
  8
0
100
AcDbCircle
 10
-6.75100105718341
 20
10.75427207997876
 30
0.0
 40
1.500000000000002
100
AcDbArc
 50
0.0
 51
90.00000000000104
  0
ARC
  5
C219
330
C204
100
AcDbEntity
  8
0
100
AcDbCircle
 10
4.77651650629844
 20
-12.72827419482362
 30
0.0
 40
1.500000000000001
100
AcDbArc
 50
180.0
 51
270.0000000000005
  0
LINE
  5
C21A
330
C204
100
AcDbEntity
  8
0
100
AcDbLine
 10
-5.251001057183395
 20
9.536272079978804
 30
0.0
 11
-5.25100105718341
 21
10.7542720799788
 31
0.0
  0
LINE
  5
C21B
330
C204
100
AcDbEntity
  8
0
100
AcDbLine
 10
3.276516506298448
 20
-11.51027419482362
 30
0.0
 11
3.276516506298437
 21
-12.72827419482361
 31
0.0
  0
LINE
  5
C21C
330
C204
100
AcDbEntity
  8
0
100
AcDbLine
 10
-20.2814834937015
 20
-42.98700105732374
 30
0.0
 11
-20.2814834937016
 21
-11.51027419482368
 31
0.0
  0
LINE
  5
C21D
330
C204
100
AcDbEntity
  8
0
100
AcDbLine
 10
-11.67410357095518
 20
-5.510274194823649
 30
0.0
 11
-20.28148349370161
 21
-5.510274194823658
 31
0.0
  0
LINE
  5
C21E
330
C204
100
AcDbEntity
  8
0
100
AcDbLine
 10
-20.2814834937016
 20
-5.51027419482371
 30
0.0
 11
-20.28148349370159
 21
-11.51027419482368
 31
0.0
  0
LINE
  5
C21F
330
C204
100
AcDbEntity
  8
0
100
AcDbLine
 10
18.30651650629845
 20
-19.22827419482357
 30
0.0
 11
18.30651650629852
 21
-42.98700105732366
 31
0.0
  0
LINE
  5
C220
330
C204
100
AcDbEntity
  8
0
100
AcDbLine
 10
4.776516506298452
 20
-14.22827419482362
 30
0.0
 11
13.30651650629844
 21
-14.22827419482359
 31
0.0
  0
ARC
  5
C221
330
C204
100
AcDbEntity
  8
0
100
AcDbCircle
 10
3.276516506298432
 20
-2.510274194823598
 30
0.0
 40
3.000000000000015
100
AcDbArc
 50
312.9825802798819
 51
154.0000000000017
  0
LINE
  5
C222
330
C204
100
AcDbEntity
  8
0
100
AcDbLine
 10
5.321844428310501
 20
-4.704957245160946
 30
0.0
 11
7.367172350322555
 21
-6.899640295498277
 31
0.0
  0
ARC
  5
C223
330
C204
100
AcDbEntity
  8
0
100
AcDbCircle
 10
3.276516506298432
 20
-2.510274194823598
 30
0.0
 40
6.000000000000049
100
AcDbArc
 50
312.9825802798819
 51
154.0000000000012
  0
LINE
  5
C224
330
C204
100
AcDbEntity
  8
0
100
AcDbLine
 10
-2.116247771496646
 20
0.1199526859107661
 30
0.0
 11
-2.554618918285711
 21
-0.7788413603884079
 31
0.0
  0
LINE
  5
C225
330
C204
100
AcDbEntity
  8
0
100
AcDbLine
 10
0.1417632206118215
 20
-2.093954800755616
 30
0.0
 11
0.5801343674008863
 21
-1.195160754456441
 31
0.0
  0
LINE
  5
C226
330
C204
100
AcDbEntity
  8
0
100
AcDbLine
 10
-7.296328979195257
 20
2.73095513031611
 30
0.0
 11
-9.341656901207295
 21
4.92563818065344
 31
0.0
  0
ARC
  5
C227
330
C204
100
AcDbEntity
  8
0
100
AcDbCircle
 10
-5.251001057183218
 20
0.5362720799787918
 30
0.0
 40
2.999999999999988
100
AcDbArc
 50
132.9825802798818
 51
334.0000000000006
  0
ARC
  5
C228
330
C204
100
AcDbEntity
  8
0
100
AcDbCircle
 10
-5.251001057183218
 20
0.5362720799787918
 30
0.0
 40
6.000000000000008
100
AcDbArc
 50
132.9825802798817
 51
334.0000000000007
  0
LINE
  5
C229
330
C204
100
AcDbEntity
  8
0
100
AcDbLine
 10
18.30699894281597
 20
47.01299894247916
 30
0.0
 11
13.30699894281593
 21
47.01299894247906
 31
0.0
  0
LINE
  5
C22A
330
C204
100
AcDbEntity
  8
0
100
AcDbLine
 10
13.30699894281593
 20
47.01299894247906
 30
0.0
 11
13.306998942816
 21
44.01299894247906
 31
0.0
  0
LINE
  5
C22B
330
C204
100
AcDbEntity
  8
0
100
AcDbLine
 10
13.306998942816
 20
44.01299894247906
 30
0.0
 11
18.30699894281608
 21
44.01299894247916
 31
0.0
  0
LINE
  5
C22C
330
C204
100
AcDbEntity
  8
0
100
AcDbLine
 10
18.30699894281608
 20
44.01299894247916
 30
0.0
 11
18.30699894281597
 21
47.01299894247916
 31
0.0
  0
LINE
  5
C22D
330
C204
100
AcDbEntity
  8
0
100
AcDbLine
 10
-20.28100105718401
 20
44.0129989424785
 30
0.0
 11
-15.28100105718407
 21
44.01299894247856
 31
0.0
  0
LINE
  5
C22E
330
C204
100
AcDbEntity
  8
0
100
AcDbLine
 10
13.30651650629851
 20
-48.98700105732388
 30
0.0
 11
18.3065165062983
 21
-48.98700105732387
 31
0.0
  0
LINE
  5
C22F
330
C204
100
AcDbEntity
  8
0
100
AcDbLine
 10
18.3065165062983
 20
-48.98700105732387
 30
0.0
 11
18.3065165062983
 21
-45.98700105732386
 31
0.0
  0
LINE
  5
C230
330
C204
100
AcDbEntity
  8
0
100
AcDbLine
 10
18.3065165062983
 20
-45.98700105732386
 30
0.0
 11
13.3065165062985
 21
-45.98700105732389
 31
0.0
  0
LINE
  5
C231
330
C204
100
AcDbEntity
  8
0
100
AcDbLine
 10
13.3065165062985
 20
-45.98700105732389
 30
0.0
 11
13.30651650629851
 21
-48.98700105732388
 31
0.0
  0
LINE
  5
C232
330
C204
100
AcDbEntity
  8
0
100
AcDbLine
 10
-15.28148349370154
 20
-48.98700105732395
 30
0.0
 11
-15.28148349370153
 21
-45.98700105732393
 31
0.0
  0
LINE
  5
C233
330
C204
100
AcDbEntity
  8
0
100
AcDbLine
 10
-15.28148349370153
 20
-45.98700105732393
 30
0.0
 11
-20.28148349370177
 21
-45.98700105732407
 31
0.0
  0
LINE
  5
C234
330
C204
100
AcDbEntity
  8
0
100
AcDbLine
 10
-20.28148349370153
 20
-48.98700105732395
 30
0.0
 11
-15.28148349370154
 21
-48.98700105732395
 31
0.0
  0
LINE
  5
C235
330
C204
100
AcDbEntity
  8
0
100
AcDbLine
 10
-20.28148349370177
 20
-45.98700105732407
 30
0.0
 11
-20.28148349370153
 21
-48.98700105732395
 31
0.0
  0
LINE
  5
C236
330
C204
100
AcDbEntity
  8
0
100
AcDbLine
 10
-15.28100105718412
 20
47.01299894247855
 30
0.0
 11
-20.28100105718406
 21
47.01299894247853
 31
0.0
  0
LINE
  5
C237
330
C204
100
AcDbEntity
  8
0
100
AcDbLine
 10
-20.28100105718406
 20
47.01299894247853
 30
0.0
 11
-20.28100105718401
 21
44.0129989424785
 31
0.0
  0
LINE
  5
C238
330
C204
100
AcDbEntity
  8
0
100
AcDbLine
 10
-15.28100105718407
 20
44.01299894247856
 30
0.0
 11
-15.28100105718412
 21
47.01299894247855
 31
0.0
  0
LINE
  5
C239
330
C204
100
AcDbEntity
  8
0
100
AcDbLine
 10
13.306998942816
 20
44.01299894247906
 30
0.0
 11
-15.28100105718407
 21
44.01299894247856
 31
0.0
  0
LINE
  5
C23A
330
C204
100
AcDbEntity
  8
0
100
AcDbLine
 10
-15.28148349370153
 20
-45.98700105732393
 30
0.0
 11
13.3065165062985
 21
-45.98700105732389
 31
0.0
  0
LINE
  5
C23B
330
C204
100
AcDbEntity
  8
0
100
AcDbLine
 10
-15.28148349370154
 20
-48.98700105732395
 30
0.0
 11
13.30651650629851
 21
-48.98700105732388
 31
0.0
  0
LINE
  5
C23C
330
C204
100
AcDbEntity
  8
0
100
AcDbLine
 10
13.30699894281593
 20
47.01299894247906
 30
0.0
 11
-15.28100105718412
 21
47.01299894247855
 31
0.0
  0
LINE
  5
C23D
330
C204
100
AcDbEntity
  8
0
100
AcDbLine
 10
18.306998942816
 20
44.0129989424793
 30
0.0
 11
18.30699894281606
 21
41.01299894247929
 31
0.0
  0
LINE
  5
C23E
330
C204
100
AcDbEntity
  8
0
100
AcDbLine
 10
-20.28100105718409
 20
44.01299894247862
 30
0.0
 11
-20.28100105718404
 21
41.01299894247855
 31
0.0
  0
LINE
  5
C23F
330
C204
100
AcDbEntity
  8
0
100
AcDbLine
 10
-20.28148349370152
 20
-45.98700105732389
 30
0.0
 11
-20.28148349370152
 21
-42.98700105732373
 31
0.0
  0
LINE
  5
C240
330
C204
100
AcDbEntity
  8
0
100
AcDbLine
 10
18.30651650629853
 20
-45.98700105732384
 30
0.0
 11
18.30651650629853
 21
-42.98700105732366
 31
0.0
  0
SPLINE
  5
C241
330
C204
100
AcDbEntity
  8
0
100
AcDbSpline
210
0.0
220
0.0
230
1.0
 70
     8
 71
     3
 72
    14
 73
    10
 74
     0
 42
0.000000001
 43
0.0000000001
 40
-0.7853981633974483
 40
-0.7853981633974483
 40
-0.7853981633974483
 40
-0.7853981633974483
 40
0.4440817313539139
 40
0.4440817313539139
 40
0.4440817313539139
 40
1.56916514439576
 40
1.56916514439576
 40
1.56916514439576
 40
2.356194490192133
 40
2.356194490192133
 40
2.356194490192133
 40
2.356194490192133
 10
5.321844428310395
 20
-4.704957245161066
 30
0.0
 10
5.321844428310395
 20
-4.704957245161066
 30
0.0
 10
5.097732956121689
 20
-4.933499239445792
 30
0.0
 10
4.716499143850685
 20
-5.142089158598293
 30
0.0
 10
4.367636311275812
 20
-5.33296747972259
 30
0.0
 10
3.903809848471224
 20
-5.459145256515741
 30
0.0
 10
3.606732286143044
 20
-5.492045067768392
 30
0.0
 10
3.398917686070157
 20
-5.515059465302698
 30
0.0
 10
3.276516506298327
 20
-5.510274194823657
 30
0.0
 10
3.276516506298264
 20
-5.510274194823658
 30
0.0
  0
SPLINE
  5
C242
330
C204
100
AcDbEntity
  8
0
100
AcDbSpline
210
0.0
220
0.0
230
1.0
 70
     8
 71
     3
 72
    14
 73
    10
 74
     0
 42
0.000000001
 43
0.0000000001
 40
-0.7853981633973792
 40
-0.7853981633973792
 40
-0.7853981633973792
 40
-0.7853981633973792
 40
0.3160919271552687
 40
0.3160919271552687
 40
0.3160919271552687
 40
1.29976473377554
 40
1.29976473377554
 40
1.29976473377554
 40
2.356194490192194
 40
2.356194490192194
 40
2.356194490192194
 40
2.356194490192194
 10
3.276516506298003
 20
-8.510274194823601
 30
0.0
 10
3.276516506298062
 20
-8.510274194823603
 30
0.0
 10
3.779084263782237
 20
-8.534439768188814
 30
0.0
 10
4.50056867014626
 20
-8.384088653944649
 30
0.0
 10
5.144881857371377
 20
-8.249819354751187
 30
0.0
 10
5.917324802815072
 20
-7.936034745095232
 30
0.0
 10
6.461771453089498
 20
-7.594971916806986
 30
0.0
 10
7.046487873285624
 20
-7.228682518354179
 30
0.0
 10
7.367172350322126
 20
-6.8996402954986
 30
0.0
 10
7.367172350322215
 20
-6.899640295498519
 30
0.0
  0
SPLINE
  5
C243
330
C204
100
AcDbEntity
  8
0
100
AcDbSpline
210
0.0
220
0.0
230
1.0
 70
     8
 71
     3
 72
    14
 73
    10
 74
     0
 42
0.000000001
 43
0.0000000001
 40
-2.356194490192279
 40
-2.356194490192279
 40
-2.356194490192279
 40
-2.356194490192279
 40
-1.126714595440923
 40
-1.126714595440923
 40
-1.126714595440923
 40
-0.0016311823990607
 40
-0.0016311823990607
 40
-0.0016311823990607
 40
0.7853981633974376
 40
0.7853981633974376
 40
0.7853981633974376
 40
0.7853981633974376
 10
-7.296328979195298
 20
2.730955130316086
 30
0.0
 10
-7.296328979195275
 20
2.730955130316108
 30
0.0
 10
-7.072217507006564
 20
2.959497124600862
 30
0.0
 10
-6.690983694735574
 20
3.168087043753372
 30
0.0
 10
-6.342120862160701
 20
3.358965364877692
 30
0.0
 10
-5.878294399356138
 20
3.48514314167085
 30
0.0
 10
-5.581216837027985
 20
3.518042952923514
 30
0.0
 10
-5.373402236955088
 20
3.541057350457832
 30
0.0
 10
-5.251001057183274
 20
3.536272079978791
 30
0.0
 10
-5.251001057183267
 20
3.536272079978795
 30
0.0
  0
SPLINE
  5
C244
330
C204
100
AcDbEntity
  8
0
100
AcDbSpline
210
0.0
220
0.0
230
1.0
 70
     8
 71
     3
 72
    14
 73
    10
 74
     0
 42
0.000000001
 43
0.0000000001
 40
-0.7853981633974377
 40
-0.7853981633974377
 40
-0.7853981633974377
 40
-0.7853981633974377
 40
0.3160919271552164
 40
0.3160919271552164
 40
0.3160919271552164
 40
1.29976473377549
 40
1.29976473377549
 40
1.29976473377549
 40
2.3561944901923
 40
2.3561944901923
 40
2.3561944901923
 40
2.3561944901923
 10
-5.251001057183319
 20
6.536272079978829
 30
0.0
 10
-5.251001057183328
 20
6.536272079978829
 30
0.0
 10
-5.753568814667474
 20
6.560437653343999
 30
0.0
 10
-6.475053221031469
 20
6.410086539099786
 30
0.0
 10
-7.119366408256557
 20
6.275817239906288
 30
0.0
 10
-7.891809353700241
 20
5.962032630250283
 30
0.0
 10
-8.43625600397466
 20
5.620969801961993
 30
0.0
 10
-9.020972424170862
 20
5.254680403509079
 30
0.0
 10
-9.341656901207368
 20
4.925638180653418
 30
0.0
 10
-9.341656901207388
 20
4.925638180653399
 30
0.0
  0
ENDBLK
  5
C206
330
C204
100
AcDbEntity
  8
0
100
AcDbBlockEnd
  0
BLOCK
  5
C246
330
C245
100
AcDbEntity
  8
0
100
AcDbBlockBegin
  2
PBWS90-Bottom
 70
     0
 10
0.0
 20
0.0
 30
0.0
  3
PBWS90-Bottom
  1

  0
LINE
  5
C248
330
C245
100
AcDbEntity
  8
0
100
AcDbLine
 10
-5.251001057183382
 20
-9.536272079978798
 30
0.0
 11
-5.251001057183323
 21
-6.536272079978791
 31
0.0
  0
LINE
  5
C249
330
C245
100
AcDbEntity
  8
0
100
AcDbLine
 10
3.276516506298439
 20
11.51027419482362
 30
0.0
 11
3.276516506298432
 21
8.510274194823617
 31
0.0
  0
LINE
  5
C24A
330
C245
100
AcDbEntity
  8
0
100
AcDbLine
 10
-5.25100105718324
 20
-6.53627207997884
 30
0.0
 11
6.748998942816802
 21
-6.536272079979071
 31
0.0
  0
LINE
  5
C24B
330
C245
100
AcDbEntity
  8
0
100
AcDbLine
 10
-5.251001057183191
 20
-3.536272079978843
 30
0.0
 11
6.748998942816854
 21
-3.53627207997908
 31
0.0
  0
LINE
  5
C24C
330
C245
100
AcDbEntity
  8
0
100
AcDbLine
 10
6.748998942816852
 20
-3.53627207997908
 30
0.0
 11
6.748998942816802
 21
-6.536272079979071
 31
0.0
  0
LINE
  5
C24D
330
C245
100
AcDbEntity
  8
0
100
AcDbLine
 10
18.30699894281672
 20
-6.53627207997926
 30
0.0
 11
6.74899894281673
 21
-6.536272079979513
 31
0.0
  0
LINE
  5
C24E
330
C245
100
AcDbEntity
  8
0
100
AcDbLine
 10
6.748998942816788
 20
-3.536272079978879
 30
0.0
 11
18.30699894281676
 21
-3.536272079979237
 31
0.0
  0
LINE
  5
C24F
330
C245
100
AcDbEntity
  8
0
100
AcDbLine
 10
18.30699894281676
 20
-3.536272079979237
 30
0.0
 11
18.30699894281672
 21
-6.53627207997926
 31
0.0
  0
LINE
  5
C250
330
C245
100
AcDbEntity
  8
0
100
AcDbLine
 10
3.276516506298538
 20
8.510274194823622
 30
0.0
 11
-8.723483493701511
 21
8.510274194823644
 31
0.0
  0
LINE
  5
C251
330
C245
100
AcDbEntity
  8
0
100
AcDbLine
 10
3.276516506298525
 20
5.510274194823613
 30
0.0
 11
-8.723483493701511
 21
5.51027419482363
 31
0.0
  0
LINE
  5
C252
330
C245
100
AcDbEntity
  8
0
100
AcDbLine
 10
-8.723483493701509
 20
5.51027419482363
 30
0.0
 11
-8.723483493701509
 21
8.510274194823644
 31
0.0
  0
LINE
  5
C253
330
C245
100
AcDbEntity
  8
0
100
AcDbLine
 10
-20.28148349370161
 20
8.510274194823676
 30
0.0
 11
-8.723483493701566
 21
8.510274194823844
 31
0.0
  0
LINE
  5
C254
330
C245
100
AcDbEntity
  8
0
100
AcDbLine
 10
-8.72348349370158
 20
5.510274194823829
 30
0.0
 11
-20.28148349370161
 21
5.510274194823658
 31
0.0
  0
LINE
  5
C255
330
C245
100
AcDbEntity
  8
0
100
AcDbLine
 10
-20.28148349370161
 20
5.510274194823658
 30
0.0
 11
-20.28148349370161
 21
8.510274194823676
 31
0.0
  0
LINE
  5
C256
330
C245
100
AcDbEntity
  8
0
100
AcDbLine
 10
-20.28148349370159
 20
8.510274194823713
 30
0.0
 11
-20.28148349370159
 21
11.51027419482368
 31
0.0
  0
LINE
  5
C257
330
C245
100
AcDbEntity
  8
0
100
AcDbLine
 10
-20.28148349370159
 20
11.51027419482368
 30
0.0
 11
-20.28148349370152
 21
42.98700105732375
 31
0.0
  0
LINE
  5
C258
330
C245
100
AcDbEntity
  8
0
100
AcDbLine
 10
18.30699894281672
 20
-6.536272079979228
 30
0.0
 11
18.30699894281666
 21
-9.536272079979257
 31
0.0
  0
LINE
  5
C259
330
C245
100
AcDbEntity
  8
0
100
AcDbLine
 10
18.30699894281665
 20
-9.536272079979257
 30
0.0
 11
18.30699894281606
 21
-41.01299894247929
 31
0.0
  0
LINE
  5
C25A
330
C245
100
AcDbEntity
  8
0
100
AcDbLine
 10
18.30651650629847
 20
19.22827419482357
 30
0.0
 11
13.30651650629844
 21
14.22827419482359
 31
0.0
  0
LINE
  5
C25B
330
C245
100
AcDbEntity
  8
0
100
AcDbLine
 10
-20.28100105718355
 20
-17.25427207997852
 30
0.0
 11
-15.28100105718343
 21
-12.25427207997861
 31
0.0
  0
LINE
  5
C25C
330
C245
100
AcDbEntity
  8
0
100
AcDbLine
 10
3.276516506298438
 20
12.72827419482361
 30
0.0
 11
3.276516506298439
 21
11.51027419482362
 31
0.0
  0
LINE
  5
C25D
330
C245
100
AcDbEntity
  8
0
100
AcDbLine
 10
-5.251001057183415
 20
-10.75427207997879
 30
0.0
 11
-5.251001057183385
 21
-9.5362720799788
 31
0.0
  0
ARC
  5
C25E
330
C245
100
AcDbEntity
  8
0
100
AcDbCircle
 10
4.776516506298454
 20
12.72827419482361
 30
0.0
 40
1.500000000000001
100
AcDbArc
 50
90.00000000000012
 51
180.0
  0
ARC
  5
C25F
330
C245
100
AcDbEntity
  8
0
100
AcDbCircle
 10
-6.751001057183398
 20
-10.75427207997876
 30
0.0
 40
1.500000000000002
100
AcDbArc
 50
269.9999999999985
 51
0.0
  0
LINE
  5
C260
330
C245
100
AcDbEntity
  8
0
100
AcDbLine
 10
4.776516506298449
 20
14.22827419482361
 30
0.0
 11
13.30651650629844
 21
14.22827419482359
 31
0.0
  0
LINE
  5
C261
330
C245
100
AcDbEntity
  8
0
100
AcDbLine
 10
18.30651650629851
 20
42.98700105732364
 30
0.0
 11
18.30651650629847
 21
19.22827419482358
 31
0.0
  0
LINE
  5
C262
330
C245
100
AcDbEntity
  8
0
100
AcDbLine
 10
-6.751001057183437
 20
-12.25427207997877
 30
0.0
 11
-15.28100105718343
 21
-12.25427207997861
 31
0.0
  0
LINE
  5
C263
330
C245
100
AcDbEntity
  8
0
100
AcDbLine
 10
-20.281001057184
 20
-41.01299894247855
 30
0.0
 11
-20.28100105718355
 21
-17.25427207997852
 31
0.0
  0
LINE
  5
C264
330
C245
100
AcDbEntity
  8
0
100
AcDbLine
 10
18.30699894281597
 20
-47.01299894247931
 30
0.0
 11
-20.28100105718416
 21
-47.0129989424786
 31
0.0
  0
LINE
  5
C265
330
C245
100
AcDbEntity
  8
0
100
AcDbLine
 10
18.30699894281597
 20
-47.01299894247932
 30
0.0
 11
18.30699894281609
 21
-41.01299894247929
 31
0.0
  0
LINE
  5
C266
330
C245
100
AcDbEntity
  8
0
100
AcDbLine
 10
-20.28100105718403
 20
-41.01299894247856
 30
0.0
 11
-20.28100105718414
 21
-47.01299894247861
 31
0.0
  0
LINE
  5
C267
330
C245
100
AcDbEntity
  8
0
100
AcDbLine
 10
-20.2814834937015
 20
48.98700105732389
 30
0.0
 11
18.30651650629853
 21
48.98700105732382
 31
0.0
  0
LINE
  5
C268
330
C245
100
AcDbEntity
  8
0
100
AcDbLine
 10
-20.28148349370149
 20
48.98700105732391
 30
0.0
 11
-20.2814834937015
 21
42.98700105732374
 31
0.0
  0
LINE
  5
C269
330
C245
100
AcDbEntity
  8
0
100
AcDbLine
 10
18.30651650629853
 20
42.98700105732364
 30
0.0
 11
18.30651650629853
 21
48.98700105732385
 31
0.0
  0
LINE
  5
C26A
330
C245
100
AcDbEntity
  8
0
100
AcDbLine
 10
0.1417632206119454
 20
2.093954800755555
 30
0.0
 11
0.5801343674010012
 21
1.19516075445639
 31
0.0
  0
LINE
  5
C26B
330
C245
100
AcDbEntity
  8
0
100
AcDbLine
 10
-2.554618918285594
 20
0.7788413603883838
 30
0.0
 11
-2.116247771496523
 21
-0.1199526859108069
 31
0.0
  0
ARC
  5
C26C
330
C245
100
AcDbEntity
  8
0
100
AcDbCircle
 10
-5.25100105718311
 20
-0.5362720799788291
 30
0.0
 40
6.000000000000015
100
AcDbArc
 50
25.99999999999912
 51
269.9999999999988
  0
ARC
  5
C26D
330
C245
100
AcDbEntity
  8
0
100
AcDbCircle
 10
-5.25100105718311
 20
-0.5362720799788291
 30
0.0
 40
3.000000000000006
100
AcDbArc
 50
25.99999999999955
 51
269.9999999999985
  0
ARC
  5
C26E
330
C245
100
AcDbEntity
  8
0
100
AcDbCircle
 10
3.276516506298518
 20
2.510274194823611
 30
0.0
 40
6.000000000000017
100
AcDbArc
 50
205.9999999999995
 51
89.99999999999976
  0
ARC
  5
C26F
330
C245
100
AcDbEntity
  8
0
100
AcDbCircle
 10
3.276516506298518
 20
2.510274194823611
 30
0.0
 40
3.000000000000019
100
AcDbArc
 50
205.9999999999996
 51
89.99999999999992
  0
ENDBLK
  5
C247
330
C245
100
AcDbEntity
  8
0
100
AcDbBlockEnd
  0
BLOCK
  5
C271
330
C270
100
AcDbEntity
  8
0
100
AcDbBlockBegin
  2
PBWS90-ISO
 70
     0
 10
0.0
 20
0.0
 30
0.0
  3
PBWS90-ISO
  1

  0
LINE
  5
C273
330
C270
100
AcDbEntity
  8
0
100
AcDbLine
 10
10.79010607850111
 20
-112.3295040901968
 30
0.0
 11
10.79010607850139
 21
8.460550602508583
 31
0.0
  0
ELLIPSE
  5
C274
330
C270
100
AcDbEntity
  8
0
100
AcDbEllipse
 10
8.527364378704117
 20
45.27252869473877
 30
0.0
 11
-1.787816710194954
 21
6.6722227970695
 31
0.0
210
0.0
220
0.0
230
1.0
 40
0.5176380902050525
 41
2.51175724980113
 42
2.700305999688676
  0
LINE
  5
C275
330
C270
100
AcDbEntity
  8
0
100
AcDbLine
 10
7.937815982857059
 20
-113.132223378453
 30
0.0
 11
8.668785734941515
 21
-113.5542489615884
 31
0.0
  0
LINE
  5
C276
330
C270
100
AcDbEntity
  8
0
100
AcDbLine
 10
8.668785734941337
 20
7.235805731116702
 30
0.0
 11
8.668785734941515
 21
-113.5542489615884
 31
0.0
  0
LINE
  5
C277
330
C270
100
AcDbEntity
  8
0
100
AcDbLine
 10
8.668785734941515
 20
-113.5542489615884
 30
0.0
 11
10.79010607850111
 21
-112.3295040901968
 31
0.0
  0
LINE
  5
C278
330
C270
100
AcDbEntity
  8
0
100
AcDbLine
 10
18.96284625545532
 20
39.66786642214717
 30
0.0
 11
10.79010607850139
 21
8.460550602508574
 31
0.0
  0
LINE
  5
C279
330
C270
100
AcDbEntity
  8
0
100
AcDbLine
 10
8.668785734941337
 20
7.235805731116702
 30
0.0
 11
16.84152591189569
 21
38.44312155075555
 31
0.0
  0
LINE
  5
C27A
330
C270
100
AcDbEntity
  8
0
100
AcDbLine
 10
16.84152591189569
 20
38.44312155075555
 30
0.0
 11
18.96284625545532
 21
39.66786642214717
 31
0.0
  0
LINE
  5
C27B
330
C270
100
AcDbEntity
  8
0
100
AcDbLine
 10
10.79010607850139
 20
8.460550602508574
 30
0.0
 11
8.668785734941337
 21
7.235805731116702
 31
0.0
  0
ELLIPSE
  5
C27C
330
C270
100
AcDbEntity
  8
0
100
AcDbEllipse
 10
11.4622959814591
 20
42.36531798005358
 30
0.0
 11
-0.8337956473795195
 21
0.5520732002288935
 31
0.0
210
0.0
220
0.0
230
1.0
 40
0.7846600913512796
 41
0.0779983288728021
 42
1.198023075403798
  0
SPLINE
  5
C27D
330
C270
100
AcDbEntity
  8
0
100
AcDbSpline
210
0.0
220
0.0
230
1.0
 70
     8
 71
     3
 72
    18
 73
    14
 74
     0
 42
0.000000001
 43
0.0000000001
 40
-0.8068545796853657
 40
-0.8068545796853657
 40
-0.8068545796853657
 40
-0.8068545796853657
 40
-0.6777094229505439
 40
-0.6777094229505439
 40
-0.4996954415939503
 40
-0.4996954415939503
 40
-0.3131469925253247
 40
-0.3131469925253247
 40
-0.1900102218698262
 40
-0.1900102218698262
 40
-0.0730808545653178
 40
-0.0730808545653178
 40
0.0
 40
0.0
 40
0.0
 40
0.0
 10
10.75518920027256
 20
41.95706968958972
 30
0.0
 10
10.90252000213437
 20
42.24109827493593
 30
0.0
 10
11.0443178932549
 20
42.60365849078303
 30
0.0
 10
11.4192257288699
 20
43.56503257248384
 30
0.0
 10
11.66881706654047
 20
44.19756981492901
 30
0.0
 10
12.29076014615311
 20
45.48881408472801
 30
0.0
 10
12.66908227537463
 20
46.14819794321124
 30
0.0
 10
13.35192112629924
 20
47.1593164996345
 30
0.0
 10
13.6367947060184
 20
47.54021558531506
 30
0.0
 10
14.17494263009274
 20
48.22685242224759
 30
0.0
 10
14.42877629016876
 20
48.53528404667351
 30
0.0
 10
14.78011832124691
 20
48.98945390079432
 30
0.0
 10
14.90032252451968
 20
49.15297358266834
 30
0.0
 10
14.9978298873918
 20
49.30553891793934
 30
0.0
  0
ELLIPSE
  5
C27E
330
C270
100
AcDbEntity
  8
0
100
AcDbEllipse
 10
14.99782988739178
 20
48.48904233701162
 30
0.0
 11
-0.8950072398365646
 21
0.4460516120810922
 31
0.0
210
0.0
220
0.0
230
1.0
 40
0.784660091351292
 41
5.085162231775795
 42
6.20518697830679
  0
ELLIPSE
  5
C27F
330
C270
100
AcDbEntity
  8
0
100
AcDbEllipse
 10
9.375892516127958
 20
41.80259887016926
 30
0.0
 11
-0.4440557184830186
 21
-0.895999173483174
 31
0.0
210
0.0
220
0.0
230
1.0
 40
0.6166825867284923
 41
4.673210178914489
 42
5.459858343614024
  0
ELLIPSE
  5
C280
330
C270
100
AcDbEntity
  8
0
100
AcDbEllipse
 10
8.527364378704106
 20
46.08902527566649
 30
0.0
 11
1.3002303346875
 21
-4.852525670595929
 31
0.0
210
0.0
220
0.0
230
1.0
 40
0.5176380902050525
 41
5.855547854923102
 42
6.712520614354349
  0
ELLIPSE
  5
C281
330
C270
100
AcDbEntity
  8
0
100
AcDbEllipse
 10
8.527364378704106
 20
46.08902527566649
 30
0.0
 11
1.3002303346875
 21
-4.852525670595929
 31
0.0
210
0.0
220
0.0
230
1.0
 40
0.5176380902050525
 41
5.595550581745641
 42
5.855547854923099
  0
ELLIPSE
  5
C282
330
C270
100
AcDbEntity
  8
0
100
AcDbEllipse
 10
10.54218024425483
 20
51.06151285789128
 30
0.0
 11
-0.1638799131657025
 21
0.9864802958299774
 31
0.0
210
0.0
220
0.0
230
1.0
 40
0.2257768980814006
 41
4.528811736611203
 42
5.648836483142193
  0
SPLINE
  5
C283
330
C270
100
AcDbEntity
  8
0
100
AcDbSpline
210
0.0
220
0.0
230
1.0
 70
     8
 71
     3
 72
    12
 73
     8
 74
     0
 42
0.000000001
 43
0.0000000001
 40
-0.8068546151509167
 40
-0.8068546151509167
 40
-0.8068546151509167
 40
-0.8068546151509167
 40
-0.6784220708506304
 40
-0.6784220708506304
 40
-0.5004688863820994
 40
-0.5004688863820994
 40
-0.392964742625419
 40
-0.392964742625419
 40
-0.392964742625419
 40
-0.392964742625419
 10
10.54218024425483
 20
51.87800943881902
 30
0.0
 10
10.07778478549007
 20
51.77907482733271
 30
0.0
 10
9.628981755977758
 20
51.59663817508046
 30
0.0
 10
8.637689853089023
 20
50.99541429192888
 30
0.0
 10
8.124181924872267
 20
50.51601999486504
 30
0.0
 10
7.418097943675629
 20
49.63187866253145
 30
0.0
 10
7.178025853035777
 20
49.27283046848588
 30
0.0
 10
6.969032604582013
 20
48.89704018357557
 30
0.0
  0
ELLIPSE
  5
C284
330
C270
100
AcDbEntity
  8
0
100
AcDbEllipse
 10
10.30553897175607
 20
49.16891401556068
 30
0.0
 11
-4.852525670595833
 21
-1.300230334687748
 31
0.0
210
0.0
220
0.0
230
1.0
 40
0.5176380902050477
 41
2.71225734641451
 42
4.526244578888839
  0
SPLINE
  5
C285
330
C270
100
AcDbEntity
  8
0
100
AcDbSpline
210
0.0
220
0.0
230
1.0
 70
     8
 71
     3
 72
    14
 73
    10
 74
     0
 42
0.000000001
 43
0.0000000001
 40
-0.403426022638972
 40
-0.403426022638972
 40
-0.403426022638972
 40
-0.403426022638972
 40
-0.3131986903740241
 40
-0.3131986903740241
 40
-0.1900502319990415
 40
-0.1900502319990415
 40
-0.0730962430765544
 40
-0.0730962430765544
 40
0.0
 40
0.0
 40
0.0
 40
0.0
 10
-12.50948869675265
 20
50.03122475620926
 30
0.0
 10
-12.68991695646789
 20
50.13541496881231
 30
0.0
 10
-12.88113060628358
 20
50.20851343823553
 30
0.0
 10
-13.35159451883012
 20
50.30354363163412
 30
0.0
 10
-13.63649292147354
 20
50.29676744605289
 30
0.0
 10
-14.17473485350531
 20
50.15562098139803
 30
0.0
 10
-14.42863525338598
 20
50.02695551141383
 30
0.0
 10
-14.78006763783878
 20
49.72810144688074
 30
0.0
 10
-14.90030199256014
 20
49.59170555041147
 30
0.0
 10
-14.99782988739181
 20
49.43910808971736
 30
0.0
  0
ELLIPSE
  5
C286
330
C270
100
AcDbEntity
  8
0
100
AcDbEllipse
 10
-14.99782988739177
 20
48.62261150878961
 30
0.0
 11
0.8950072398365328
 21
-0.4460516120811705
 31
0.0
210
0.0
220
0.0
230
1.0
 40
0.7846600913512944
 41
0.8235448316550755
 42
1.943569578186123
  0
SPLINE
  5
C287
330
C270
100
AcDbEntity
  8
0
100
AcDbSpline
210
0.0
220
0.0
230
1.0
 70
     8
 71
     3
 72
    18
 73
    14
 74
     0
 42
0.000000001
 43
0.0000000001
 40
0.0
 40
0.0
 40
0.0
 40
0.0
 40
0.0730962430765544
 40
0.0730962430765544
 40
0.1900502319990415
 40
0.1900502319990415
 40
0.3131986903740241
 40
0.3131986903740241
 40
0.4997515102259415
 40
0.4997515102259415
 40
0.6777598305332418
 40
0.6777598305332418
 40
0.7732860792406186
 40
0.7732860792406186
 40
0.7732860792406186
 40
0.7732860792406186
 10
-14.13281542024125
 20
48.83462525473655
 30
0.0
 10
-14.06343860797021
 20
48.92513629413927
 30
0.0
 10
-13.97599609066589
 20
49.00328460419342
 30
0.0
 10
-13.71586617134414
 20
49.16669455418553
 30
0.0
 10
-13.5239174869224
 20
49.2279072634407
 30
0.0
 10
-13.10870058138688
 20
49.27061953938428
 30
0.0
 10
-12.88461472535736
 20
49.24828248198348
 30
0.0
 10
-12.33563680982327
 20
49.09152516041778
 30
0.0
 10
-12.01994545079976
 20
48.90589874001936
 30
0.0
 10
-11.4765727232182
 20
48.39107212911406
 30
0.0
 10
-11.24491168856354
 20
48.06710293632907
 30
0.0
 10
-10.92228057727127
 20
47.48356738230668
 30
0.0
 10
-10.81541163001941
 20
47.26357585375651
 30
0.0
 10
-10.70921277457047
 20
47.03589223434863
 30
0.0
  0
ELLIPSE
  5
C288
330
C270
100
AcDbEntity
  8
0
100
AcDbEllipse
 10
-10.54218024425484
 20
46.05014098790984
 30
0.0
 11
-0.1638799131656954
 21
0.9864802958299796
 31
0.0
210
0.0
220
0.0
230
1.0
 40
0.2257768980813996
 41
5.648836483142211
 42
6.283185307179588
  0
SPLINE
  5
C289
330
C270
100
AcDbEntity
  8
0
100
AcDbSpline
210
0.0
220
0.0
230
1.0
 70
     8
 71
     3
 72
    12
 73
     8
 74
     0
 42
0.000000001
 43
0.0000000001
 40
-0.8068546158705512
 40
-0.8068546158705512
 40
-0.8068546158705512
 40
-0.8068546158705512
 40
-0.6784162359309401
 40
-0.6784162359309401
 40
-0.5004620811529767
 40
-0.5004620811529767
 40
-0.4034259952932575
 40
-0.4034259952932575
 40
-0.4034259952932575
 40
-0.4034259952932575
 10
-10.54218024425484
 20
46.86663756883759
 30
0.0
 10
-10.07776368457352
 20
46.96557667565421
 30
0.0
 10
-9.628941105466388
 20
47.06184119778874
 30
0.0
 10
-8.637634052235593
 20
47.20279844067197
 30
0.0
 10
-8.124128229134242
 20
47.2116417735205
 30
0.0
 10
-7.443943414348752
 20
47.0634144435542
 30
0.0
 10
-7.224979911615047
 20
46.98018564861865
 30
0.0
 10
-7.030922186521263
 20
46.86817249610983
 30
0.0
  0
ELLIPSE
  5
C28A
330
C270
100
AcDbEntity
  8
0
100
AcDbEllipse
 10
-10.30553897175608
 20
49.57573299209586
 30
0.0
 11
4.852525670595866
 21
1.300230334687733
 31
0.0
210
0.0
220
0.0
230
1.0
 40
0.517638090205041
 41
2.712257346414471
 42
4.526244578888843
  0
ELLIPSE
  5
C28B
330
C270
100
AcDbEntity
  8
0
100
AcDbEllipse
 10
-10.30553897175608
 20
48.75923641116813
 30
0.0
 11
-4.080576887746071
 21
-0.7357344851542866
 31
0.0
210
0.0
220
0.0
230
0.9999999999999998
 40
0.4274251230124718
 41
5.844164817253028
 42
6.75115843349007
  0
SPLINE
  5
C28C
330
C270
100
AcDbEntity
  8
0
100
AcDbSpline
210
0.0
220
0.0
230
1.0
 70
     8
 71
     3
 72
    20
 73
    16
 74
     0
 42
0.000000001
 43
0.0000000001
 40
0.025229752644457
 40
0.025229752644457
 40
0.025229752644457
 40
0.025229752644457
 40
0.0849947518121518
 40
0.0849947518121518
 40
0.1677016658694305
 40
0.1677016658694305
 40
0.2862958373753881
 40
0.2862958373753881
 40
0.4375746863367814
 40
0.4375746863367814
 40
0.5888535352981746
 40
0.5888535352981746
 40
0.7261017491025167
 40
0.7261017491025167
 40
0.7816239974514231
 40
0.7816239974514231
 40
0.7816239974514231
 40
0.7816239974514231
 10
14.05475548903325
 20
48.84625093113353
 30
0.0
 10
14.00917034851716
 20
48.76729515168948
 30
0.0
 10
13.94539444957434
 20
48.66906496733611
 30
0.0
 10
13.76040945012935
 20
48.40435709982831
 30
0.0
 10
13.62703627432643
 20
48.22613086783673
 30
0.0
 10
13.27194662200055
 20
47.75218520438031
 30
0.0
 10
13.03788935778319
 20
47.43861269505065
 30
0.0
 10
12.51154252347059
 20
46.67486517287821
 30
0.0
 10
12.22153487468988
 20
46.20948018399539
 30
0.0
 10
11.70546159815477
 20
45.26191524275374
 30
0.0
 10
11.47883975490595
 20
44.77885606802783
 30
0.0
 10
11.10797973471614
 20
43.93152329657543
 30
0.0
 10
10.95560449613492
 20
43.55931936983377
 30
0.0
 10
10.77269723260832
 20
43.17203528912916
 30
0.0
 10
10.72375338704802
 20
43.07678605037622
 30
0.0
 10
10.68140706532011
 20
43.00344006962983
 30
0.0
  0
SPLINE
  5
C28D
330
C270
100
AcDbEntity
  8
0
100
AcDbSpline
210
0.0
220
0.0
230
1.0
 70
     8
 71
     3
 72
    16
 73
    12
 74
     0
 42
0.000000001
 43
0.0000000001
 40
0.4034260226389712
 40
0.4034260226389712
 40
0.4034260226389712
 40
0.4034260226389712
 40
0.4841117339198476
 40
0.4841117339198476
 40
0.5647974452007241
 40
0.5647974452007241
 40
0.6454831564816005
 40
0.6454831564816005
 40
0.7261688677624769
 40
0.7261688677624769
 40
0.7927181217852124
 40
0.7927181217852124
 40
0.7927181217852124
 40
0.7927181217852124
 10
-12.50861785334915
 20
50.03118459650194
 30
0.0
 10
-12.29344910222592
 20
49.90695686011974
 30
0.0
 10
-12.09702325899956
 20
49.75303913213089
 30
0.0
 10
-11.74712364870577
 20
49.40504410055045
 30
0.0
 10
-11.59348383840946
 20
49.21124385340654
 30
0.0
 10
-11.32138683203844
 20
48.79905426496844
 30
0.0
 10
-11.20266633955368
 20
48.58052975893493
 30
0.0
 10
-10.98700997300616
 20
48.12737636286486
 30
0.0
 10
-10.88999489910265
 20
47.89254195983713
 30
0.0
 10
-10.72076835954033
 20
47.4569420800682
 30
0.0
 10
-10.64710501527342
 20
47.25723561295204
 30
0.0
 10
-10.57319891807062
 20
47.05887320555747
 30
0.0
  0
SPLINE
  5
C28E
330
C270
100
AcDbEntity
  8
0
100
AcDbSpline
210
0.0
220
0.0
230
1.0
 70
     8
 71
     3
 72
    16
 73
    12
 74
     0
 42
0.000000001
 43
0.0000000001
 40
0.4034259952932576
 40
0.4034259952932576
 40
0.4034259952932576
 40
0.4034259952932576
 40
0.4841117194087163
 40
0.4841117194087163
 40
0.564797443524175
 40
0.564797443524175
 40
0.6454831676396337
 40
0.6454831676396337
 40
0.7261688917550924
 40
0.7261688917550924
 40
0.806854615870551
 40
0.806854615870551
 40
0.806854615870551
 40
0.806854615870551
 10
-7.031392278297445
 20
46.86890693633355
 30
0.0
 10
-7.246561067565574
 20
46.9931346947387
 30
0.0
 10
-7.478070753514625
 20
47.08628564317563
 30
0.0
 10
-7.954393443786809
 20
47.21531012006973
 30
0.0
 10
-8.199049503483536
 20
47.25146594961177
 30
0.0
 10
-8.692064560528747
 20
47.28101399357234
 30
0.0
 10
-8.940672150746715
 20
47.27456670061075
 30
0.0
 10
-9.440942893348948
 20
47.23475385834212
 30
0.0
 10
-9.692824628819192
 20
47.20135392791195
 30
0.0
 10
-10.19902170656904
 20
47.12326804399804
 30
0.0
 10
-10.45362973841641
 20
47.07855651075009
 30
0.0
 10
-10.70606015742053
 20
47.03662128373983
 30
0.0
  0
SPLINE
  5
C28F
330
C270
100
AcDbEntity
  8
0
100
AcDbSpline
210
0.0
220
0.0
230
1.0
 70
     8
 71
     3
 72
    16
 73
    12
 74
     0
 42
0.000000001
 43
0.0000000001
 40
-0.9069936162370408
 40
-0.9069936162370408
 40
-0.9069936162370408
 40
-0.9069936162370408
 40
-0.7255948929896326
 40
-0.7255948929896326
 40
-0.5441961697422242
 40
-0.5441961697422242
 40
-0.3627974464948159
 40
-0.3627974464948159
 40
-0.1813987232474076
 40
-0.1813987232474076
 40
0.0000000000000006
 40
0.0000000000000006
 40
0.0000000000000006
 40
0.0000000000000006
 10
-10.70606015742054
 20
47.03662128373982
 30
0.0
 10
-10.97026667471863
 20
46.99272974196687
 30
0.0
 10
-11.23214186850076
 20
46.96237052978249
 30
0.0
 10
-11.74003663282651
 20
46.92927694291988
 30
0.0
 10
-11.98604896679957
 20
46.92655861035345
 30
0.0
 10
-12.45102548356213
 20
46.9474168208719
 30
0.0
 10
-12.66997300855213
 20
46.97102437724821
 30
0.0
 10
-13.06995284338495
 20
47.04062055153415
 30
0.0
 10
-13.25092894607564
 20
47.08665741498245
 30
0.0
 10
-13.56536217920629
 20
47.19341509043868
 30
0.0
 10
-13.69864874900039
 20
47.25414763931233
 30
0.0
 10
-13.80553897175608
 20
47.31586073819406
 30
0.0
  0
SPLINE
  5
C290
330
C270
100
AcDbEntity
  8
0
100
AcDbSpline
210
0.0
220
0.0
230
1.0
 70
     8
 71
     3
 72
     8
 73
     4
 74
     0
 42
0.000000001
 43
0.0000000001
 40
0.0
 40
0.0
 40
0.0
 40
0.0
 40
0.0252297526444573
 40
0.0252297526444573
 40
0.0252297526444573
 40
0.0252297526444573
 10
14.13281542024125
 20
48.98845867247388
 30
0.0
 10
14.10886945887322
 20
48.94219612497467
 30
0.0
 10
14.08277126335124
 20
48.89478668841613
 30
0.0
 10
14.05474527301874
 20
48.8462475038106
 30
0.0
  0
SPLINE
  5
C291
330
C270
100
AcDbEntity
  8
0
100
AcDbSpline
210
0.0
220
0.0
230
1.0
 70
     8
 71
     3
 72
     8
 73
     4
 74
     0
 42
0.000000001
 43
0.0000000001
 40
0.7816239974514231
 40
0.7816239974514231
 40
0.7816239974514231
 40
0.7816239974514231
 40
0.8068545796853657
 40
0.8068545796853657
 40
0.8068545796853657
 40
0.8068545796853657
 10
10.68141631191104
 20
43.00346438555236
 30
0.0
 10
10.65338740724671
 20
42.95491724334826
 30
0.0
 10
10.62537399869238
 20
42.90860484260494
 30
0.0
 10
10.59728151430857
 20
42.86473431551585
 30
0.0
  0
ELLIPSE
  5
C292
330
C270
100
AcDbEntity
  8
0
100
AcDbEllipse
 10
9.234471159890642
 20
46.49727356613037
 30
0.0
 11
0.1256039641371262
 21
-4.499590091588691
 31
0.0
210
0.0
220
0.0
230
1.0
 40
0.4835611851232655
 41
6.044065798986699
 42
6.901038558417946
  0
ELLIPSE
  5
C293
330
C270
100
AcDbEntity
  8
0
100
AcDbEllipse
 10
9.234471159890642
 20
46.49727356613037
 30
0.0
 11
0.1256039641371262
 21
-4.499590091588691
 31
0.0
210
0.0
220
0.0
230
1.0
 40
0.4835611851232655
 41
5.588323596500488
 42
6.044065798986697
  0
SPLINE
  5
C294
330
C270
100
AcDbEntity
  8
0
100
AcDbSpline
210
0.0
220
0.0
230
1.0
 70
     8
 71
     3
 72
    12
 73
     8
 74
     0
 42
0.000000001
 43
0.0000000001
 40
0.3362264105291246
 40
0.3362264105291246
 40
0.3362264105291246
 40
0.3362264105291246
 40
0.5004688863820994
 40
0.5004688863820994
 40
0.6784220708506304
 40
0.6784220708506304
 40
0.8068546151509167
 40
0.8068546151509167
 40
0.8068546151509167
 40
0.8068546151509167
 10
7.779274097256716
 20
47.8007136620114
 30
0.0
 10
8.012071890235517
 20
48.29236813058471
 30
0.0
 10
8.298062919689066
 20
48.76833601894052
 30
0.0
 10
8.9722944220455
 20
49.6695356728162
 30
0.0
 10
9.368895949295673
 20
50.0871145390063
 30
0.0
 10
10.11610393629355
 20
50.63366924834733
 30
0.0
 10
10.44940404415337
 20
50.80919934314878
 30
0.0
 10
10.79107818788854
 20
50.91781156313363
 30
0.0
  0
ELLIPSE
  5
C295
330
C270
100
AcDbEntity
  8
0
100
AcDbEllipse
 10
10.30553897175607
 20
48.35241743463296
 30
0.0
 11
3.959561308001061
 21
2.141018822035603
 31
0.0
210
0.0
220
0.0
230
1.0
 40
0.4835611851232641
 41
5.665332055941227
 42
7.479319288415273
  0
LINE
  5
C296
330
C270
100
AcDbEntity
  8
0
100
AcDbLine
 10
4.426145047821871
 20
55.40910400585268
 30
0.0
 11
10.54218024425483
 21
51.87800943881902
 31
0.0
  0
ELLIPSE
  5
C297
330
C270
100
AcDbEntity
  8
0
100
AcDbEllipse
 10
4.426145047821882
 20
50.51012452028629
 30
0.0
 11
2.999999999999917
 21
5.196152422706693
 31
0.0
210
0.0
220
0.0
230
1.0
 40
0.5773502691896154
 41
0.7853981633974385
 42
1.915351184662483
  0
LINE
  5
C298
330
C270
100
AcDbEntity
  8
0
100
AcDbLine
 10
14.99782988739179
 20
49.30553891793934
 30
0.0
 11
21.08416659901491
 21
45.79159077910516
 31
0.0
  0
LINE
  5
C299
330
C270
100
AcDbEntity
  8
0
100
AcDbLine
 10
-4.426145047822
 20
43.33554300180388
 30
0.0
 11
-10.54218024425484
 21
46.86663756883759
 31
0.0
  0
ELLIPSE
  5
C29A
330
C270
100
AcDbEntity
  8
0
100
AcDbEllipse
 10
-4.426145047822
 20
38.43656351623751
 30
0.0
 11
2.999999999999998
 21
5.196152422706653
 31
0.0
210
0.0
220
0.0
230
1.0
 40
0.5773502691896248
 41
5.497787143782137
 42
7.068583470577031
  0
LINE
  5
C29B
330
C270
100
AcDbEntity
  8
0
100
AcDbLine
 10
-14.99782988739181
 20
49.43910808971737
 30
0.0
 11
-18.17705748417851
 21
51.27463599853725
 31
0.0
  0
ELLIPSE
  5
C29C
330
C270
100
AcDbEntity
  8
0
100
AcDbEllipse
 10
-4.426145047822011
 20
38.43656351623751
 30
0.0
 11
1.5
 21
2.598076211353331
 31
0.0
210
0.0
220
0.0
230
1.0
 40
0.5773502691896244
 41
5.596852011188481
 42
6.969518603170691
  0
LINE
  5
C29D
330
C270
100
AcDbEntity
  8
0
100
AcDbLine
 10
-4.426145047822004
 20
41.11630529484236
 30
0.0
 11
-4.426145047822
 21
43.33554300180388
 31
0.0
  0
LINE
  5
C29E
330
C270
100
AcDbEntity
  8
0
100
AcDbLine
 10
-7.031392278297444
 20
46.86890693633355
 30
0.0
 11
-1.426145047822005
 21
43.63271593894417
 31
0.0
  0
LINE
  5
C29F
330
C270
100
AcDbEntity
  8
0
100
AcDbLine
 10
-18.08416659901476
 20
53.25022916569183
 30
0.0
 11
-12.50861785334915
 21
50.03118459650193
 31
0.0
  0
LINE
  5
C2A0
330
C270
100
AcDbEntity
  8
0
100
AcDbLine
 10
43.34157361304504
 20
58.64191071011899
 30
0.0
 11
21.08416659901491
 21
45.79159077910516
 31
0.0
  0
LINE
  5
C2A1
330
C270
100
AcDbEntity
  8
0
100
AcDbLine
 10
10.75518920027257
 20
41.95706968958972
 30
0.0
 11
16.84152591189569
 21
38.44312155075555
 31
0.0
  0
ELLIPSE
  5
C2A2
330
C270
100
AcDbEntity
  8
0
100
AcDbEllipse
 10
21.08416659901491
 20
40.89261129353878
 30
0.0
 11
-2.999999999999613
 21
-5.196152422706881
 31
0.0
210
0.0
220
0.0
230
1.0
 40
0.5773502691896148
 41
3.926990816986988
 42
5.497787143781888
  0
ELLIPSE
  5
C2A3
330
C270
100
AcDbEntity
  8
0
100
AcDbEllipse
 10
21.08416659901491
 20
40.89261129353878
 30
0.0
 11
1.500000000000119
 21
2.598076211353263
 31
0.0
210
0.0
220
0.0
230
1.0
 40
0.5773502691896152
 41
0.7853981633976766
 42
2.356194490192581
  0
LINE
  5
C2A4
330
C270
100
AcDbEntity
  8
0
100
AcDbLine
 10
8.668785734941419
 20
38.84422637559702
 30
0.0
 11
8.668785734941337
 21
7.235805731116702
 31
0.0
  0
LINE
  5
C2A5
330
C270
100
AcDbEntity
  8
0
100
AcDbLine
 10
8.668785734941419
 20
41.3943505797054
 30
0.0
 11
8.668785734941419
 21
38.84422637559702
 31
0.0
  0
LINE
  5
C2A6
330
C270
100
AcDbEntity
  8
0
100
AcDbLine
 10
21.08416659901492
 20
43.34210103632197
 30
0.0
 11
43.34157361304502
 21
56.1924209673358
 31
0.0
  0
LINE
  5
C2A7
330
C270
100
AcDbEntity
  8
0
100
AcDbLine
 10
16.05573714061797
 20
74.39539574253827
 30
0.0
 11
43.34157361304505
 21
58.64191071011898
 31
0.0
  0
LINE
  5
C2A8
330
C270
100
AcDbEntity
  8
0
100
AcDbLine
 10
-16.05573714061868
 20
24.3492512651184
 30
0.0
 11
-18.17705748417838
 21
25.57399613651001
 31
0.0
  0
LINE
  5
C2A9
330
C270
100
AcDbEntity
  8
0
100
AcDbLine
 10
45.46289395660462
 20
62.31614532429367
 30
0.0
 11
47.58421430016426
 21
63.54089019568528
 31
0.0
  0
LINE
  5
C2AA
330
C270
100
AcDbEntity
  8
0
100
AcDbLine
 10
18.17705748417756
 20
78.06963035671296
 30
0.0
 11
45.46289395660463
 21
62.31614532429367
 31
0.0
  0
LINE
  5
C2AB
330
C270
100
AcDbEntity
  8
0
100
AcDbLine
 10
43.34157361304502
 20
56.1924209673358
 30
0.0
 11
43.34157361304504
 21
58.64191071011899
 31
0.0
  0
ELLIPSE
  5
C2AC
330
C270
100
AcDbEntity
  8
0
100
AcDbEllipse
 10
43.3415736130451
 20
61.09140045290207
 30
0.0
 11
2.999999999999579
 21
5.196152422706823
 31
0.0
210
0.0
220
0.0
230
1.0
 40
0.5773502691896148
 41
3.926990816986975
 42
5.497787143781889
  0
ELLIPSE
  5
C2AD
330
C270
100
AcDbEntity
  8
0
100
AcDbEllipse
 10
43.34157361304508
 20
61.09140045290208
 30
0.0
 11
-1.500000000000075
 21
-2.598076211353195
 31
0.0
210
0.0
220
0.0
230
1.0
 40
0.5773502691896141
 41
0.7853981633976606
 42
2.356194490192574
  0
ELLIPSE
  5
C2AE
330
C270
100
AcDbEntity
  8
0
100
AcDbEllipse
 10
16.05573714061798
 20
76.84488548532137
 30
0.0
 11
-1.500000000000108
 21
-2.598076211353241
 31
0.0
210
0.0
220
0.0
230
1.0
 40
0.5773502691896155
 41
0.7853981633976588
 42
2.356194490192576
  0
LINE
  5
C2AF
330
C270
100
AcDbEntity
  8
0
100
AcDbLine
 10
-47.58421430016465
 20
40.10273629753775
 30
0.0
 11
-20.29837782773807
 21
24.34925126511828
 31
0.0
  0
ELLIPSE
  5
C2B0
330
C270
100
AcDbEntity
  8
0
100
AcDbEllipse
 10
-43.34157361304541
 20
42.5522260403209
 30
0.0
 11
-2.999999999999963
 21
-5.19615242270661
 31
0.0
210
0.0
220
0.0
230
1.0
 40
0.5773502691896251
 41
5.497787143782137
 42
6.283185307179591
  0
ELLIPSE
  5
C2B1
330
C270
100
AcDbEntity
  8
0
100
AcDbEllipse
 10
-16.05573714061881
 20
26.79874100790145
 30
0.0
 11
-2.999999999999984
 21
-5.196152422706656
 31
0.0
210
0.0
220
0.0
230
1.0
 40
0.5773502691896252
 41
5.497787143782131
 42
7.068583470577065
  0
LINE
  5
C2B2
330
C270
100
AcDbEntity
  8
0
100
AcDbLine
 10
-20.29837782773807
 20
24.34925126511828
 30
0.0
 11
-18.17705748417842
 21
25.57399613650988
 31
0.0
  0
ELLIPSE
  5
C2B3
330
C270
100
AcDbEntity
  8
0
100
AcDbEllipse
 10
-16.0557371406188
 20
26.79874100790145
 30
0.0
 11
-1.499999999999997
 21
-2.59807621135333
 31
0.0
210
0.0
220
0.0
230
1.0
 40
0.5773502691896257
 41
5.497787143782135
 42
7.068583470577092
  0
LINE
  5
C2B4
330
C270
100
AcDbEntity
  8
0
100
AcDbLine
 10
-19.05573714061854
 20
21.60258858519524
 30
0.0
 11
-46.34157361304514
 21
37.35607361761469
 31
0.0
  0
LINE
  5
C2B5
330
C270
100
AcDbEntity
  8
0
100
AcDbLine
 10
-0.7442197362144753
 20
64.6959361173246
 30
0.0
 11
16.05573714061797
 21
74.39539574253827
 31
0.0
  0
LINE
  5
C2B6
330
C270
100
AcDbEntity
  8
0
100
AcDbLine
 10
5.287401107307029
 20
57.13109529502929
 30
0.0
 11
-0.7442197362143333
 21
60.61345321268598
 31
0.0
  0
LINE
  5
C2B7
330
C270
100
AcDbEntity
  8
0
100
AcDbLine
 10
4.23122109561863
 20
55.29139136630707
 30
0.0
 11
-0.7442197362143288
 21
58.16396346990277
 31
0.0
  0
LINE
  5
C2B8
330
C270
100
AcDbEntity
  8
0
100
AcDbLine
 10
-0.7442197362143332
 20
60.61345321268598
 30
0.0
 11
-0.7442197362144753
 21
64.6959361173246
 31
0.0
  0
LINE
  5
C2B9
330
C270
100
AcDbEntity
  8
0
100
AcDbLine
 10
0.7442197362140525
 20
38.13119379497061
 30
0.0
 11
0.7442197362140758
 21
34.04871089033198
 31
0.0
  0
LINE
  5
C2BA
330
C270
100
AcDbEntity
  8
0
100
AcDbLine
 10
0.7442197362140758
 20
34.04871089033198
 30
0.0
 11
0.7442197362140868
 21
31.59922114754876
 31
0.0
  0
LINE
  5
C2BB
330
C270
100
AcDbEntity
  8
0
100
AcDbLine
 10
-0.7442197362143288
 20
58.16396346990277
 30
0.0
 11
-0.7442197362143332
 21
60.61345321268598
 31
0.0
  0
ELLIPSE
  5
C2BC
330
C270
100
AcDbEntity
  8
0
100
AcDbEllipse
 10
4.226740935527225
 20
56.51872285933345
 30
0.0
 11
1.500000000000001
 21
-0.0000000000000009
 31
0.0
210
0.0
220
0.0
230
1.0
 40
0.5773502691896262
 41
5.497787143782165
 42
7.068583470577054
  0
ELLIPSE
  5
C2BD
330
C270
100
AcDbEntity
  8
0
100
AcDbEllipse
 10
-4.226740935527397
 20
42.22592414832312
 30
0.0
 11
-1.500000000000001
 21
-0.0000000000000024
 31
0.0
210
0.0
220
0.0
230
1.0
 40
0.5773502691896248
 41
5.497787143782129
 42
7.068583470577038
  0
LINE
  5
C2BE
330
C270
100
AcDbEntity
  8
0
100
AcDbLine
 10
-5.287401107307216
 20
41.61355171262734
 30
0.0
 11
-5.287401107307214
 21
42.83829658401891
 31
0.0
  0
LINE
  5
C2BF
330
C270
100
AcDbEntity
  8
0
100
AcDbLine
 10
5.287401107307029
 20
57.13109529502929
 30
0.0
 11
5.287401107307028
 21
55.90635042363766
 31
0.0
  0
LINE
  5
C2C0
330
C270
100
AcDbEntity
  8
0
100
AcDbLine
 10
4.426145047821871
 20
55.40910400585268
 30
0.0
 11
5.287401107307077
 21
55.90635042363766
 31
0.0
  0
LINE
  5
C2C1
330
C270
100
AcDbEntity
  8
0
100
AcDbLine
 10
-4.426145047822
 20
43.33554300180388
 30
0.0
 11
-5.287401107307214
 21
42.83829658401891
 31
0.0
  0
LINE
  5
C2C2
330
C270
100
AcDbEntity
  8
0
100
AcDbLine
 10
0.7442197362140758
 20
34.04871089033198
 30
0.0
 11
-16.05573714061868
 21
24.3492512651184
 31
0.0
  0
LINE
  5
C2C3
330
C270
100
AcDbEntity
  8
0
100
AcDbLine
 10
-5.287401107307211
 20
41.61355171262735
 30
0.0
 11
0.7442197362140524
 21
38.13119379497061
 31
0.0
  0
LINE
  5
C2C4
330
C270
100
AcDbEntity
  8
0
100
AcDbLine
 10
-16.05573714061866
 20
21.89976152233519
 30
0.0
 11
0.7442197362140846
 21
31.59922114754876
 31
0.0
  0
LINE
  5
C2C5
330
C270
100
AcDbEntity
  8
0
100
AcDbLine
 10
-16.05573714061868
 20
24.3492512651184
 30
0.0
 11
-16.05573714061866
 21
21.89976152233519
 31
0.0
  0
ELLIPSE
  5
C2C6
330
C270
100
AcDbEntity
  8
0
100
AcDbEllipse
 10
-21.08416659901477
 20
48.05407674298518
 30
0.0
 11
2.99999999999998
 21
5.196152422706632
 31
0.0
210
0.0
220
0.0
230
0.9999999999999998
 40
0.5773502691896243
 41
0.0
 42
0.0305031727125504
  0
LINE
  5
C2C7
330
C270
100
AcDbEntity
  8
0
100
AcDbLine
 10
-10.7901060785011
 20
8.634438312375426
 30
0.0
 11
-10.7901060785011
 21
24.93987503350201
 31
0.0
  0
LINE
  5
C2C8
330
C270
100
AcDbEntity
  8
0
100
AcDbLine
 10
-10.79010607850092
 20
-112.1556163803296
 30
0.0
 11
-10.7901060785011
 21
8.634438312375429
 31
0.0
  0
LINE
  5
C2C9
330
C270
100
AcDbEntity
  8
0
100
AcDbLine
 10
-2.304824704262305
 20
-117.054595865896
 30
0.0
 11
-10.79010607850092
 21
-112.1556163803296
 31
0.0
  0
LINE
  5
C2CA
330
C270
100
AcDbEntity
  8
0
100
AcDbLine
 10
-2.304824704262305
 20
-117.054595865896
 30
0.0
 11
-2.304824704262323
 21
29.83885451906856
 31
0.0
  0
LINE
  5
C2CB
330
C270
100
AcDbEntity
  8
0
100
AcDbLine
 10
-7.125892516127834
 20
-2.82127823204104
 30
0.0
 11
-3.625892516127814
 21
-8.883456058532104
 31
0.0
  0
ELLIPSE
  5
C2CC
330
C270
100
AcDbEntity
  8
0
100
AcDbEllipse
 10
-4.375892516127811
 20
-9.316468760424321
 30
0.0
 11
0.7499999999999958
 21
-1.299038105676655
 31
0.0
210
0.0
220
0.0
230
1.0
 40
0.5773502691896272
 41
4.712388980384695
 42
7.853981633974474
  0
LINE
  5
C2CD
330
C270
100
AcDbEntity
  8
0
100
AcDbLine
 10
-5.125892516127811
 20
-9.749481462316564
 30
0.0
 11
-8.625892516127834
 21
-3.687303635825474
 31
0.0
  0
ELLIPSE
  5
C2CE
330
C270
100
AcDbEntity
  8
0
100
AcDbEllipse
 10
-7.875892516127839
 20
-3.254290933933239
 30
0.0
 11
-0.750000000000001
 21
1.299038105676642
 31
0.0
210
0.0
220
0.0
230
0.9999999999999998
 40
0.5773502691896273
 41
4.712388980384683
 42
7.853981633974491
  0
LINE
  5
C2CF
330
C270
100
AcDbEntity
  8
0
100
AcDbLine
 10
-3.625892516127806
 20
-8.883456058532113
 30
0.0
 11
-5.125892516127811
 21
-9.749481462316564
 31
0.0
  0
LINE
  5
C2D0
330
C270
100
AcDbEntity
  8
0
100
AcDbLine
 10
-7.125892516127832
 20
-2.82127823204104
 30
0.0
 11
-8.625892516127834
 21
-3.687303635825474
 31
0.0
  0
LINE
  5
C2D1
330
C270
100
AcDbEntity
  8
0
100
AcDbLine
 10
-7.125892516127833
 20
-19.15120985059558
 30
0.0
 11
-3.625892516127822
 21
-25.21338767708664
 31
0.0
  0
ELLIPSE
  5
C2D2
330
C270
100
AcDbEntity
  8
0
100
AcDbEllipse
 10
-4.375892516127802
 20
-25.64640037897885
 30
0.0
 11
0.7500000000000123
 21
-1.299038105676646
 31
0.0
210
0.0
220
0.0
230
0.9999999999999998
 40
0.5773502691896275
 41
4.712388980384668
 42
7.853981633974502
  0
LINE
  5
C2D3
330
C270
100
AcDbEntity
  8
0
100
AcDbLine
 10
-5.125892516127816
 20
-26.07941308087106
 30
0.0
 11
-8.625892516127821
 21
-20.01723525438002
 31
0.0
  0
ELLIPSE
  5
C2D4
330
C270
100
AcDbEntity
  8
0
100
AcDbEllipse
 10
-7.875892516127828
 20
-19.58422255248779
 30
0.0
 11
-0.7500000000000026
 21
1.299038105676641
 31
0.0
210
0.0
220
0.0
230
1.0
 40
0.5773502691896273
 41
4.712388980384682
 42
7.853981633974495
  0
LINE
  5
C2D5
330
C270
100
AcDbEntity
  8
0
100
AcDbLine
 10
-7.12589251612783
 20
-35.48114146915013
 30
0.0
 11
-3.625892516127803
 21
-41.54331929564119
 31
0.0
  0
ELLIPSE
  5
C2D6
330
C270
100
AcDbEntity
  8
0
100
AcDbEllipse
 10
-4.375892516127807
 20
-41.97633199753342
 30
0.0
 11
0.750000000000002
 21
-1.299038105676651
 31
0.0
210
0.0
220
0.0
230
0.9999999999999998
 40
0.5773502691896273
 41
4.712388980384671
 42
7.853981633974486
  0
LINE
  5
C2D7
330
C270
100
AcDbEntity
  8
0
100
AcDbLine
 10
-5.125892516127819
 20
-42.4093446994256
 30
0.0
 11
-8.6258925161278
 21
-36.34716687293457
 31
0.0
  0
ELLIPSE
  5
C2D8
330
C270
100
AcDbEntity
  8
0
100
AcDbEllipse
 10
-7.875892516127835
 20
-35.91415417104236
 30
0.0
 11
-0.7500000000000016
 21
1.299038105676641
 31
0.0
210
0.0
220
0.0
230
1.0
 40
0.5773502691896275
 41
4.71238898038469
 42
7.853981633974489
  0
LINE
  5
C2D9
330
C270
100
AcDbEntity
  8
0
100
AcDbLine
 10
-7.125892516127818
 20
-51.81107308770465
 30
0.0
 11
-3.625892516127801
 21
-57.87325091419571
 31
0.0
  0
ELLIPSE
  5
C2DA
330
C270
100
AcDbEntity
  8
0
100
AcDbEllipse
 10
-4.375892516127795
 20
-58.30626361608794
 30
0.0
 11
0.7500000000000037
 21
-1.29903810567665
 31
0.0
210
0.0
220
0.0
230
1.0
 40
0.5773502691896272
 41
4.712388980384693
 42
7.853981633974486
  0
LINE
  5
C2DB
330
C270
100
AcDbEntity
  8
0
100
AcDbLine
 10
-5.125892516127778
 20
-58.73927631798018
 30
0.0
 11
-8.625892516127809
 21
-52.67709849148911
 31
0.0
  0
ELLIPSE
  5
C2DC
330
C270
100
AcDbEntity
  8
0
100
AcDbEllipse
 10
-7.875892516127811
 20
-52.24408578959691
 30
0.0
 11
-0.7499999999999896
 21
1.299038105676649
 31
0.0
210
0.0
220
0.0
230
0.9999999999999998
 40
0.5773502691896272
 41
4.712388980384698
 42
7.853981633974471
  0
LINE
  5
C2DD
330
C270
100
AcDbEntity
  8
0
100
AcDbLine
 10
-7.125892516127815
 20
-68.14100470625918
 30
0.0
 11
-3.625892516127807
 21
-74.20318253275026
 31
0.0
  0
ELLIPSE
  5
C2DE
330
C270
100
AcDbEntity
  8
0
100
AcDbEllipse
 10
-4.375892516127787
 20
-74.63619523464247
 30
0.0
 11
0.7500000000000006
 21
-1.299038105676652
 31
0.0
210
0.0
220
0.0
230
0.9999999999999998
 40
0.5773502691896272
 41
4.71238898038468
 42
7.85398163397448
  0
LINE
  5
C2DF
330
C270
100
AcDbEntity
  8
0
100
AcDbLine
 10
-5.125892516127803
 20
-75.0692079365347
 30
0.0
 11
-8.625892516127814
 21
-69.00703011004366
 31
0.0
  0
ELLIPSE
  5
C2E0
330
C270
100
AcDbEntity
  8
0
100
AcDbEllipse
 10
-7.875892516127817
 20
-68.57401740815148
 30
0.0
 11
-0.7499999999999769
 21
1.299038105676656
 31
0.0
210
0.0
220
0.0
230
1.0
 40
0.5773502691896273
 41
4.712388980384703
 42
7.853981633974443
  0
LINE
  5
C2E1
330
C270
100
AcDbEntity
  8
0
100
AcDbLine
 10
-7.125892516127818
 20
-84.47093632481372
 30
0.0
 11
-3.625892516127782
 21
-90.5331141513048
 31
0.0
  0
ELLIPSE
  5
C2E2
330
C270
100
AcDbEntity
  8
0
100
AcDbEllipse
 10
-4.375892516127779
 20
-90.9661268531971
 30
0.0
 11
0.7500000000000319
 21
-1.299038105676634
 31
0.0
210
0.0
220
0.0
230
1.0
 40
0.5773502691896273
 41
4.712388980384688
 42
7.853981633974534
  0
LINE
  5
C2E3
330
C270
100
AcDbEntity
  8
0
100
AcDbLine
 10
-5.125892516127786
 20
-91.39913955508925
 30
0.0
 11
-8.625892516127798
 21
-85.33696172859819
 31
0.0
  0
ELLIPSE
  5
C2E4
330
C270
100
AcDbEntity
  8
0
100
AcDbEllipse
 10
-7.875892516127803
 20
-84.90394902670599
 30
0.0
 11
-0.7499999999999841
 21
1.299038105676652
 31
0.0
210
0.0
220
0.0
230
1.0
 40
0.5773502691896272
 41
4.712388980384719
 42
7.85398163397446
  0
LINE
  5
C2E5
330
C270
100
AcDbEntity
  8
0
100
AcDbLine
 10
-7.125892516127786
 20
-100.8008679433682
 30
0.0
 11
-3.625892516127799
 21
-106.8630457698593
 31
0.0
  0
ELLIPSE
  5
C2E6
330
C270
100
AcDbEntity
  8
0
100
AcDbEllipse
 10
-4.375892516127779
 20
-107.2960584717515
 30
0.0
 11
0.7500000000000099
 21
-1.299038105676647
 31
0.0
210
0.0
220
0.0
230
0.9999999999999998
 40
0.5773502691896273
 41
4.712388980384697
 42
7.853981633974502
  0
LINE
  5
C2E7
330
C270
100
AcDbEntity
  8
0
100
AcDbLine
 10
-5.125892516127804
 20
-107.7290711736437
 30
0.0
 11
-8.625892516127791
 21
-101.6668933471526
 31
0.0
  0
ELLIPSE
  5
C2E8
330
C270
100
AcDbEntity
  8
0
100
AcDbEllipse
 10
-7.875892516127802
 20
-101.2338806452605
 30
0.0
 11
-0.7499999999999898
 21
1.299038105676648
 31
0.0
210
0.0
220
0.0
230
1.0
 40
0.5773502691896273
 41
4.712388980384652
 42
7.853981633974459
  0
LINE
  5
C2E9
330
C270
100
AcDbEntity
  8
0
100
AcDbLine
 10
-3.625892516127784
 20
-106.8630457698593
 30
0.0
 11
-5.125892516127804
 21
-107.7290711736437
 31
0.0
  0
LINE
  5
C2EA
330
C270
100
AcDbEntity
  8
0
100
AcDbLine
 10
-7.125892516127819
 20
-100.8008679433682
 30
0.0
 11
-8.625892516127791
 21
-101.6668933471526
 31
0.0
  0
LINE
  5
C2EB
330
C270
100
AcDbEntity
  8
0
100
AcDbLine
 10
-3.62589251612778
 20
-90.5331141513048
 30
0.0
 11
-5.125892516127786
 21
-91.39913955508925
 31
0.0
  0
LINE
  5
C2EC
330
C270
100
AcDbEntity
  8
0
100
AcDbLine
 10
-7.125892516127818
 20
-84.47093632481374
 30
0.0
 11
-8.625892516127798
 21
-85.33696172859819
 31
0.0
  0
LINE
  5
C2ED
330
C270
100
AcDbEntity
  8
0
100
AcDbLine
 10
-3.625892516127808
 20
-74.20318253275026
 30
0.0
 11
-5.125892516127803
 21
-75.0692079365347
 31
0.0
  0
LINE
  5
C2EE
330
C270
100
AcDbEntity
  8
0
100
AcDbLine
 10
-7.125892516127843
 20
-68.1410047062592
 30
0.0
 11
-8.625892516127814
 21
-69.00703011004366
 31
0.0
  0
LINE
  5
C2EF
330
C270
100
AcDbEntity
  8
0
100
AcDbLine
 10
-3.625892516127791
 20
-57.87325091419574
 30
0.0
 11
-5.125892516127778
 21
-58.73927631798018
 31
0.0
  0
LINE
  5
C2F0
330
C270
100
AcDbEntity
  8
0
100
AcDbLine
 10
-7.125892516127829
 20
-51.81107308770465
 30
0.0
 11
-8.625892516127809
 21
-52.67709849148911
 31
0.0
  0
LINE
  5
C2F1
330
C270
100
AcDbEntity
  8
0
100
AcDbLine
 10
-3.62589251612782
 20
-41.54331929564115
 30
0.0
 11
-5.125892516127819
 21
-42.4093446994256
 31
0.0
  0
LINE
  5
C2F2
330
C270
100
AcDbEntity
  8
0
100
AcDbLine
 10
-7.125892516127835
 20
-35.48114146915013
 30
0.0
 11
-8.6258925161278
 21
-36.34716687293457
 31
0.0
  0
LINE
  5
C2F3
330
C270
100
AcDbEntity
  8
0
100
AcDbLine
 10
-3.625892516127829
 20
-25.21338767708662
 30
0.0
 11
-5.125892516127816
 21
-26.07941308087106
 31
0.0
  0
LINE
  5
C2F4
330
C270
100
AcDbEntity
  8
0
100
AcDbLine
 10
-7.125892516127829
 20
-19.15120985059558
 30
0.0
 11
-8.625892516127821
 21
-20.01723525438002
 31
0.0
  0
LINE
  5
C2F5
330
C270
100
AcDbEntity
  8
0
100
AcDbLine
 10
-13.72775000617616
 20
23.24382552107556
 30
0.0
 11
-10.7901060785011
 21
8.634438312375426
 31
0.0
  0
LINE
  5
C2F6
330
C270
100
AcDbEntity
  8
0
100
AcDbLine
 10
0.9611115194853793
 20
48.64746382841684
 30
0.0
 11
-0.0155929438861303
 21
50.28515004085502
 31
0.0
  0
ELLIPSE
  5
C2F7
330
C270
100
AcDbEntity
  8
0
100
AcDbEllipse
 10
1.937815982856935
 20
47.00977761597915
 30
0.0
 11
3.000000000000015
 21
0.0000000000001705
 31
0.0
210
0.0
220
0.0
230
1.0
 40
0.5773502691895161
 41
4.677178363873931
 42
8.1855941918534
  0
LINE
  5
C2F8
330
C270
100
AcDbEntity
  8
0
100
AcDbLine
 10
1.832205958813142
 20
45.27880038496912
 30
0.0
 11
1.726595934769352
 21
43.54782315395947
 31
0.0
  0
ELLIPSE
  5
C2F9
330
C270
100
AcDbEntity
  8
0
100
AcDbEllipse
 10
1.937815982856935
 20
47.00977761597915
 30
0.0
 11
6.000000000000047
 21
0.00000000000002
 31
0.0
210
0.0
220
0.0
230
1.0
 40
0.5773502691896838
 41
4.677178363873963
 42
8.185594191853423
  0
LINE
  5
C2FA
330
C270
100
AcDbEntity
  8
0
100
AcDbLine
 10
-0.0155929438861304
 20
50.28515004085502
 30
0.0
 11
-0.9611115194854438
 21
50.09718317923961
 31
0.0
  0
LINE
  5
C2FB
330
C270
100
AcDbEntity
  8
0
100
AcDbLine
 10
0.015592943886066
 20
48.45949696680143
 30
0.0
 11
-0.9611115194854436
 21
50.09718317923961
 31
0.0
  0
LINE
  5
C2FC
330
C270
100
AcDbEntity
  8
0
100
AcDbLine
 10
0.015592943886066
 20
48.45949696680143
 30
0.0
 11
0.9611115194853793
 21
48.64746382841684
 31
0.0
  0
LINE
  5
C2FD
330
C270
100
AcDbEntity
  8
0
100
AcDbLine
 10
-1.726595934769345
 20
50.29784436813073
 30
0.0
 11
-1.726595934769347
 21
55.19682385369709
 31
0.0
  0
LINE
  5
C2FE
330
C270
100
AcDbEntity
  8
0
100
AcDbLine
 10
-1.832205958813147
 20
53.46584662268745
 30
0.0
 11
-1.726595934769347
 21
55.19682385369709
 31
0.0
  0
LINE
  5
C2FF
330
C270
100
AcDbEntity
  8
0
100
AcDbLine
 10
-1.832205958813153
 20
50.00389216066821
 30
0.0
 11
-1.832205958813147
 21
53.46584662268745
 31
0.0
  0
LINE
  5
C300
330
C270
100
AcDbEntity
  8
0
100
AcDbLine
 10
1.72659593476936
 20
38.64884366839317
 30
0.0
 11
1.726595934769352
 21
43.54782315395947
 31
0.0
  0
ELLIPSE
  5
C301
330
C270
100
AcDbEntity
  8
0
100
AcDbEllipse
 10
-1.93781598285694
 20
51.73486939167786
 30
0.0
 11
-2.999999999999988
 21
0.0000000000000265
 31
0.0
210
0.0
220
0.0
230
1.0
 40
0.577350269189644
 41
4.67717836387397
 42
8.185594191853422
  0
ELLIPSE
  5
C302
330
C270
100
AcDbEntity
  8
0
100
AcDbEllipse
 10
-1.93781598285694
 20
51.73486939167786
 30
0.0
 11
-6.000000000000007
 21
-0.0000000000000002
 31
0.0
210
0.0
220
0.0
230
1.0
 40
0.577350269189616
 41
4.677178363873963
 42
8.185594191853416
  0
ELLIPSE
  5
C303
330
C270
100
AcDbEntity
  8
0
100
AcDbEllipse
 10
32.91174859054311
 20
113.2451195596606
 30
0.0
 11
1.249999999999908
 21
-2.165063509461155
 31
0.0
210
0.0
220
0.0
230
1.0
 40
0.5773502691896356
 41
0.0
 42
6.283185307179586
  0
ELLIPSE
  5
C304
330
C270
100
AcDbEntity
  8
0
100
AcDbEllipse
 10
35.03306893410272
 20
114.4698644310522
 30
0.0
 11
1.25000000000017
 21
-2.165063509461004
 31
0.0
210
0.0
220
0.0
230
1.0
 40
0.5773502691896359
 41
4.154790153684986
 42
5.269987807084143
  0
ELLIPSE
  5
C305
330
C270
100
AcDbEntity
  8
0
100
AcDbEllipse
 10
39.80603970711211
 20
99.05849146604143
 30
0.0
 11
1.249999999999908
 21
-2.165063509461155
 31
0.0
210
0.0
220
0.0
230
1.0
 40
0.5773502691896356
 41
0.0
 42
6.283185307179586
  0
ELLIPSE
  5
C306
330
C270
100
AcDbEntity
  8
0
100
AcDbEllipse
 10
41.9273600506717
 20
100.283236337433
 30
0.0
 11
1.25000000000017
 21
-2.165063509461004
 31
0.0
210
0.0
220
0.0
230
1.0
 40
0.577350269189636
 41
4.154790153685002
 42
5.269987807084152
  0
ELLIPSE
  5
C307
330
C270
100
AcDbEntity
  8
0
100
AcDbEllipse
 10
24.54101851485651
 20
127.4676735028406
 30
0.0
 11
2.124999999999845
 21
-3.680607966083965
 31
0.0
210
0.0
220
0.0
230
1.0
 40
0.5773502691896355
 41
0.0
 42
6.283185307179586
  0
ELLIPSE
  5
C308
330
C270
100
AcDbEntity
  8
0
100
AcDbEllipse
 10
26.66233885841612
 20
128.6924183742322
 30
0.0
 11
2.125000000000285
 21
-3.680607966083711
 31
0.0
210
0.0
220
0.0
230
1.0
 40
0.5773502691896346
 41
3.664191975904925
 42
5.760585984863705
  0
ELLIPSE
  5
C309
330
C270
100
AcDbEntity
  8
0
100
AcDbEllipse
 10
-32.9117485905438
 20
77.76364109282922
 30
0.0
 11
1.250000000000133
 21
-2.16506350946102
 31
0.0
210
0.0
220
0.0
230
0.9999999999999998
 40
0.5773502691896259
 41
4.154790153685031
 42
5.269987807084102
  0
ELLIPSE
  5
C30A
330
C270
100
AcDbEntity
  8
0
100
AcDbEllipse
 10
-35.03306893410345
 20
76.53889622143762
 30
0.0
 11
1.249999999999878
 21
-2.165063509461169
 31
0.0
210
0.0
220
0.0
230
1.0
 40
0.5773502691896258
 41
0.0
 42
6.283185307179586
  0
ELLIPSE
  5
C30B
330
C270
100
AcDbEntity
  8
0
100
AcDbEllipse
 10
-39.80603970711264
 20
71.53785466325529
 30
0.0
 11
1.250000000000133
 21
-2.165063509461021
 31
0.0
210
0.0
220
0.0
230
0.9999999999999998
 40
0.5773502691896255
 41
4.154790153685031
 42
5.269987807084096
  0
ELLIPSE
  5
C30C
330
C270
100
AcDbEntity
  8
0
100
AcDbEllipse
 10
-41.92736005067231
 20
70.31310979186369
 30
0.0
 11
1.249999999999878
 21
-2.165063509461169
 31
0.0
210
0.0
220
0.0
230
1.0
 40
0.5773502691896258
 41
0.0
 42
6.283185307179586
  0
ELLIPSE
  5
C30D
330
C270
100
AcDbEntity
  8
0
100
AcDbEllipse
 10
-24.54101851485739
 20
82.32050851098682
 30
0.0
 11
2.12500000000023
 21
-3.680607966083736
 31
0.0
210
0.0
220
0.0
230
0.9999999999999998
 40
0.5773502691896266
 41
3.664191975904934
 42
5.760585984863696
  0
ELLIPSE
  5
C30E
330
C270
100
AcDbEntity
  8
0
100
AcDbEllipse
 10
-26.66233885841702
 20
81.09576363959522
 30
0.0
 11
2.124999999999793
 21
-3.680607966083988
 31
0.0
210
0.0
220
0.0
230
1.0
 40
0.5773502691896255
 41
0.0
 42
6.283185307179586
  0
LINE
  5
C30F
330
C270
100
AcDbEntity
  8
0
100
AcDbLine
 10
47.58421430016414
 20
119.8791542796985
 30
0.0
 11
44.04868039423132
 21
126.0028786366564
 31
0.0
  0
LINE
  5
C310
330
C270
100
AcDbEntity
  8
0
100
AcDbLine
 10
44.04868039423132
 20
126.0028786366564
 30
0.0
 11
41.92736005067174
 21
124.7781337652648
 31
0.0
  0
LINE
  5
C311
330
C270
100
AcDbEntity
  8
0
100
AcDbLine
 10
41.92736005067174
 20
124.7781337652648
 30
0.0
 11
45.46289395660458
 21
118.6544094083069
 31
0.0
  0
LINE
  5
C312
330
C270
100
AcDbEntity
  8
0
100
AcDbLine
 10
45.46289395660458
 20
118.6544094083069
 30
0.0
 11
47.58421430016414
 21
119.8791542796985
 31
0.0
  0
LINE
  5
C313
330
C270
100
AcDbEntity
  8
0
100
AcDbLine
 10
18.17705748417757
 20
134.4078944407262
 30
0.0
 11
21.71259139011031
 21
136.4491358930456
 31
0.0
  0
LINE
  5
C314
330
C270
100
AcDbEntity
  8
0
100
AcDbLine
 10
-23.83391173367086
 20
86.8112397060894
 30
0.0
 11
-20.29837782773826
 21
80.68751534913154
 31
0.0
  0
LINE
  5
C315
330
C270
100
AcDbEntity
  8
0
100
AcDbLine
 10
-20.29837782773826
 20
80.68751534913154
 30
0.0
 11
-18.17705748417861
 21
81.91226022052312
 31
0.0
  0
LINE
  5
C316
330
C270
100
AcDbEntity
  8
0
100
AcDbLine
 10
-18.17705748417861
 20
81.91226022052312
 30
0.0
 11
-21.71259139011123
 21
88.03598457748098
 31
0.0
  0
LINE
  5
C317
330
C270
100
AcDbEntity
  8
0
100
AcDbLine
 10
-21.71259139011123
 20
88.03598457748098
 30
0.0
 11
-23.83391173367086
 21
86.8112397060894
 31
0.0
  0
LINE
  5
C318
330
C270
100
AcDbEntity
  8
0
100
AcDbLine
 10
-44.04868039423196
 20
98.48224183387026
 30
0.0
 11
-41.92736005067231
 21
99.70698670526187
 31
0.0
  0
LINE
  5
C319
330
C270
100
AcDbEntity
  8
0
100
AcDbLine
 10
-47.5842143001647
 20
96.44100038155094
 30
0.0
 11
-44.04868039423196
 21
98.48224183387026
 31
0.0
  0
LINE
  5
C31A
330
C270
100
AcDbEntity
  8
0
100
AcDbLine
 10
21.71259139011031
 20
136.4491358930456
 30
0.0
 11
23.83391173366991
 21
137.6738807644372
 31
0.0
  0
LINE
  5
C31B
330
C270
100
AcDbEntity
  8
0
100
AcDbLine
 10
45.46289395660458
 20
118.6544094083069
 30
0.0
 11
45.46289395660462
 21
62.31614532429367
 31
0.0
  0
LINE
  5
C31C
330
C270
100
AcDbEntity
  8
0
100
AcDbLine
 10
47.58421430016426
 20
63.54089019568528
 30
0.0
 11
47.58421430016414
 21
119.8791542796985
 31
0.0
  0
LINE
  5
C31D
330
C270
100
AcDbEntity
  8
0
100
AcDbLine
 10
41.92736005067174
 20
124.7781337652648
 30
0.0
 11
21.71259139011031
 21
136.4491358930456
 31
0.0
  0
LINE
  5
C31E
330
C270
100
AcDbEntity
  8
0
100
AcDbLine
 10
18.17705748417757
 20
134.4078944407262
 30
0.0
 11
18.17705748417756
 21
78.06963035671296
 31
0.0
  0
LINE
  5
C31F
330
C270
100
AcDbEntity
  8
0
100
AcDbLine
 10
-41.92736005067231
 20
99.70698670526187
 30
0.0
 11
-21.71259139011123
 21
88.03598457748098
 31
0.0
  0
LINE
  5
C320
330
C270
100
AcDbEntity
  8
0
100
AcDbLine
 10
-44.04868039423196
 20
98.48224183387026
 30
0.0
 11
-23.83391173367086
 21
86.8112397060894
 31
0.0
  0
LINE
  5
C321
330
C270
100
AcDbEntity
  8
0
100
AcDbLine
 10
-18.17705748417861
 20
81.91226022052312
 30
0.0
 11
-18.17705748417842
 21
25.57399613650988
 31
0.0
  0
LINE
  5
C322
330
C270
100
AcDbEntity
  8
0
100
AcDbLine
 10
-47.58421430016465
 20
40.10273629753775
 30
0.0
 11
-47.5842143001647
 21
96.44100038155094
 31
0.0
  0
LINE
  5
C323
330
C270
100
AcDbEntity
  8
0
100
AcDbLine
 10
44.04868039423132
 20
126.0028786366564
 30
0.0
 11
23.83391173366992
 21
137.6738807644372
 31
0.0
  0
LINE
  5
C324
330
C270
100
AcDbEntity
  8
0
100
AcDbLine
 10
-20.29837782773826
 20
80.68751534913154
 30
0.0
 11
-20.29837782773807
 21
24.34925126511828
 31
0.0
  0
LINE
  5
C325
330
C270
100
AcDbEntity
  8
0
100
AcDbLine
 10
0.9611115194853793
 20
48.64746382841684
 30
0.0
 11
0.9611115194853848
 21
39.27562258271822
 31
0.0
  0
LINE
  5
C326
330
C270
100
AcDbEntity
  8
0
100
AcDbLine
 10
0.015592943886066
 20
48.45949696680143
 30
0.0
 11
0.0155929438860709
 21
39.98534766289865
 31
0.0
  0
LINE
  5
C327
330
C270
100
AcDbEntity
  8
0
100
AcDbLine
 10
-7.937815982856957
 20
47.2025034879378
 30
0.0
 11
-7.937815982856958
 21
51.73486939167784
 31
0.0
  0
LINE
  5
C328
330
C270
100
AcDbEntity
  8
0
100
AcDbLine
 10
7.93781598285705
 20
-114.605106123113
 30
0.0
 11
7.93781598285701
 21
47.00977761597915
 31
0.0
  0
LINE
  5
C329
330
C270
100
AcDbEntity
  8
0
100
AcDbLine
 10
-1.726595934769345
 20
50.29784436813073
 30
0.0
 11
-1.744376076149143
 21
50.00642297919324
 31
0.0
  0
SPLINE
  5
C32A
330
C270
100
AcDbEntity
  8
0
100
AcDbSpline
210
0.0
220
0.0
230
1.0
 70
     8
 71
     3
 72
    14
 73
    10
 74
     0
 42
0.000000001
 43
0.0000000001
 40
-0.3483661581039857
 40
-0.3483661581039857
 40
-0.3483661581039857
 40
-0.3483661581039857
 40
0.4440817313539139
 40
0.4440817313539139
 40
0.4440817313539139
 40
1.56916514439576
 40
1.56916514439576
 40
1.56916514439576
 40
2.356194490192133
 40
2.356194490192133
 40
2.356194490192133
 40
2.356194490192133
 10
1.720898725392241
 20
39.86735122495105
 30
0.0
 10
1.592402717395018
 20
39.58148746935527
 30
0.0
 10
1.363880136819801
 20
39.35725998115054
 30
0.0
 10
1.095063262947708
 20
39.29439845833617
 30
0.0
 10
0.7134086330815748
 20
39.20515037328495
 30
0.0
 10
0.2962126343332002
 20
39.45914483716478
 30
0.0
 10
0.0628833958360677
 20
39.89124834495914
 30
0.0
 10
-0.1003373536664712
 20
40.19351761416491
 30
0.0
 10
-0.1835043607028244
 20
40.56474987405439
 30
0.0
 10
-0.1835043607028688
 20
40.88605325902069
 30
0.0
  0
LINE
  5
C32B
330
C270
100
AcDbEntity
  8
0
100
AcDbLine
 10
-2.105420591967704
 20
39.77643440553995
 30
0.0
 11
-0.1835043607027101
 21
40.88605325902071
 31
0.0
  0
SPLINE
  5
C32C
330
C270
100
AcDbEntity
  8
0
100
AcDbSpline
210
0.0
220
0.0
230
1.0
 70
     8
 71
     3
 72
     8
 73
     4
 74
     0
 42
0.000000001
 43
0.0000000001
 40
1.379729697021947
 40
1.379729697021947
 40
1.379729697021947
 40
1.379729697021947
 40
2.356194490192194
 40
2.356194490192194
 40
2.356194490192194
 40
2.356194490192194
 10
0.7436418130471337
 20
37.70135174974203
 30
0.0
 10
1.33408872022589
 20
37.85590033502032
 30
0.0
 10
1.726595934768829
 20
38.25020358588313
 30
0.0
 10
1.726595934768942
 20
38.64884366839303
 30
0.0
  0
SPLINE
  5
C32D
330
C270
100
AcDbEntity
  8
0
100
AcDbSpline
210
0.0
220
0.0
230
1.0
 70
     8
 71
     3
 72
     8
 73
     4
 74
     0
 42
0.000000001
 43
0.0000000001
 40
2.120201833790617
 40
2.120201833790617
 40
2.120201833790617
 40
2.120201833790617
 40
2.3561944901923
 40
2.3561944901923
 40
2.3561944901923
 40
2.3561944901923
 10
-1.660564039123135
 20
50.01177815089179
 30
0.0
 10
-1.70366976822452
 20
50.10575101644455
 30
0.0
 10
-1.726595934769436
 20
50.2015007695927
 30
0.0
 10
-1.726595934769442
 20
50.29784436813073
 30
0.0
  0
ELLIPSE
  5
C32E
330
C270
100
AcDbEntity
  8
0
100
AcDbEllipse
 10
1.937815982856974
 20
-114.605106123113
 30
0.0
 11
6.000000000000017
 21
0.0000000000003594
 31
0.0
210
0.0
220
0.0
230
1.0
 40
0.5773502691896254
 41
3.926990816987
 42
6.283185307179203
  0
ENDBLK
  5
C272
330
C270
100
AcDbEntity
  8
0
100
AcDbBlockEnd
  0
ENDSEC
  0
SECTION
  2
ENTITIES
  0
INSERT
  5
C32F
330
1F
100
AcDbEntity
  8
0
100
AcDbBlockReference
  2
PBWS90-Front
 10
0.0
 20
0.0
 30
0.0
  0
INSERT
  5
C330
330
1F
100
AcDbEntity
  8
0
100
AcDbBlockReference
  2
PBWS90-Left
 10
147.8010978852956
 20
0.0
 30
0.0
  0
INSERT
  5
C331
330
1F
100
AcDbEntity
  8
0
100
AcDbBlockReference
  2
PBWS90-Right
 10
-149.7755824361811
 20
0.0
 30
0.0
  0
INSERT
  5
C332
330
1F
100
AcDbEntity
  8
0
100
AcDbBlockReference
  2
PBWS90-Top
 10
0.0
 20
-327.4310989424797
 30
0.0
  0
INSERT
  5
C333
330
1F
100
AcDbEntity
  8
0
100
AcDbBlockReference
  2
PBWS90-Bottom
 10
0.0
 20
206.4940989424798
 30
0.0
  0
INSERT
  5
C334
330
1F
100
AcDbEntity
  8
0
100
AcDbBlockReference
  2
PBWS90-ISO
 10
148.3723132429816
 20
-418.0919807644377
 30
0.0
  0
MTEXT
  5
C335
330
1F
100
AcDbEntity
  8
0
100
AcDbMText
 10
0.0
 20
-458.8991999998038
 30
0.0
 40
20.35506824365187
 41
0.0
 71
     5
 72
     5
  1
PBWS90Z
 73
     1
 44
1.0
1001
ACAD
1000
MTEXTBEGIN
1070
    73
1070
     1
1070
    44
1040
1.0
1070
    74
1070
     0
1000
MTEXTEND
  0
ENDSEC
  0
SECTION
  2
OBJECTS
  0
DICTIONARY
  5
C
330
0
100
AcDbDictionary
281
     1
  3
ACAD_CIP_PREVIOUS_PRODUCT_INFO
350
216
  3
ACAD_COLOR
350
6B
  3
ACAD_DETAILVIEWSTYLE
350
21B
  3
ACAD_GROUP
350
D
  3
ACAD_LAYOUT
350
1A
  3
ACAD_MATERIAL
350
6A
  3
ACAD_MLEADERSTYLE
350
12D
  3
ACAD_MLINESTYLE
350
17
  3
ACAD_PLOTSETTINGS
350
19
  3
ACAD_PLOTSTYLENAME
350
E
  3
ACAD_SCALELIST
350
10C
  3
ACAD_SECTIONVIEWSTYLE
350
219
  3
ACAD_TABLESTYLE
350
7E
  3
ACAD_VISUALSTYLE
350
EF
  3
ACDB_RECOMPOSE_DATA
350
C436
  3
AcDbVariableDictionary
350
5E
  3
DWGPROPS
350
C437
  0
DICTIONARY
  5
C386
330
8
100
AcDbDictionary
280
     1
281
     1
  0
DICTIONARY
  5
1FF
330
2
100
AcDbDictionary
280
     1
281
     1
  3
ACAD_LAYERSTATES
360
200
  0
DICTIONARY
  5
13C
330
10
100
AcDbDictionary
280
     1
281
     1
  0
DICTIONARY
  5
1CE
330
1F
100
AcDbDictionary
280
     1
281
     1
  3
ACAD_LAYOUTSELFREF
360
C38E
  0
DICTIONARY
  5
C339
330
D2
100
AcDbDictionary
280
     1
281
     1
  3
ACAD_LAYOUTSELFREF
360
C397
  0
DICTIONARY
  5
C33B
330
D6
100
AcDbDictionary
280
     1
281
     1
  3
ACAD_LAYOUTSELFREF
360
C39A
  0
XRECORD
  5
216
102
{ACAD_REACTORS
330
C
102
}
330
C
100
AcDbXrecord
280
     1
300
ACD
300
2021
300

  0
DICTIONARY
  5
6B
102
{ACAD_REACTORS
330
C
102
}
330
C
100
AcDbDictionary
281
     1
  0
DICTIONARY
  5
21B
102
{ACAD_REACTORS
330
C
102
}
330
C
100
AcDbDictionary
281
     1
  3
Metric50
350
21C
  0
DICTIONARY
  5
D
102
{ACAD_REACTORS
330
C
102
}
330
C
100
AcDbDictionary
281
     1
  0
DICTIONARY
  5
1A
102
{ACAD_REACTORS
330
C
102
}
330
C
100
AcDbDictionary
281
     1
  3
Layout1
350
D3
  3
Layout2
350
D7
  3
Model
350
22
  0
DICTIONARY
  5
6A
102
{ACAD_REACTORS
330
C
102
}
330
C
100
AcDbDictionary
281
     1
  3
ByBlock
350
ED
  3
ByLayer
350
EC
  3
Global
350
EE
  0
DICTIONARY
  5
12D
102
{ACAD_REACTORS
330
C
102
}
330
C
100
AcDbDictionary
281
     1
  3
Standard
350
12E
  0
DICTIONARY
  5
17
102
{ACAD_REACTORS
330
C
102
}
330
C
100
AcDbDictionary
281
     1
  3
Standard
350
18
  0
DICTIONARY
  5
19
102
{ACAD_REACTORS
330
C
102
}
330
C
100
AcDbDictionary
281
     1
  0
ACDBDICTIONARYWDFLT
  5
E
102
{ACAD_REACTORS
330
C
102
}
330
C
100
AcDbDictionary
281
     1
  3
Normal
350
F
100
AcDbDictionaryWithDefault
340
F
  0
DICTIONARY
  5
10C
102
{ACAD_REACTORS
330
C
102
}
330
C
100
AcDbDictionary
281
     1
  3
A0
350
10D
  3
A1
350
1BE
  3
A2
350
1BF
  3
A3
350
1C0
  3
A4
350
1C1
  3
A5
350
1C2
  3
A6
350
1C3
  3
A7
350
1C4
  3
A8
350
1C5
  3
A9
350
1C6
  3
B0
350
1C7
  3
B1
350
1C8
  3
B2
350
1C9
  3
B3
350
1CA
  3
B4
350
1CB
  3
B5
350
1CC
  3
B6
350
1CD
  0
DICTIONARY
  5
219
102
{ACAD_REACTORS
330
C
102
}
330
C
100
AcDbDictionary
281
     1
  3
Metric50
350
21A
  0
DICTIONARY
  5
7E
102
{ACAD_REACTORS
330
C
102
}
330
C
100
AcDbDictionary
281
     1
  3
Standard
350
7F
  0
DICTIONARY
  5
EF
102
{ACAD_REACTORS
330
C
102
}
330
C
100
AcDbDictionary
281
     1
  3
2dWireframe
350
F5
  3
Basic
350
F4
  3
Brighten
350
FB
  3
ColorChange
350
FF
  3
Conceptual
350
F8
  3
Dim
350
FA
  3
EdgeColorOff
350
1E6
  3
Facepattern
350
FE
  3
Flat
350
F0
  3
FlatWithEdges
350
F1
  3
Gouraud
350
F2
  3
GouraudWithEdges
350
F3
  3
Hidden
350
F7
  3
JitterOff
350
1E4
  3
Linepattern
350
FD
  3
OverhangOff
350
1E5
  3
Realistic
350
F9
  3
Shaded
350
1F3
  3
Shaded with edges
350
1F2
  3
Shades of Gray
350
1EF
  3
Sketchy
350
1F0
  3
Thicken
350
FC
  3
Wireframe
350
F6
  3
X-Ray
350
1F1
  0
XRECORD
  5
C436
102
{ACAD_REACTORS
330
C
102
}
330
C
100
AcDbXrecord
280
     1
 90
        1
330
7F
  0
DICTIONARY
  5
5E
102
{ACAD_REACTORS
330
C
102
}
330
C
100
AcDbDictionary
281
     1
  3
CANNOSCALE
350
146
  3
CENTEREXE
350
259
  3
CENTERLTYPEFILE
350
25A
  3
CMLEADERSTYLE
350
145
  3
CTABLESTYLE
350
84
  3
CVIEWDETAILSTYLE
350
227
  3
CVIEWSECTIONSTYLE
350
228
  3
DIMASSOC
350
5F
  3
HIDETEXT
350
63
  3
INDEXCTL
350
C3E3
  3
LAYEREVAL
350
1AE
  3
LAYERNOTIFY
350
1AF
  3
LIGHTINGUNITS
350
C3E1
  3
MSLTSCALE
350
C3E0
  3
PSOLHEIGHT
350
C433
  3
PSOLWIDTH
350
C432
  3
SORTENTS
350
C3E2
  3
XCLIPFRAME
350
C434
  0
XRECORD
  5
C437
102
{ACAD_REACTORS
330
C
102
}
330
C
100
AcDbXrecord
280
     1
  1
DWGPROPS COOKIE
  2

  3

  4

  6

  7

  8
tronnguyen
  9

300
=
301
=
302
=
303
=
304
=
305
=
306
=
307
=
308
=
309
=
 40
0.0048263888888889
 41
2460286.6225
 42
2460286.638136574
  1

 90
        0
  0
DICTIONARY
  5
200
102
{ACAD_REACTORS
330
1FF
102
}
330
1FF
100
AcDbDictionary
281
     1
  0
XRECORD
  5
C38E
102
{ACAD_REACTORS
330
1CE
102
}
330
1CE
100
AcDbXrecord
280
     1
340
1F
  0
XRECORD
  5
C397
102
{ACAD_REACTORS
330
C339
102
}
330
C339
100
AcDbXrecord
280
     1
340
D2
  0
XRECORD
  5
C39A
102
{ACAD_REACTORS
330
C33B
102
}
330
C33B
100
AcDbXrecord
280
     1
340
D6
  0
ACDBDETAILVIEWSTYLE
  5
21C
102
{ACAD_XDICTIONARY
360
C476
102
}
102
{ACAD_REACTORS
330
21B
102
}
330
21B
100
AcDbModelDocViewStyle
 70
     0
  3
Metric50
290
     0
100
AcDbDetailViewStyle
 70
     0
 71
     0
 90
        3
 71
     1
340
11
 40
5.0
340
0
 40
5.0
300

 40
0.0
280
     1
 71
     2
340
16
 90
       25
 71
     3
340
11
 40
5.0
 90
        0
 40
15.0
 90
        1
300
%<\AcVar ViewDetailId>% (%<\AcVar ViewScale \f "%sn">%)
 71
     4
340
16
 90
       25
340
16
 90
       25
280
     0
  0
LAYOUT
  5
D3
102
{ACAD_XDICTIONARY
360
C43B
102
}
102
{ACAD_REACTORS
330
1A
102
}
330
1A
100
AcDbPlotSettings
  1

  2
C:\Documents and Settings\basas\Application Data\Autodesk\AutoCAD 2005\R16.1\enu\plotters\Default Windows System Printer.pc3
  4

  6

 40
0.0
 41
0.0
 42
0.0
 43
0.0
 44
0.0
 45
0.0
 46
0.0
 47
0.0
 48
0.0
 49
0.0
140
0.0
141
0.0
142
1.0
143
1.0
 70
   688
 72
     0
 73
     0
 74
     5
  7

 75
    16
147
1.0
148
0.0
149
0.0
100
AcDbLayout
  1
Layout1
 70
     1
 71
     1
 10
0.0
 20
0.0
 11
12.0
 21
9.0
 12
0.0
 22
0.0
 32
0.0
 14
0.0
 24
0.0
 34
0.0
 15
0.0
 25
0.0
 35
0.0
146
0.0
 13
0.0
 23
0.0
 33
0.0
 16
1.0
 26
0.0
 36
0.0
 17
0.0
 27
1.0
 37
0.0
 76
     0
330
D2
  0
LAYOUT
  5
D7
102
{ACAD_XDICTIONARY
360
C43D
102
}
102
{ACAD_REACTORS
330
1A
102
}
330
1A
100
AcDbPlotSettings
  1

  2
C:\Documents and Settings\basas\Application Data\Autodesk\AutoCAD 2005\R16.1\enu\plotters\Default Windows System Printer.pc3
  4

  6

 40
0.0
 41
0.0
 42
0.0
 43
0.0
 44
0.0
 45
0.0
 46
0.0
 47
0.0
 48
0.0
 49
0.0
140
0.0
141
0.0
142
1.0
143
1.0
 70
   688
 72
     0
 73
     0
 74
     5
  7

 75
    16
147
1.0
148
0.0
149
0.0
100
AcDbLayout
  1
Layout2
 70
     1
 71
     2
 10
0.0
 20
0.0
 11
12.0
 21
9.0
 12
0.0
 22
0.0
 32
0.0
 14
0.0
 24
0.0
 34
0.0
 15
0.0
 25
0.0
 35
0.0
146
0.0
 13
0.0
 23
0.0
 33
0.0
 16
1.0
 26
0.0
 36
0.0
 17
0.0
 27
1.0
 37
0.0
 76
     0
330
D6
  0
LAYOUT
  5
22
102
{ACAD_XDICTIONARY
360
C438
102
}
102
{ACAD_REACTORS
330
1A
102
}
330
1A
100
AcDbPlotSettings
  1

  2
none_device
  4
ISO_A4_(210.00_x_297.00_MM)
  6

 40
7.5
 41
20.0
 42
7.5
 43
20.0
 44
210.0
 45
297.0
 46
11.54999923706054
 47
-13.65000009536743
 48
0.0
 49
0.0
140
0.0
141
0.0
142
1.0
143
8.704084754739808
 70
 11952
 72
     1
 73
     0
 74
     0
  7

 75
     0
147
0.1148885871608098
148
0.0
149
0.0
100
AcDbLayout
  1
Model
 70
     1
 71
     0
 10
0.0
 20
0.0
 11
12.0
 21
9.0
 12
0.0
 22
0.0
 32
0.0
 14
0.0
 24
0.0
 34
0.0
 15
0.0
 25
0.0
 35
0.0
146
0.0
 13
0.0
 23
0.0
 33
0.0
 16
1.0
 26
0.0
 36
0.0
 17
0.0
 27
1.0
 37
0.0
 76
     0
330
1F
331
EA
1001
ACAD_PSEXT
1000
None
1000
None
1000
Not applicable
1000
The layout will not be plotted unless a new plotter configuration name is selected.
1070
     0
  0
MATERIAL
  5
ED
102
{ACAD_XDICTIONARY
360
1F9
102
}
102
{ACAD_REACTORS
330
6A
102
}
330
6A
100
AcDbMaterial
  1
ByBlock
  0
MATERIAL
  5
EC
102
{ACAD_XDICTIONARY
360
1F7
102
}
102
{ACAD_REACTORS
330
6A
102
}
330
6A
100
AcDbMaterial
  1
ByLayer
  0
MATERIAL
  5
EE
102
{ACAD_XDICTIONARY
360
173
102
}
102
{ACAD_REACTORS
330
6A
102
}
330
6A
100
AcDbMaterial
  1
Global
 43
0.0007999999797903
 43
0.0
 43
0.0
 43
0.0
 43
0.0
 43
0.0007999999797903
 43
0.0
 43
0.0
 43
0.0
 43
0.0
 43
1.0
 43
0.0
 43
0.0
 43
0.0
 43
0.0
 43
1.0
 49
0.0007999999797903
 49
0.0
 49
0.0
 49
0.0
 49
0.0
 49
0.0007999999797903
 49
0.0
 49
0.0
 49
0.0
 49
0.0
 49
1.0
 49
0.0
 49
0.0
 49
0.0
 49
0.0
 49
1.0
142
0.0007999999797903
142
0.0
142
0.0
142
0.0
142
0.0
142
0.0007999999797903
142
0.0
142
0.0
142
0.0
142
0.0
142
1.0
142
0.0
142
0.0
142
0.0
142
0.0
142
1.0
144
0.0007999999797903
144
0.0
144
0.0
144
0.0
144
0.0
144
0.0007999999797903
144
0.0
144
0.0
144
0.0
144
0.0
144
1.0
144
0.0
144
0.0
144
0.0
144
0.0
144
1.0
1001
ACAD
1070
    -1
1070
     3
1070
     0
1000

1071
        0
1070
     0
  0
MLEADERSTYLE
  5
12E
102
{ACAD_XDICTIONARY
360
C462
102
}
102
{ACAD_REACTORS
330
12D
102
}
330
12D
100
AcDbMLeaderStyle
170
     2
171
     1
172
     0
 90
        2
 40
0.0
 41
0.0
173
     1
 91
-1056964608
340
14
 92
       -2
290
     1
 42
2.0
291
     1
 43
8.0
  3
Standard
 44
4.0
300

342
11
174
     1
178
     1
175
     1
176
     0
 93
-1056964608
 45
4.0
292
     0
297
     0
 46
4.0
 94
-1056964608
 47
1.0
 49
1.0
140
1.0
293
     1
141
0.0
294
     1
177
     0
142
1.0
295
     0
296
     0
143
3.75
1001
ACAD_MLEADERVER
1070
     2
  0
MLINESTYLE
  5
18
102
{ACAD_REACTORS
330
17
102
}
330
17
100
AcDbMlineStyle
  2
STANDARD
 70
     0
  3

 62
   256
 51
90.0
 52
90.0
 71
     2
 49
0.5
 62
   256
  6
BYLAYER
 49
-0.5
 62
   256
  6
BYLAYER
  0
ACDBPLACEHOLDER
  5
F
102
{ACAD_REACTORS
330
E
102
}
330
E
  0
SCALE
  5
10D
102
{ACAD_REACTORS
330
10C
102
}
330
10C
100
AcDbScale
 70
     0
300
1:1
140
1.0
141
1.0
290
     1
  0
SCALE
  5
1BE
102
{ACAD_REACTORS
330
10C
102
}
330
10C
100
AcDbScale
 70
     0
300
1:2
140
1.0
141
2.0
290
     0
  0
SCALE
  5
1BF
102
{ACAD_REACTORS
330
10C
102
}
330
10C
100
AcDbScale
 70
     0
300
1:4
140
1.0
141
4.0
290
     0
  0
SCALE
  5
1C0
102
{ACAD_REACTORS
330
10C
102
}
330
10C
100
AcDbScale
 70
     0
300
1:5
140
1.0
141
5.0
290
     0
  0
SCALE
  5
1C1
102
{ACAD_REACTORS
330
10C
102
}
330
10C
100
AcDbScale
 70
     0
300
1:8
140
1.0
141
8.0
290
     0
  0
SCALE
  5
1C2
102
{ACAD_REACTORS
330
10C
102
}
330
10C
100
AcDbScale
 70
     0
300
1:10
140
1.0
141
10.0
290
     0
  0
SCALE
  5
1C3
102
{ACAD_REACTORS
330
10C
102
}
330
10C
100
AcDbScale
 70
     0
300
1:16
140
1.0
141
16.0
290
     0
  0
SCALE
  5
1C4
102
{ACAD_REACTORS
330
10C
102
}
330
10C
100
AcDbScale
 70
     0
300
1:20
140
1.0
141
20.0
290
     0
  0
SCALE
  5
1C5
102
{ACAD_REACTORS
330
10C
102
}
330
10C
100
AcDbScale
 70
     0
300
1:30
140
1.0
141
30.0
290
     0
  0
SCALE
  5
1C6
102
{ACAD_REACTORS
330
10C
102
}
330
10C
100
AcDbScale
 70
     0
300
1:40
140
1.0
141
40.0
290
     0
  0
SCALE
  5
1C7
102
{ACAD_REACTORS
330
10C
102
}
330
10C
100
AcDbScale
 70
     0
300
1:50
140
1.0
141
50.0
290
     0
  0
SCALE
  5
1C8
102
{ACAD_REACTORS
330
10C
102
}
330
10C
100
AcDbScale
 70
     0
300
1:100
140
1.0
141
100.0
290
     0
  0
SCALE
  5
1C9
102
{ACAD_REACTORS
330
10C
102
}
330
10C
100
AcDbScale
 70
     0
300
2:1
140
2.0
141
1.0
290
     0
  0
SCALE
  5
1CA
102
{ACAD_REACTORS
330
10C
102
}
330
10C
100
AcDbScale
 70
     0
300
4:1
140
4.0
141
1.0
290
     0
  0
SCALE
  5
1CB
102
{ACAD_REACTORS
330
10C
102
}
330
10C
100
AcDbScale
 70
     0
300
8:1
140
8.0
141
1.0
290
     0
  0
SCALE
  5
1CC
102
{ACAD_REACTORS
330
10C
102
}
330
10C
100
AcDbScale
 70
     0
300
10:1
140
10.0
141
1.0
290
     0
  0
SCALE
  5
1CD
102
{ACAD_REACTORS
330
10C
102
}
330
10C
100
AcDbScale
 70
     0
300
100:1
140
100.0
141
1.0
290
     0
  0
ACDBSECTIONVIEWSTYLE
  5
21A
102
{ACAD_XDICTIONARY
360
C474
102
}
102
{ACAD_REACTORS
330
219
102
}
330
219
100
AcDbModelDocViewStyle
 70
     0
  3
Metric50
290
     0
100
AcDbSectionViewStyle
 70
     0
 71
     0
 90
      102
 71
     1
340
11
 40
5.0
340
0
340
0
 40
5.0
300
I, O, Q, S, X, Z
 40
10.0
 90
        0
 40
2.5
 90
        0
 71
     2
340
16
 90
       25
340
16
 90
       50
 40
5.0
 40
2.5
 40
5.0
 71
     3
340
11
 40
5.0
 90
        0
 40
15.0
 90
        1
300
%<\AcVar ViewSectionStartId>%-%<\AcVar ViewSectionEndId>% (%<\AcVar ViewScale \f "%sn">%)
 71
     4
300
ANSI31
 40
1.0
 90
        0
290
     0
290
     0
 90
        6
 40
0.0
 40
1.570796326794896
 40
0.2617993877991494
 40
1.308996938995747
 40
-0.2617993877991494
 40
1.832595714594046
  0
TABLESTYLE
  5
7F
102
{ACAD_XDICTIONARY
360
162
102
}
102
{ACAD_REACTORS
330
7E
102
}
330
7E
100
AcDbTableStyle
  3
Standard
 70
     0
 71
     0
 40
1.5
 41
1.5
280
     0
281
     0
  7
Standard
140
4.5
170
     2
 62
     0
 63
     7
283
     0
274
    -2
284
     1
 64
     0
275
    -2
285
     1
 65
     0
276
    -2
286
     1
 66
     0
277
    -2
287
     1
 67
     0
278
    -2
288
     1
 68
     0
279
    -2
289
     1
 69
     0
  7
Standard
140
6.0
170
     5
 62
     0
 63
     7
283
     0
274
    -2
284
     1
 64
     0
275
    -2
285
     1
 65
     0
276
    -2
286
     1
 66
     0
277
    -2
287
     1
 67
     0
278
    -2
288
     1
 68
     0
279
    -2
289
     1
 69
     0
  7
Standard
140
4.5
170
     5
 62
     0
 63
     7
283
     0
274
    -2
284
     1
 64
     0
275
    -2
285
     1
 65
     0
276
    -2
286
     1
 66
     0
277
    -2
287
     1
 67
     0
278
    -2
288
     1
 68
     0
279
    -2
289
     1
 69
     0
  0
VISUALSTYLE
  5
F5
102
{ACAD_XDICTIONARY
360
C44C
102
}
102
{ACAD_REACTORS
330
EF
102
}
330
EF
100
AcDbVisualStyle
  2
2dWireframe
 70
     4
 71
     0
 72
     2
 73
     1
 90
        0
 40
-0.6
 41
-30.0
 62
     5
 63
     7
 74
     1
 91
        4
 64
     7
 65
   257
 75
     1
175
     1
 42
1.0
 92
        0
 66
   257
 43
1.0
 76
     1
 77
     6
 78
     2
 67
     7
 79
     5
170
     0
171
     0
290
     0
174
     0
 93
        1
 44
0.0
173
     0
291
     0
 45
0.0
1001
ACAD
1000
AcDbSavedByObjectVersion
1070
     0
  0
VISUALSTYLE
  5
F4
102
{ACAD_XDICTIONARY
360
C44A
102
}
102
{ACAD_REACTORS
330
EF
102
}
330
EF
100
AcDbVisualStyle
  2
Basic
 70
     7
 71
     1
 72
     0
 73
     1
 90
        0
 40
-0.6
 41
-30.0
 62
     5
 63
     7
 74
     0
 91
        4
 64
     7
 65
   257
 75
     1
175
     1
 42
1.0
 92
        8
 66
     7
 43
1.0
 76
     1
 77
     6
 78
     2
 67
     7
 79
     5
170
     0
171
     0
290
     0
174
     0
 93
        1
 44
0.0
173
     0
291
     1
 45
0.0
1001
ACAD
1000
AcDbSavedByObjectVersion
1070
     0
  0
VISUALSTYLE
  5
FB
102
{ACAD_XDICTIONARY
360
C458
102
}
102
{ACAD_REACTORS
330
EF
102
}
330
EF
100
AcDbVisualStyle
  2
Brighten
 70
    12
 71
     2
 72
     2
 73
     1
 90
        0
 40
-0.6
 41
-30.0
 62
     5
 63
     7
 74
     1
 91
        4
 64
     7
 65
   257
 75
     1
175
     1
 42
1.0
 92
        8
 66
     7
 43
1.0
 76
     1
 77
     6
 78
     2
 67
     7
 79
     5
170
     0
171
     0
290
     0
174
     0
 93
        1
 44
50.0
173
     0
291
     1
 45
0.0
1001
ACAD
1000
AcDbSavedByObjectVersion
1070
     0
  0
VISUALSTYLE
  5
FF
102
{ACAD_XDICTIONARY
360
C460
102
}
102
{ACAD_REACTORS
330
EF
102
}
330
EF
100
AcDbVisualStyle
  2
ColorChange
 70
    16
 71
     2
 72
     2
 73
     3
 90
        0
 40
-0.6
 41
-30.0
 62
     5
 63
     8
 74
     1
 91
        4
 64
     7
 65
   257
 75
     1
175
     1
 42
1.0
 92
        8
 66
     8
 43
1.0
 76
     1
 77
     6
 78
     2
 67
     7
 79
     5
170
     0
171
     0
290
     0
174
     0
 93
        1
 44
0.0
173
     0
291
     1
 45
0.0
1001
ACAD
1000
AcDbSavedByObjectVersion
1070
     0
  0
VISUALSTYLE
  5
F8
102
{ACAD_XDICTIONARY
360
C452
102
}
102
{ACAD_REACTORS
330
EF
102
}
330
EF
100
AcDbVisualStyle
  2
Conceptual
 70
     9
 71
     3
 72
     2
 73
     1
 90
        0
 40
-0.6
 41
-30.0
 62
     5
 63
     7
 74
     2
 91
        2
 64
     7
 65
   257
 75
     1
175
     1
 42
40.0
 92
        8
 66
     7
 43
1.0
 76
     1
 77
     6
 78
     2
 67
     7
 79
     3
170
     0
171
     0
290
     0
174
     0
 93
        1
 44
0.0
173
     0
291
     0
 45
0.0
1001
ACAD
1000
AcDbSavedByObjectVersion
1070
     0
  0
VISUALSTYLE
  5
FA
102
{ACAD_XDICTIONARY
360
C456
102
}
102
{ACAD_REACTORS
330
EF
102
}
330
EF
100
AcDbVisualStyle
  2
Dim
 70
    11
 71
     2
 72
     2
 73
     1
 90
        0
 40
-0.6
 41
-30.0
 62
     5
 63
     7
 74
     1
 91
        4
 64
     7
 65
   257
 75
     1
175
     1
 42
1.0
 92
        8
 66
     7
 43
1.0
 76
     1
 77
     6
 78
     2
 67
     7
 79
     5
170
     0
171
     0
290
     0
174
     0
 93
        1
 44
-50.0
173
     0
291
     1
 45
0.0
1001
ACAD
1000
AcDbSavedByObjectVersion
1070
     0
  0
VISUALSTYLE
  5
1E6
102
{ACAD_XDICTIONARY
360
C468
102
}
102
{ACAD_REACTORS
330
EF
102
}
330
EF
100
AcDbVisualStyle
  2
EdgeColorOff
 70
    22
 71
     2
 72
     2
 73
     0
 90
        0
 40
-0.6
 41
-30.0
 62
     5
 63
     7
 74
     1
 91
        4
 64
     7
 65
   257
 75
     1
175
     1
 42
1.0
 92
        8
 66
     7
 43
1.0
 76
     1
 77
     6
 78
     2
 67
     7
 79
     5
170
     0
171
     0
290
     0
174
     0
 93
        1
 44
0.0
173
     0
291
     1
 45
0.0
1001
ACAD
1000
AcDbSavedByObjectVersion
1070
     0
  0
VISUALSTYLE
  5
FE
102
{ACAD_XDICTIONARY
360
C45E
102
}
102
{ACAD_REACTORS
330
EF
102
}
330
EF
100
AcDbVisualStyle
  2
Facepattern
 70
    15
 71
     2
 72
     2
 73
     1
 90
        0
 40
-0.6
 41
-30.0
 62
     5
 63
     7
 74
     1
 91
        4
 64
     7
 65
   257
 75
     1
175
     1
 42
1.0
 92
        8
 66
     7
 43
1.0
 76
     1
 77
     6
 78
     2
 67
     7
 79
     5
170
     0
171
     0
290
     0
174
     0
 93
        1
 44
0.0
173
     0
291
     1
 45
0.0
1001
ACAD
1000
AcDbSavedByObjectVersion
1070
     0
  0
VISUALSTYLE
  5
F0
102
{ACAD_XDICTIONARY
360
C442
102
}
102
{ACAD_REACTORS
330
EF
102
}
330
EF
100
AcDbVisualStyle
  2
Flat
 70
     0
 71
     2
 72
     1
 73
     1
 90
        2
 40
-0.6
 41
30.0
 62
     5
 63
     7
 74
     0
 91
        0
 64
     7
 65
   257
 75
     1
175
     1
 42
1.0
 92
        8
 66
     7
 43
1.0
 76
     1
 77
     6
 78
     2
 67
     7
 79
     5
170
     0
171
     0
290
     0
174
     0
 93
       13
 44
0.0
173
     0
291
     1
 45
0.0
1001
ACAD
1000
AcDbSavedByObjectVersion
1070
     0
  0
VISUALSTYLE
  5
F1
102
{ACAD_XDICTIONARY
360
C444
102
}
102
{ACAD_REACTORS
330
EF
102
}
330
EF
100
AcDbVisualStyle
  2
FlatWithEdges
 70
     1
 71
     2
 72
     1
 73
     1
 90
        2
 40
-0.6
 41
30.0
 62
     5
 63
     7
 74
     1
 91
        0
 64
     7
 65
   257
 75
     1
175
     1
 42
1.0
 92
        0
 66
   257
 43
1.0
 76
     1
 77
     6
 78
     2
 67
     7
 79
     5
170
     0
171
     0
290
     0
174
     0
 93
       13
 44
0.0
173
     0
291
     1
 45
0.0
1001
ACAD
1000
AcDbSavedByObjectVersion
1070
     0
  0
VISUALSTYLE
  5
F2
102
{ACAD_XDICTIONARY
360
C446
102
}
102
{ACAD_REACTORS
330
EF
102
}
330
EF
100
AcDbVisualStyle
  2
Gouraud
 70
     2
 71
     2
 72
     2
 73
     1
 90
        2
 40
-0.6
 41
30.0
 62
     5
 63
     7
 74
     0
 91
        0
 64
     7
 65
   257
 75
     1
175
     1
 42
1.0
 92
        0
 66
     7
 43
1.0
 76
     1
 77
     6
 78
     2
 67
     7
 79
     5
170
     0
171
     0
290
     0
174
     0
 93
       13
 44
0.0
173
     0
291
     1
 45
0.0
1001
ACAD
1000
AcDbSavedByObjectVersion
1070
     0
  0
VISUALSTYLE
  5
F3
102
{ACAD_XDICTIONARY
360
C448
102
}
102
{ACAD_REACTORS
330
EF
102
}
330
EF
100
AcDbVisualStyle
  2
GouraudWithEdges
 70
     3
 71
     2
 72
     2
 73
     1
 90
        2
 40
-0.6
 41
30.0
 62
     5
 63
     7
 74
     1
 91
        0
 64
     7
 65
   257
 75
     1
175
     1
 42
1.0
 92
        0
 66
   257
 43
1.0
 76
     1
 77
     6
 78
     2
 67
     7
 79
     5
170
     0
171
     0
290
     0
174
     0
 93
       13
 44
0.0
173
     0
291
     1
 45
0.0
1001
ACAD
1000
AcDbSavedByObjectVersion
1070
     0
  0
VISUALSTYLE
  5
F7
102
{ACAD_XDICTIONARY
360
C450
102
}
102
{ACAD_REACTORS
330
EF
102
}
330
EF
100
AcDbVisualStyle
  2
Hidden
 70
     6
 71
     1
 72
     2
 73
     2
 90
        0
 40
-0.6
 41
-30.0
 62
     5
 63
     7
 74
     2
 91
        2
 64
     7
 65
   257
 75
     2
175
     1
 42
40.0
 92
        0
 66
   257
 43
1.0
 76
     1
 77
     6
 78
     2
 67
     7
 79
     3
170
     0
171
     0
290
     0
174
     0
 93
        1
 44
0.0
173
     0
291
     0
 45
0.0
1001
ACAD
1000
AcDbSavedByObjectVersion
1070
     0
  0
VISUALSTYLE
  5
1E4
102
{ACAD_XDICTIONARY
360
C464
102
}
102
{ACAD_REACTORS
330
EF
102
}
330
EF
100
AcDbVisualStyle
  2
JitterOff
 70
    20
 71
     2
 72
     2
 73
     0
 90
        0
 40
-0.6
 41
-30.0
 62
     5
 63
     7
 74
     1
 91
        4
 64
     7
 65
   257
 75
     1
175
     1
 42
1.0
 92
       10
 66
     7
 43
1.0
 76
     1
 77
     6
 78
     2
 67
     7
 79
     5
170
     0
171
     0
290
     0
174
     0
 93
        1
 44
0.0
173
     0
291
     1
 45
0.0
1001
ACAD
1000
AcDbSavedByObjectVersion
1070
     0
  0
VISUALSTYLE
  5
FD
102
{ACAD_XDICTIONARY
360
C45C
102
}
102
{ACAD_REACTORS
330
EF
102
}
330
EF
100
AcDbVisualStyle
  2
Linepattern
 70
    14
 71
     2
 72
     2
 73
     1
 90
        0
 40
-0.6
 41
-30.0
 62
     5
 63
     7
 74
     1
 91
        4
 64
     7
 65
   257
 75
     7
175
     7
 42
1.0
 92
        8
 66
     7
 43
1.0
 76
     1
 77
     6
 78
     2
 67
     7
 79
     5
170
     0
171
     0
290
     0
174
     0
 93
        1
 44
0.0
173
     0
291
     1
 45
0.0
1001
ACAD
1000
AcDbSavedByObjectVersion
1070
     0
  0
VISUALSTYLE
  5
1E5
102
{ACAD_XDICTIONARY
360
C466
102
}
102
{ACAD_REACTORS
330
EF
102
}
330
EF
100
AcDbVisualStyle
  2
OverhangOff
 70
    21
 71
     2
 72
     2
 73
     0
 90
        0
 40
-0.6
 41
-30.0
 62
     5
 63
     7
 74
     1
 91
        4
 64
     7
 65
   257
 75
     1
175
     1
 42
1.0
 92
        9
 66
     7
 43
1.0
 76
     1
 77
     6
 78
     2
 67
     7
 79
     5
170
     0
171
     0
290
     0
174
     0
 93
        1
 44
0.0
173
     0
291
     1
 45
0.0
1001
ACAD
1000
AcDbSavedByObjectVersion
1070
     0
  0
VISUALSTYLE
  5
F9
102
{ACAD_XDICTIONARY
360
C454
102
}
102
{ACAD_REACTORS
330
EF
102
}
330
EF
100
AcDbVisualStyle
  2
Realistic
 70
     8
 71
     2
 72
     2
 73
     0
 90
        2
 40
-0.6
 41
30.0
 62
     5
 63
     7
 74
     0
 91
        0
 64
     7
 65
   257
 75
     1
175
     1
 42
1.0
 92
        8
 66
   257
 43
1.0
 76
     1
 77
     6
 78
     2
 67
     7
 79
     3
170
     0
171
     0
290
     0
174
     0
 93
       13
 44
0.0
173
     0
291
     0
 45
0.0
1001
ACAD
1000
AcDbSavedByObjectVersion
1070
     0
  0
VISUALSTYLE
  5
1F3
102
{ACAD_XDICTIONARY
360
C472
102
}
102
{ACAD_REACTORS
330
EF
102
}
330
EF
100
AcDbVisualStyle
  2
Shaded
 70
    27
 71
     2
 72
     2
 73
     1
 90
        2
 40
-0.6
 41
30.0
 62
     5
 63
     7
 74
     0
 91
        4
 64
     7
 65
   257
 75
     1
175
     1
 42
1.0
 92
        8
 66
   257
 43
1.0
 76
     1
 77
     6
 78
     2
 67
     8
 79
     3
170
     0
171
     0
290
     0
174
     0
 93
        5
 44
0.0
173
     0
291
     0
 45
0.0
1001
ACAD
1000
AcDbSavedByObjectVersion
1070
     0
  0
VISUALSTYLE
  5
1F2
102
{ACAD_XDICTIONARY
360
C470
102
}
102
{ACAD_REACTORS
330
EF
102
}
330
EF
100
AcDbVisualStyle
  2
Shaded with edges
 70
    26
 71
     2
 72
     2
 73
     1
 90
        2
 40
-0.6
 41
30.0
 62
     5
 63
     7
 74
     1
 91
        2
 64
     7
 65
   257
 75
     2
175
     1
 42
1.0
 92
        8
 66
   257
 43
1.0
 76
     1
 77
     6
 78
     2
 67
     7
 79
     3
170
     0
171
     0
290
     0
174
     0
 93
        5
 44
0.0
173
     0
291
     0
 45
0.0
1001
ACAD
1000
AcDbSavedByObjectVersion
1070
     0
  0
VISUALSTYLE
  5
1EF
102
{ACAD_XDICTIONARY
360
C46A
102
}
102
{ACAD_REACTORS
330
EF
102
}
330
EF
100
AcDbVisualStyle
  2
Shades of Gray
 70
    23
 71
     2
 72
     2
 73
     3
 90
        0
 40
-0.6
 41
-30.0
 62
     5
 63
     7
 74
     2
 91
        2
 64
     7
 65
     7
 75
     1
175
     1
 42
40.0
 92
        8
 66
     7
 43
1.0
 76
     1
 77
     6
 78
     2
 67
     7
 79
     3
170
     0
171
     0
290
     0
174
     0
 93
        1
 44
0.0
173
     0
291
     0
 45
0.0
1001
ACAD
1000
AcDbSavedByObjectVersion
1070
     0
  0
VISUALSTYLE
  5
1F0
102
{ACAD_XDICTIONARY
360
C46C
102
}
102
{ACAD_REACTORS
330
EF
102
}
330
EF
100
AcDbVisualStyle
  2
Sketchy
 70
    24
 71
     1
 72
     2
 73
     2
 90
        0
 40
-0.6
 41
-30.0
 62
     5
 63
     7
 74
     2
 91
        2
 64
     7
 65
     7
 75
     1
175
     1
 42
40.0
 92
       11
 66
     7
 43
1.0
 76
     1
 77
     6
 78
     2
 67
     7
 79
     6
170
     0
171
     0
290
     0
174
     0
 93
        1
 44
0.0
173
     0
291
     0
 45
0.0
1001
ACAD
1000
AcDbSavedByObjectVersion
1070
     0
  0
VISUALSTYLE
  5
FC
102
{ACAD_XDICTIONARY
360
C45A
102
}
102
{ACAD_REACTORS
330
EF
102
}
330
EF
100
AcDbVisualStyle
  2
Thicken
 70
    13
 71
     2
 72
     2
 73
     1
 90
        0
 40
-0.6
 41
-30.0
 62
     5
 63
     7
 74
     1
 91
        4
 64
     7
 65
   257
 75
     1
175
     1
 42
1.0
 92
       12
 66
     7
 43
1.0
 76
     1
 77
     6
 78
     2
 67
     7
 79
     5
170
     0
171
     0
290
     0
174
     0
 93
        1
 44
0.0
173
     0
291
     1
 45
0.0
1001
ACAD
1000
AcDbSavedByObjectVersion
1070
     0
  0
VISUALSTYLE
  5
F6
102
{ACAD_XDICTIONARY
360
C44E
102
}
102
{ACAD_REACTORS
330
EF
102
}
330
EF
100
AcDbVisualStyle
  2
Wireframe
 70
     5
 71
     0
 72
     2
 73
     0
 90
        0
 40
-0.6
 41
-30.0
 62
     5
 63
     7
 74
     1
 91
        4
 64
     7
 65
   257
 75
     1
175
     1
 42
1.0
 92
        0
 66
   257
 43
1.0
 76
     1
 77
     6
 78
     2
 67
     7
 79
     3
170
     0
171
     0
290
     0
174
     0
 93
        1
 44
0.0
173
     0
291
     0
 45
0.0
1001
ACAD
1000
AcDbSavedByObjectVersion
1070
     0
  0
VISUALSTYLE
  5
1F1
102
{ACAD_XDICTIONARY
360
C46E
102
}
102
{ACAD_REACTORS
330
EF
102
}
330
EF
100
AcDbVisualStyle
  2
X-Ray
 70
    25
 71
     2
 72
     2
 73
     1
 90
        1
 40
0.5
 41
-30.0
 62
     5
 63
     7
 74
     1
 91
        0
 64
     7
 65
   257
 75
     1
175
     1
 42
1.0
 92
        8
 66
     7
 43
1.0
 76
     1
 77
     6
 78
     2
 67
     7
 79
     3
170
     0
171
     0
290
     0
174
     0
 93
       13
 44
0.0
173
     0
291
     0
 45
0.0
1001
ACAD
1000
AcDbSavedByObjectVersion
1070
     0
  0
DICTIONARYVAR
  5
146
102
{ACAD_REACTORS
330
5E
102
}
330
5E
100
DictionaryVariables
280
     0
  1
1:1
  0
DICTIONARYVAR
  5
259
102
{ACAD_REACTORS
330
5E
102
}
330
5E
100
DictionaryVariables
280
     0
  1
3.500000
  0
DICTIONARYVAR
  5
25A
102
{ACAD_REACTORS
330
5E
102
}
330
5E
100
DictionaryVariables
280
     0
  1
acadiso.lin
  0
DICTIONARYVAR
  5
145
102
{ACAD_REACTORS
330
5E
102
}
330
5E
100
DictionaryVariables
280
     0
  1
STANDARD
  0
DICTIONARYVAR
  5
84
102
{ACAD_REACTORS
330
5E
102
}
330
5E
100
DictionaryVariables
280
     0
  1
STANDARD
  0
DICTIONARYVAR
  5
227
102
{ACAD_REACTORS
330
5E
102
}
330
5E
100
DictionaryVariables
280
     0
  1
Metric50
  0
DICTIONARYVAR
  5
228
102
{ACAD_REACTORS
330
5E
102
}
330
5E
100
DictionaryVariables
280
     0
  1
Metric50
  0
DICTIONARYVAR
  5
5F
102
{ACAD_REACTORS
330
5E
102
}
330
5E
100
DictionaryVariables
280
     0
  1
2
  0
DICTIONARYVAR
  5
63
102
{ACAD_REACTORS
330
5E
102
}
330
5E
100
DictionaryVariables
280
     0
  1
1
  0
DICTIONARYVAR
  5
C3E3
102
{ACAD_REACTORS
330
5E
102
}
330
5E
100
DictionaryVariables
280
     0
  1
0
  0
DICTIONARYVAR
  5
1AE
102
{ACAD_REACTORS
330
5E
102
}
330
5E
100
DictionaryVariables
280
     0
  1
0
  0
DICTIONARYVAR
  5
1AF
102
{ACAD_REACTORS
330
5E
102
}
330
5E
100
DictionaryVariables
280
     0
  1
0
  0
DICTIONARYVAR
  5
C3E1
102
{ACAD_REACTORS
330
5E
102
}
330
5E
100
DictionaryVariables
280
     0
  1
2
  0
DICTIONARYVAR
  5
C3E0
102
{ACAD_REACTORS
330
5E
102
}
330
5E
100
DictionaryVariables
280
     0
  1
1
  0
DICTIONARYVAR
  5
C433
102
{ACAD_REACTORS
330
5E
102
}
330
5E
100
DictionaryVariables
280
     0
  1
80.000000
  0
DICTIONARYVAR
  5
C432
102
{ACAD_REACTORS
330
5E
102
}
330
5E
100
DictionaryVariables
280
     0
  1
5.000000
  0
DICTIONARYVAR
  5
C3E2
102
{ACAD_REACTORS
330
5E
102
}
330
5E
100
DictionaryVariables
280
     0
  1
127
  0
DICTIONARYVAR
  5
C434
102
{ACAD_REACTORS
330
5E
102
}
330
5E
100
DictionaryVariables
280
     0
  1
2
  0
DICTIONARY
  5
C476
330
21C
100
AcDbDictionary
280
     1
281
     1
  3
ACAD_XREC_ROUNDTRIP
360
C477
  0
DICTIONARY
  5
C43B
330
D3
100
AcDbDictionary
280
     1
281
     1
  3
ACAD_XREC_ROUNDTRIP
360
C43C
  0
DICTIONARY
  5
C43D
330
D7
100
AcDbDictionary
280
     1
281
     1
  3
ACAD_XREC_ROUNDTRIP
360
C43E
  0
DICTIONARY
  5
C438
330
22
100
AcDbDictionary
280
     1
281
     1
  3
ACAD_XREC_ROUNDTRIP
360
C439
  0
DICTIONARY
  5
1F9
330
ED
100
AcDbDictionary
280
     1
281
     1
  3
ACAD_XREC_ROUNDTRIP
360
C440
  3
FBXASSET
360
1FA
  0
DICTIONARY
  5
1F7
330
EC
100
AcDbDictionary
280
     1
281
     1
  3
ACAD_XREC_ROUNDTRIP
360
C43F
  3
FBXASSET
360
1F8
  0
DICTIONARY
  5
173
330
EE
100
AcDbDictionary
280
     1
281
     1
  3
ACAD_XREC_ROUNDTRIP
360
C441
  3
BUMPTILE
360
175
  3
DIFFUSETILE
360
174
  3
FBXASSET
360
1FB
  3
OPACITYTILE
360
176
  3
REFLECTIONTILE
360
177
  0
DICTIONARY
  5
C462
330
12E
100
AcDbDictionary
280
     1
281
     1
  3
ACAD_XREC_ROUNDTRIP
360
C463
  0
DICTIONARY
  5
C474
330
21A
100
AcDbDictionary
280
     1
281
     1
  3
ACAD_XREC_ROUNDTRIP
360
C475
  0
DICTIONARY
  5
162
330
7F
100
AcDbDictionary
280
     1
281
     1
  3
ACAD_ROUNDTRIP_2008_TABLESTYLE_CELLSTYLEMAP
360
C435
  3
ACAD_XREC_ROUNDTRIP
360
C43A
  0
DICTIONARY
  5
C44C
330
F5
100
AcDbDictionary
280
     1
281
     1
  3
ACAD_XREC_ROUNDTRIP
360
C44D
  0
DICTIONARY
  5
C44A
330
F4
100
AcDbDictionary
280
     1
281
     1
  3
ACAD_XREC_ROUNDTRIP
360
C44B
  0
DICTIONARY
  5
C458
330
FB
100
AcDbDictionary
280
     1
281
     1
  3
ACAD_XREC_ROUNDTRIP
360
C459
  0
DICTIONARY
  5
C460
330
FF
100
AcDbDictionary
280
     1
281
     1
  3
ACAD_XREC_ROUNDTRIP
360
C461
  0
DICTIONARY
  5
C452
330
F8
100
AcDbDictionary
280
     1
281
     1
  3
ACAD_XREC_ROUNDTRIP
360
C453
  0
DICTIONARY
  5
C456
330
FA
100
AcDbDictionary
280
     1
281
     1
  3
ACAD_XREC_ROUNDTRIP
360
C457
  0
DICTIONARY
  5
C468
330
1E6
100
AcDbDictionary
280
     1
281
     1
  3
ACAD_XREC_ROUNDTRIP
360
C469
  0
DICTIONARY
  5
C45E
330
FE
100
AcDbDictionary
280
     1
281
     1
  3
ACAD_XREC_ROUNDTRIP
360
C45F
  0
DICTIONARY
  5
C442
330
F0
100
AcDbDictionary
280
     1
281
     1
  3
ACAD_XREC_ROUNDTRIP
360
C443
  0
DICTIONARY
  5
C444
330
F1
100
AcDbDictionary
280
     1
281
     1
  3
ACAD_XREC_ROUNDTRIP
360
C445
  0
DICTIONARY
  5
C446
330
F2
100
AcDbDictionary
280
     1
281
     1
  3
ACAD_XREC_ROUNDTRIP
360
C447
  0
DICTIONARY
  5
C448
330
F3
100
AcDbDictionary
280
     1
281
     1
  3
ACAD_XREC_ROUNDTRIP
360
C449
  0
DICTIONARY
  5
C450
330
F7
100
AcDbDictionary
280
     1
281
     1
  3
ACAD_XREC_ROUNDTRIP
360
C451
  0
DICTIONARY
  5
C464
330
1E4
100
AcDbDictionary
280
     1
281
     1
  3
ACAD_XREC_ROUNDTRIP
360
C465
  0
DICTIONARY
  5
C45C
330
FD
100
AcDbDictionary
280
     1
281
     1
  3
ACAD_XREC_ROUNDTRIP
360
C45D
  0
DICTIONARY
  5
C466
330
1E5
100
AcDbDictionary
280
     1
281
     1
  3
ACAD_XREC_ROUNDTRIP
360
C467
  0
DICTIONARY
  5
C454
330
F9
100
AcDbDictionary
280
     1
281
     1
  3
ACAD_XREC_ROUNDTRIP
360
C455
  0
DICTIONARY
  5
C472
330
1F3
100
AcDbDictionary
280
     1
281
     1
  3
ACAD_XREC_ROUNDTRIP
360
C473
  0
DICTIONARY
  5
C470
330
1F2
100
AcDbDictionary
280
     1
281
     1
  3
ACAD_XREC_ROUNDTRIP
360
C471
  0
DICTIONARY
  5
C46A
330
1EF
100
AcDbDictionary
280
     1
281
     1
  3
ACAD_XREC_ROUNDTRIP
360
C46B
  0
DICTIONARY
  5
C46C
330
1F0
100
AcDbDictionary
280
     1
281
     1
  3
ACAD_XREC_ROUNDTRIP
360
C46D
  0
DICTIONARY
  5
C45A
330
FC
100
AcDbDictionary
280
     1
281
     1
  3
ACAD_XREC_ROUNDTRIP
360
C45B
  0
DICTIONARY
  5
C44E
330
F6
100
AcDbDictionary
280
     1
281
     1
  3
ACAD_XREC_ROUNDTRIP
360
C44F
  0
DICTIONARY
  5
C46E
330
1F1
100
AcDbDictionary
280
     1
281
     1
  3
ACAD_XREC_ROUNDTRIP
360
C46F
  0
XRECORD
  5
C477
102
{ACAD_REACTORS
330
C476
102
}
330
C476
100
AcDbXrecord
280
     1
102
DISPLAYNAME
  1
Metric50
102
FLAGS
 90
        0
  0
XRECORD
  5
C43C
102
{ACAD_REACTORS
330
C43B
102
}
330
C43B
100
AcDbXrecord
280
     1
102
SHADEPLOT
 70
     0
102
SHADEPLOTRESLEVEL
 70
     2
102
SHADEPLOTCUSTOMDPI
 70
   300
  0
XRECORD
  5
C43E
102
{ACAD_REACTORS
330
C43D
102
}
330
C43D
100
AcDbXrecord
280
     1
102
SHADEPLOT
 70
     0
102
SHADEPLOTRESLEVEL
 70
     2
102
SHADEPLOTCUSTOMDPI
 70
   300
  0
XRECORD
  5
C439
102
{ACAD_REACTORS
330
C438
102
}
330
C438
100
AcDbXrecord
280
     1
102
SHADEPLOT
 70
     0
102
SHADEPLOTRESLEVEL
 70
     2
102
SHADEPLOTCUSTOMDPI
 70
   300
  0
XRECORD
  5
C440
102
{ACAD_REACTORS
330
1F9
102
}
330
1F9
100
AcDbXrecord
280
     1
102
MATERIAL
148
0.0
149
0.0
149
0.0
 93
        0
 94
       63
282
     0
 72
     1
 77
     1
171
     1
175
     1
179
     1
273
     0
  0
XRECORD
  5
1FA
102
{ACAD_REACTORS
330
1F9
102
}
330
1F9
100
AcDbXrecord
280
     1
 70
     1
 90
429727718
  1
D62C5603-E3A1-4AEA-B7FB-FE5D8D0755AF
310
504B03040A0000080000CC70623B3DEE336E79000000790000001B0000006175746F6465736B2D64657369676E2D7061636B6167652E786D6C3C3F786D6C2076657273696F6E3D22312E302220656E636F64696E673D227574662D3822203F3E3C666F726D6174733E3C666F726D61743E687474703A2F2F736368656D612E
310
6175746F6465736B2E636F6D2F64657369676E2D7061636B6167652F323030393C2F666F726D61743E3C2F666F726D6174733E504B0304140006080800CC70623BD486FD9CA0000000F4000000130000005B436F6E74656E745F54797065735D2E786D6C7D8EC10E82300C865F65E91D8A1E8C310C0EEA1BF002731658846E
310
D98AC1B77784ABF1D8FE5FBFBF75BBCE937A534CCEB38643598122B6FEE978D0B0485F9C41B54DDD7D022595594E1A469170414C76A4D9A4D207E29CF43ECE46F218070CC6BECC4078ACAA135ACF422C856C0E68EA1BF5669944DDD7BCDE7B1F8E415D77AECB980613C2E4AC91FC167A2B244592486606FC29C8FD7F045B9A
310
EF7053A7E60B504B0304140006080800CC70623B853B8169EB0000007C01000008000000636F72652E786D6C8D90416EC3201045AF62CDB6C206821CC7C244919D9CA01740401C94182C03558F5F9C3852BBEB6A467FFE9B197D7EFC9E1EC5975982F5AE035262288C535E5B377690E21535501C055FBC8FBF6C503839990E
310
5619041F179FE64D52DE45E362569DD7661365082642A11EB9E920A89B99642953CC8E702F67A9EE7234257977194EC9EAE275C4EABCCF5EAD5940D4AC6F0E35A568B8F43562CD7046CD199FD07E60174276A7BE677B5EADB0E0D14EEFFB6A31321A0D82627C4084204C3F096B71DD52F6819B16635EADF63F509AF53FA164
310
5DDCD1EDDD17164090FCC8732078B56691CB33A85CD7DCC40F504B0304140006080800CC70623B55019EA25F0000007C00000007000000636E782E786D6C4DCB3B0E80201045D1AD90E915ED2CF8AC45050C11660C8261F98AB1B07AC9C97D42D718D865D3E909258CFD00CCE24AC6E326A164D74DC0B4128928FF32603847
310
2BA13128B1252AC747C6BAB984FC68F0B87FE8960A5C09FE86CFB69FBA01504B0304140006080800CC70623BDBABAAF470010000D40300000C0000006662782F636F72652E786D6CC553D16E823014FD95A6AF4B694182CC941A83FA05FB810A9511A125A5257EFE2E82712ECEB8A7F100CD39F7F69E734AF9FADC366850B6
310
AF8DCE7018308C942E4C59EB2AC3DE1D498AD15A706B8CFB56869196ADCAF00863C12B6B7C374385D14E6907A836A59A41D9F7CA615434B0C8705F7CAA5606D23BA8E84F41278B93AC54100640439DE0BDB320004D43C63716C7C399D30917DCFBBA9CD9BA8469F5B156168B24CED3F7248AC8769F27244EB73B92EED8862C
310
B7F13E0C179B3C8F979C8ECD82BBBABDAA2BAC924E9558448CBD9330242CFA08E3154B5651FCC6D215639C8EE5774DBE2B5F6CF2B5768B68963BB5F5588420E442FC700B1139D4CB01F450C1E918227C2E09DF070D8140C84E1E9AAB8F1340832A9CB13130A5F1376A908D57309505ECF2A0DF179C4E9D30F5B239B87E3823
310
7A79C6F31DE1A8A5AEC08474B03C7837EAE4938639B44E5932B833D2C6B6B279CDC613877FA26EE21F4A2A4C63EC7F29A2F301D1F9F7A0E37D145F504B0304140006080800CC70623B9C113CC27E0000009D0000000B0000006662782F636E782E786D6C4DCCDF0A83201C86E15B91DFB94BFB330DD428C8FB886521330DA7
310
6397BF1A1DECE883878F57749FCDA1B7892F1BBC047A23808C7F84D9FA55424E0BE6803A256208E9EF06C84F9B91703228B1C690F78B66B34CD9A5439DF5CF0BFBF65E35BCA1B8D6A5C6F540381E886698B5741C695F9503EBA150A2F8958E3DC3EA0B504B0304140006080800CC70623B7DF2F77C2A010000120200003100
310
00006662782F41393633353835312D344632462D344230382D423046372D3739314545314133324237412F636F72652E786D6C8D51DB8EC22014FC15C2939B0D2DB4B45643319AE817EC0F6041255A68B86CFCFC856D4D76DF7CE190393373060EDB3DC707F856CE6B6B7A480A0C81328395DA5C7B18C3057510EC3873D686
310
3F34088C18550F330C39BB3A1BA7051AAC09CA84841A2BD5020AEF55806078A44B0FFD7053A328440C89E1EFC52486BBB8AA8214A99D789CF9E05200300FC927E4FB4D5B375D43103D5527440FB843077C5AA3F5861C8F645F5787F59E95B390B318B55CE45AA638FAA2957BD7248B390B7A7CC51F9C124149C82B8C378810
310
84AB2F42B7B8DD56F413775B8C5999E9FF4471926F8AA236A1AE96B8B3CC434E5839373893369E1FAF30EA395917409EB7F26AF8801C171837A4A6AC9C89E9F9C9B1A58BA30FD6A5EF5DDDCF894B9AD9B6A59C957943A9FCAE2FD5BC4DFE03504B0304140006080800CC70623BAD7543B64E01000033030000300000006662
310
782F41393633353835312D344632462D344230382D423046372D3739314545314133324237412F636E782E786D6CD593CD6EC32010845F0571AD6CE3D48AD20813A9873E410FBD12D82434182C7EAAE6EDBB2424CD25871E7B41D6EC30B3FA84F9E67BB2E40B4234DE8DB46F1925E094D7C6ED479AD3AE5951B2113C789FEE
310
6C943839C1488B4C05DF079FE72A69D8C96C13AAD6B8631503449F83828872B949AC57D26200B826A308D316B4064D6E46FCDA41C05550DC9E483A00797BFD207EFB092A45DE9514C1BBD22178396BD39D891265658C238DEA00936C654E5E433CB65A26D9F6EDB5EBC14EBF49A45CB856E66048291F6939A9A81BB5C89177
310
38143CA680F4AA299D66A042CEB3354A2684DC9D8D178FE0D9B8B41CAAD720F880EE7EF93C0C18769E099ECC04D5A102C8049A8A05632F4DDF376CF1DE0F6BB65C2F8627B65A33C6BB62177CEBBDAD973006829F89F22E814B54F4BC2BE347F8AA8F681390B50FA73F804400B5F542E796F19FF974E7F78DB802FE05E20750
310
4B0304140006080800CC70623BE75B7789680500003C100000340000006662782F41393633353835312D344632462D344230382D423046372D3739314545314133324237412F6F626A656374732E786D6CAD575B8F9B3818FD2B887D06C22499CB8AA1CA655245D5B455A356FB305264C061D8018C6C3393D95FBFC7600890
310
A4CD5EF210B0B1BFEBF98E3F7B1FF6596ABC522E1296DF9BAE3D320D9A872C4AF2F8DE2CE5CEBA358D0FBEC719939D65A691938CDE9B6ADAF4BD98B3B2D05311DD91329583D9D5FC0F438434A7A611A644887B5384CF34233629258BA878B12322891DEFF6B66BD70BFB62634E8AE781D082709A4B588AF91C528CDA28B73F
310
1C998EEF39EABBEFA97FBD6A7C7E9553F9D3D79FE442923C3C523610337627CB87ABE99D359D4CC6D6E4FACAB5E6ABF9D2726FC6A3C5F56271377BB88362213924694B38DD99FE47C48627A1E7D49F5A8BB5E1A74C0A599ED3B0F21F1E56366B89112D681E218F0915D0D6F17AD41FBA2A369DCF6335D62ABBD39779D5DDD1
310
11D4D8DE3CBB96B2E04FB8202E41051754A1AA8E8F76B4C6DFE810B580B1547F4B84911149794252234D024EF8BBE963A95AE27B3D310A9D5C215C7960FAEE415ED75694C6AFB17BCACA5D99A60A9AA65F217B0BFC53292ACB92BF283FAD0D3621576592CB5BED907C2FA8E9DF794E35E97BEA31BED21FEB401ABB94C44839
310
DCACBF0E1C5DA8DA5B2F4DFFD32AD86F543D9E565E7056502E157C00AD2671CD534549AB752FCA9CDA00677A313F04E51B22FF19E57B300579E3C97EB29F682D92935CEC18CF901B7B54FD8C51F362B56FC72FE0B3C1EAE335EDCCBF5AEC39ADB17DC238973F804BA5E6F6BFE7AF1FB32E523BE9F3BD571418E3631DCA4D48
310
5250CF639223210A9446CA30052EDF057BD35F8329C1ECD84552BF0DC8D18BE7BCE23BFE6BD960AB4A7DE79923A103BEBD80F911CBAA2C60DB19B01CF164A5583B772EE6D3FFA56666CBCDA74DC97724A48F9A58967497E489C4D979006FD7A05E227A1EBDD0F737C623387A9C844D3709995625106D157315F8B8392CD4E0
310
A0B9A720C4BE9829CEF37EA1E13111214D53925356365ADA634861B52519DD27A00AEB808EAF0628E6F435519D446F45CF2C9CF5214F0A15B2F6D06B79DA3EE3CBF7F56780D2F4E7EF73A0F5E5B02A38D07DC852C6B7C1FBB6664213E0C39E3EBA7FF4E1AD23EA2829407C85E586727488B751B2DB9502BC7B228A3FD68B6E
310
A65A22397E690AA8D158D7E404EC8CDA235CC3B7D1898680131CEC2CDF2638C65196279577750F15884AEE19F94199155B92B13297978469D4F8D358DF0AEF7631E28DC8F0D9F437D5D39A83B2231A1D52D543813A824EF8D44BCFF2FA6A31BD1E8DAD87F1CCB526B3879935BF59CDADD5C37479BB1CDD4CA7B3556B516589
310
EF352754B706114D9C885EC9131DE6EFEB43D99AFE2391C2F958179413D7CFEF6B1B6DB1E7600F00DE6E5C67454A339A4BA2E0FBA85ED26F045D454F463DBFCE484C2F90F2E5E3666003662ED8F755951A7D1BECD5B30B550B2785C8E7320B7292A4838DDA71BBC863ED7613CAF659337A3354231D4FF4A182A54904C2898C
310
98B28C4AD0CE056CCF332A80986E571EE9DBC305BB5FEB7E509220A58D25CF042D712A806AC0AD0C657FDEF80D2D9CEAA2EE4D1C76F60BFE74219A06527D6F82DF6412526107381E55E353090704D085B52408A8913C4ED159D79BDA71BB4BC506F4831350EB6F975CD22D69BF7AC49B91A2C0A9DDA3D5CA36AD20FC478E37
310
E61844E2352865EBCB61A275A65283CAAA9DD27703B4102F5AF51EF5F573B75CBB5AD38BC845F7A49F82A0966A49C2E3EA5EA0ECD326CD965F1DB402C6FA8B51A4658C5C5E2EC9E214602E55810345408596591009A82E7E7FFACA19EEA299B14A0081A705CB3296EBC14CDF658DCD336EA6D1136881AAEB87B81AB9EE53D5
310
F5EB8BC8362082DA24122F98680A4E7930C01A0079749CEA14382A0783E5EBA5A10F8C098456A03D6A4AEB6BB881E2513747552A5DB22C7EDAF83BD5528081A365F7FF06504B0304140006080000CC70623B000000000000000000000000350000006662782F41393633353835312D344632462D344230382D423046372D37
310
39314545314133324237412F76657274696365732E62696E504B0304140006080800CC70623BF270F1330600000004000000360000006662782F41393633353835312D344632462D344230382D423046372D3739314545314133324237412F747269616E676C65732E62696E636660600000504B0304140006080000CC7062
310
3B000000000000000000000000370000006662782F41393633353835312D344632462D344230382D423046372D3739314545314133324237412F617474726962757465732E62696E504B0304140006080800CC70623B08DA0BD19000000041010000360000006662782F41393633353835312D344632462D344230382D4230
310
46372D3739314545314133324237412F6469726563746F72792E786D6C858F410AC3201045AF22B36F53E9A60B35CBEEBAE80D244E44489C6234F4F835464A48035D0DF398FF9F8AF63D0E6CC63039F212F8F9020C7D47C6792B21C5FE7403D62A1188E2E60C98D7234A5830286103A55745067B9D86B8A3CF9C7F90C11DE6
310
07FB144396D7B6A82D282E9A152AD114D5EF2CB866EEE831B8EEA07A7BB5A8D7D61A2BAAEB7FD5F70921FF497D00504B0304140006080800CC70623BEDD1DC58FD000000A00100003B0000006662782F41393633353835312D344632462D344230382D423046372D3739314545314133324237412F7265736F75726365732F
310
636F72652E786D6C8D504B6E833010BD0A9A6D65B00922041947112427E8052C33A156828DFCA97AFC9A40A576D7CDCCE87D344F8F9FBFE667F689CE6B6B3A6039850C8DB2A336530731DC4903D95970676DF82583CCC8193B5861107C72362E3BA4AC096842428D1D7107A5F7182053CF7474E0D507CE32973124857FE48B
310
540F3961CEF244279DE03EB81420DB9EAC1384436FA353E879B1B182C7A8C75DA3C7F453DF353A1075D537A7BA6464B8F535A99AE14A9A2BBD90E350DD183B5CFABE3AF262350B1EF4FC9351399401471025A527C218A1E53BAB5A5AB765F5469B96525EACF23FA6B88CFF34456DC2A1DCE36E360F82A5202F42F062ED2BAD
310
579969AFDD8A6F504B010214000A0000080000CC70623B3DEE336E79000000790000001B00000000000000000000000000000000006175746F6465736B2D64657369676E2D7061636B6167652E786D6C504B01021400140006080800CC70623BD486FD9CA0000000F40000001300000000000000000000000000B20000005B
310
436F6E74656E745F54797065735D2E786D6C504B01021400140006080800CC70623B853B8169EB0000007C010000080000000000000000000000000083010000636F72652E786D6C504B01021400140006080800CC70623B55019EA25F0000007C000000070000000000000000000000000094020000636E782E786D6C504B
310
01021400140006080800CC70623BDBABAAF470010000D40300000C00000000000000000000000000180300006662782F636F72652E786D6C504B01021400140006080800CC70623B9C113CC27E0000009D0000000B00000000000000000000000000B20400006662782F636E782E786D6C504B01021400140006080800CC70
310
623B7DF2F77C2A010000120200003100000000000000000000000000590500006662782F41393633353835312D344632462D344230382D423046372D3739314545314133324237412F636F72652E786D6C504B01021400140006080800CC70623BAD7543B64E010000330300003000000000000000000000000000D2060000
310
6662782F41393633353835312D344632462D344230382D423046372D3739314545314133324237412F636E782E786D6C504B01021400140006080800CC70623BE75B7789680500003C10000034000000000000000000000000006E0800006662782F41393633353835312D344632462D344230382D423046372D3739314545
310
314133324237412F6F626A656374732E786D6C504B01021400140006080000CC70623B0000000000000000000000003500000000000000000000000000280E00006662782F41393633353835312D344632462D344230382D423046372D3739314545314133324237412F76657274696365732E62696E504B01021400140006
310
080800CC70623BF270F133060000000400000036000000000000000000000000007B0E00006662782F41393633353835312D344632462D344230382D423046372D3739314545314133324237412F747269616E676C65732E62696E504B01021400140006080000CC70623B0000000000000000000000003700000000000000
310
000000000000D50E00006662782F41393633353835312D344632462D344230382D423046372D3739314545314133324237412F617474726962757465732E62696E504B01021400140006080800CC70623B08DA0BD1900000004101000036000000000000000000000000002A0F00006662782F41393633353835312D344632
310
462D344230382D423046372D3739314545314133324237412F6469726563746F72792E786D6C504B01021400140006080800CC70623BEDD1DC58FD000000A00100003B000000000000000000000000000E1000006662782F41393633353835312D344632462D344230382D423046372D3739314545314133324237412F7265
310
736F75726365732F636F72652E786D6C504B0506000000000E000E0080040000641100000000
  0
XRECORD
  5
C43F
102
{ACAD_REACTORS
330
1F7
102
}
330
1F7
100
AcDbXrecord
280
     1
102
MATERIAL
148
0.0
149
0.0
149
0.0
 93
        0
 94
       63
282
     0
 72
     1
 77
     1
171
     1
175
     1
179
     1
273
     0
  0
XRECORD
  5
1F8
102
{ACAD_REACTORS
330
1F7
102
}
330
1F7
100
AcDbXrecord
280
     1
 70
     1
 90
429727718
  1
30362254-06B7-45E0-A893-8CFA70E3D6BC
310
504B03040A0000080000CC70623B3DEE336E79000000790000001B0000006175746F6465736B2D64657369676E2D7061636B6167652E786D6C3C3F786D6C2076657273696F6E3D22312E302220656E636F64696E673D227574662D3822203F3E3C666F726D6174733E3C666F726D61743E687474703A2F2F736368656D612E
310
6175746F6465736B2E636F6D2F64657369676E2D7061636B6167652F323030393C2F666F726D61743E3C2F666F726D6174733E504B0304140006080800CC70623BD486FD9CA0000000F4000000130000005B436F6E74656E745F54797065735D2E786D6C7D8EC10E82300C865F65E91D8A1E8C310C0EEA1BF002731658846E
310
D98AC1B77784ABF1D8FE5FBFBF75BBCE937A534CCEB38643598122B6FEE978D0B0485F9C41B54DDD7D022595594E1A469170414C76A4D9A4D207E29CF43ECE46F218070CC6BECC4078ACAA135ACF422C856C0E68EA1BF5669944DDD7BCDE7B1F8E415D77AECB980613C2E4AC91FC167A2B244592486606FC29C8FD7F045B9A
310
EF7053A7E60B504B0304140006080800CC70623B1EC5D7A3EB0000007C01000008000000636F72652E786D6C8D90416EC3201045AF82665B6103C6756C6122AB4D4ED00B204C5C94182C03558F5F9C3852BBEB6A467FFE9B197D71FC9E6FE8CBACC17AD7032D0820E3B41FAD9B7A48F1820F808E52ACDEC75F36404ECDA687
310
4D0629A6D5A76597B477D1B89855E747B38B2A041301E95B6E7A08FAD3CCAA50296647B8168BD2573599823EBB0CA76447F43862C7BCCF5EAC59410E4DDD9C7973C2755553CCCFA4C603E3040F1565ED3B1FDE4E432BCA0D9622DAF9795FAF464533826484B498524CD807E51D79ED187F21878E10516EF63F505AC67F42C9
310
BA58B1FDDD071640D2FCC87D2045B96591CB3DA85CB7DCE40F504B0304140006080800CC70623B55019EA25F0000007C00000007000000636E782E786D6C4DCB3B0E80201045D1AD90E915ED2CF8AC45050C11660C8261F98AB1B07AC9C97D42D718D865D3E909258CFD00CCE24AC6E326A164D74DC0B4128928FF32603847
310
2BA13128B1252AC747C6BAB984FC68F0B87FE8960A5C09FE86CFB69FBA01504B0304140006080800CC70623B8C9102E971010000D40300000C0000006662782F636F72652E786D6CC5535B6E833010BC8AE5DF0A6C08340F1947A84D4ED00B38C6A128602363A31CBFCB234A53A551FA553EC09AD9F5CE8C31DB9E9B1AF5CA
310
7695D1198E428A91D2D214952E33ECDD315861B4E5CC1AE3BE9561A445A3323CC098B3D21ADFCE9034DA29ED00D5A6503328BA4E398C640D8B0C77F253352214DE4145770A5B214FA2546114020D759C75CE8200340D19DE981F0F6746269C33EFAB6266AB02A655C74A59CCF365BADC27CB5D902ED22848F6340DF238A141
310
BE88E2F57B92BFEDF23523433367AE6A2EEAA455C2A902F398D2751045018D3FA264435F3771F242571B4A1919CA6F9A7C5B3CD9E42BED16F12C776AEB308F40C848FC700B1139D4891EF410CEC810227CC6846F8386402064270EF5C5C709A05E49676C024C61FC95EA45ED154CA5211D1FF4FB8291A913A68E9B83EBBB33
310
E2A7673CDE118E5AE8124C0807CB8377834E366998436B950D7A7746DAD846D4CFD978E0F04FD455FC5D49D2D4C6FE9722321F10997F0F32DC47FE05504B0304140006080800CC70623BFFEA85907E0000009D0000000B0000006662782F636E782E786D6C4DCCD10A83201886E15B91FFDC95D95A811AB6F23E625948A6C3
310
E9D8E5AF46073BFAE0E1E365ED67B3E8ADC3CB78C7815C7240DA3DFC64DCC221C519D7805AC182F7F1EF06C88D9BE6703008B6049F9E274D7A1E938DBB5AE3D6131B2589BA0D3D965551E0B2EA732C9B9A624AAEB41E3A557677029960D9AFB4EF11165F504B0304140006080800CC70623B4FEEA4082C0100001202000031
310
0000006662782F39464131463745442D413632322D343644302D413938332D3331353338454246344243312F636F72652E786D6C8D515B6EC32010BC0AE2AB55850DD871ED0813254D72825EC00192A2C460F1A872FC42ED48ED5F7E00CDCECCCEB26C731F6FE05B39AFADE921293004CA082BB5B9F43086336A21D870E6AC
310
0D7F68109861543DCC30E4ECE26C9C164858139409093556AA051CBC570102714B8F1E7AF1A5C6A11862480C7F2DA6415C878B2A4891CA89C7990F2E050073937C42DE1DB7E4F87ED8A36D4329AA9B3D46DBAEAD504556557BD81DEBDD0761E52CE42C462D17B996298E3E6BE59E35C962CE821E1FF18553435012728A7187
310
0841987E927A8D9B35ADDF70BBC6989599FE4F1427F9A4286A132ABAC49D651EF234CD5CE04CDA78BA3DC2A8FB645D00B9DF8B57E215725C60BCA2A463E54C4CE327C7A65E1C7DB02E7DEFCBF594B864C5CA6CDBD49C957943E9FA5D5FBAF336F90F504B0304140006080800CC70623BAD7543B64E01000033030000300000
310
006662782F39464131463745442D413632322D343644302D413938332D3331353338454246344243312F636E782E786D6CD593CD6EC32010845F0571AD6CE3D48AD20813A9873E410FBD12D82434182C7EAAE6EDBB2424CD25871E7B41D6EC30B3FA84F9E67BB2E40B4234DE8DB46F1925E094D7C6ED479AD3AE5951B2113C
310
789FEE6C943839C1488B4C05DF079FE72A69D8C96C13AAD6B8631503449F83828872B949AC57D26200B826A308D316B4064D6E46FCDA41C05550DC9E483A00797BFD207EFB092A45DE9514C1BBD22178396BD39D891265658C238DEA00936C654E5E433CB65A26D9F6EDB5EBC14EBF49A45CB856E66048291F6939A9A81BB5
310
C8917738143CA680F4AA299D66A042CEB3354A2684DC9D8D178FE0D9B8B41CAAD720F880EE7EF93C0C18769E099ECC04D5A102C8049A8A05632F4DDF376CF1DE0F6BB65C2F8627B65A33C6BB62177CEBBDAD973006829F89F22E814B54F4BC2BE347F8AA8F681390B50FA73F804400B5F542E796F19FF974E7F78DB802FE05
310
E207504B0304140006080800CC70623B16AB87BA640500003C100000340000006662782F39464131463745442D413632322D343644302D413938332D3331353338454246344243312F6F626A656374732E786D6CAD575B6FA33818FD2B887DE6924B3BED8A326A92B68A663B534DD4D13E548A0C38942D60649B369D5FBFC7
310
600890A493BDE42160637FD7F31D7FF63E6FB3D478A55C242CBF3247B66B1A340F5994E4F19559CA8D75611A9F7D8F33263BCB4C232719BD32D5B4E97B316765A1A722BA21652A07B3B7B33F0D11D29C9A46981221AE4C113ED38CD8A4942CA2E2C58E882476BCD9DA23BB5ED8171B73523C0F841684D35CC252CCE79062D4
310
468DFA43D7747CCF51DF7D4FFDEB5593E3AB9CCA9FBEFE241792E4E19EB28198C968BAB8199F5D5A67D3E9C49A9E8F47D6EC76B6B0469F26EEFC7C3EBFBCBEB98462213924694B38DD98FE1D62C393D073EA4FADC5DAF04326852CCF6958F90F0F2B9BB5C48816348F90C7840A68EB78EDF68723159BCEE7891A6B95DDE9D3
310
BCEAEEE8086A6C6F9E5D4B59F0175C10A7A0820BAA5055C7473B5AE3CFDD452D602CD5DF12616444529E90D448938013FE6EFA58AA96F85E4F8C42275708571E98FE6827AF6B2B4AE3D7D83D64E5A64C53054DD3AF90BD06FEA9149565C94FCA0F6B834DC85599E4F2423B24DF0B6AFA979E534DFA9E7A4CC6FA631D486393
310
921829879BF5D781A373557BCB85E97FB90DB62B558F8795179C15944B051F40AB495CF35451D26A4727654E6D8033BD98EF82F21D91FF8AF2DD9982BCF1643BDD4EB516C9492E368C67C88DED563FC36D5EACF66DFF057C3658BDBFA69DF9578B3DA735B64F18C7F20770A9D45CFCF7FCF563D6456A277DBEF78A02637CA2
310
43B90A490AEAB94F72244481D24819A6C0E59B606BFA4B3025981DBB48EAB701D97BF19C577CC77F2D1B6C55A9EF3C732474C0B727303F625995056C3B02963D9EAC146BE78EC5FCEC7FA999EBC5EACBAAE41B12D27B4D2C0BBA49F244E2ECDC81B76B502F113D8F5EE8FB1BE3111CDD4FC2AA9B844CAB1288B68AB90A7CDC
310
1C166AB0D3DC5310625FCC14E779BFD0709F8890A629C9292B1B2DED31A4B0DA928CEE135085754027E3018A397D4D5427D15BD1330B677DC8934285AC3DF45A9EB68FF8F2B8FC0A509AFEECFD0FF2DE25CC6047F7214B195F07EFEB9A094D800F7BFAE8FED187B78EA8A3A400F115961BCAD1215E47C966530AF0EE8128FE
310
58CEBB996A8964FFA529A046635D9353B0336A8F700DDF46271A024E70B0B37C9DE01847591E54DED53D54202AB947E4076556AC49C6CA5C9E1226B7F1A7B1BE15DEED62C41B91E1B3E9AFAAA735036547343A925075041DF0A9979E893B391F8FCFA6967B3EFB644DCF6E5CEBFAE272625DCC6FAF3FB93793C5F90CE1EF57
310
407342756B10D1C489E8953CD1617E5CEECAD6F4EF8914CE5D5D504E5C3F1F9736DA62CFC11E00BCDDB8CC8A9466349744C1F75EBDA4DF09BA8A9E8C7A7E9991989E20E5DBDD6A6003664ED8F7A04A8DBE0DF6EAD9B9AA858342E47399053949D2C146EDB85DE4B176BB0965FBAC19BD19AA918E27FA50C1D22402E144464C
310
59462568E704B6E71915404CB72B8FF4EDE184DDAF753F284990D2C6926782963815403548A70C657FDEF80D2D9CEAA2AE4C1C76F60BFE74219A06527D6582DF6412526107381E55E353090704D085B52408D0933C4ED159D79BDA71BB4BC506F4831350EB6F979CD22D69BF7AC49B91A2C0A9DDA3D5CA36AD20FC478E37E6
310
1844E2352865EBCB6EA275A652E3836BE04EFB400BF1A2556F515F1FBB35B2AB35BD889C744FFA1004B5544B121E57F70215746DD2F5E2C1412B602CBF19455AC6C8E5E9922C4E01E65215385004546899059180EAFCF7A707CE7017CD8CDB0410789AB32C63B91E5CEBBBACB17AC6CD347A022D5075FD106377347AAABA7E
310
7D11590744509B44E205134DC1290F06580320F78E537D3D73540E06CB970B431F185308AD40BBD794D6D77003C5A36E8EAA54BA64597CD8F83BD552A080A365F7FF06504B0304140006080000CC70623B000000000000000000000000350000006662782F39464131463745442D413632322D343644302D413938332D3331
310
353338454246344243312F76657274696365732E62696E504B0304140006080800CC70623BF270F1330600000004000000360000006662782F39464131463745442D413632322D343644302D413938332D3331353338454246344243312F747269616E676C65732E62696E636660600000504B0304140006080000CC70623B
310
000000000000000000000000370000006662782F39464131463745442D413632322D343644302D413938332D3331353338454246344243312F617474726962757465732E62696E504B0304140006080800CC70623B08DA0BD19000000041010000360000006662782F39464131463745442D413632322D343644302D413938
310
332D3331353338454246344243312F6469726563746F72792E786D6C858F410AC3201045AF22B36F53E9A60B35CBEEBAE80D244E44489C6234F4F835464A48035D0DF398FF9F8AF63D0E6CC63039F212F8F9020C7D47C6792B21C5FE7403D62A1188E2E60C98D7234A5830286103A55745067B9D86B8A3CF9C7F90C11DE607
310
FB144396D7B6A82D282E9A152AD114D5EF2CB866EEE831B8EEA07A7BB5A8D7D61A2BAAEB7FD5F70921FF497D00504B0304140006080800CC70623B0D6EF93BFE000000A00100003B0000006662782F39464131463745442D413632322D343644302D413938332D3331353338454246344243312F7265736F75726365732F63
310
6F72652E786D6C8D50596E833010BD0A9ADFCA60B334011947A8694ED00B586642AC041B79A97AFC9A40A5F6AF3F33A3B7689E1E3F7DCD8FEC139DD7D6F4C0720A191A65476DA61E62B892236427C19DB5E1970C322367EC618541F0C9D9B8EC90B226A009093576C41D94DE63804C3DD2D18357379C652E63480A7FCF17A9
310
EE72C29CE5894E3AC17D702940B63D59270887DE46A7D0F36263058F518FBB468FE9A7BE6A7420864373B8D4873369AA8691FA421B3294352543C5CAF65C0F6FEF43CB8BD52C78D0F34F46E550061C419494B6843142CB0F5677F4B52BEB177AEC28E5C52AFF638ACBF84F53D42654E51E77B379102C05791282176B5F693D
310
CB4C7BED567C03504B010214000A0000080000CC70623B3DEE336E79000000790000001B00000000000000000000000000000000006175746F6465736B2D64657369676E2D7061636B6167652E786D6C504B01021400140006080800CC70623BD486FD9CA0000000F40000001300000000000000000000000000B20000005B
310
436F6E74656E745F54797065735D2E786D6C504B01021400140006080800CC70623B1EC5D7A3EB0000007C010000080000000000000000000000000083010000636F72652E786D6C504B01021400140006080800CC70623B55019EA25F0000007C000000070000000000000000000000000094020000636E782E786D6C504B
310
01021400140006080800CC70623B8C9102E971010000D40300000C00000000000000000000000000180300006662782F636F72652E786D6C504B01021400140006080800CC70623BFFEA85907E0000009D0000000B00000000000000000000000000B30400006662782F636E782E786D6C504B01021400140006080800CC70
310
623B4FEEA4082C0100001202000031000000000000000000000000005A0500006662782F39464131463745442D413632322D343644302D413938332D3331353338454246344243312F636F72652E786D6C504B01021400140006080800CC70623BAD7543B64E010000330300003000000000000000000000000000D5060000
310
6662782F39464131463745442D413632322D343644302D413938332D3331353338454246344243312F636E782E786D6C504B01021400140006080800CC70623B16AB87BA640500003C1000003400000000000000000000000000710800006662782F39464131463745442D413632322D343644302D413938332D3331353338
310
454246344243312F6F626A656374732E786D6C504B01021400140006080000CC70623B0000000000000000000000003500000000000000000000000000270E00006662782F39464131463745442D413632322D343644302D413938332D3331353338454246344243312F76657274696365732E62696E504B01021400140006
310
080800CC70623BF270F133060000000400000036000000000000000000000000007A0E00006662782F39464131463745442D413632322D343644302D413938332D3331353338454246344243312F747269616E676C65732E62696E504B01021400140006080000CC70623B0000000000000000000000003700000000000000
310
000000000000D40E00006662782F39464131463745442D413632322D343644302D413938332D3331353338454246344243312F617474726962757465732E62696E504B01021400140006080800CC70623B08DA0BD190000000410100003600000000000000000000000000290F00006662782F39464131463745442D413632
310
322D343644302D413938332D3331353338454246344243312F6469726563746F72792E786D6C504B01021400140006080800CC70623B0D6EF93BFE000000A00100003B000000000000000000000000000D1000006662782F39464131463745442D413632322D343644302D413938332D3331353338454246344243312F7265
310
736F75726365732F636F72652E786D6C504B0506000000000E000E0080040000641100000000
  0
XRECORD
  5
C441
102
{ACAD_REACTORS
330
173
102
}
330
173
100
AcDbXrecord
280
     1
102
MATERIAL
148
0.0
149
0.0
149
0.0
 93
        0
 94
       63
282
     0
 72
     1
 77
     1
171
     1
175
     1
179
     1
273
     0
  0
XRECORD
  5
175
102
{ACAD_REACTORS
330
173
102
}
330
173
100
AcDbXrecord
280
     1
270
     1
271
     1
  0
XRECORD
  5
174
102
{ACAD_REACTORS
330
173
102
}
330
173
100
AcDbXrecord
280
     1
270
     1
271
     1
  0
XRECORD
  5
1FB
102
{ACAD_REACTORS
330
173
102
}
330
173
100
AcDbXrecord
280
     1
 70
     0
 90
1673772943
  1
ECE7A1D2-D628-4531-984C-D00F80459256
310
504B03040A0000080000CC70623B3DEE336E79000000790000001B0000006175746F6465736B2D64657369676E2D7061636B6167652E786D6C3C3F786D6C2076657273696F6E3D22312E302220656E636F64696E673D227574662D3822203F3E3C666F726D6174733E3C666F726D61743E687474703A2F2F736368656D612E
310
6175746F6465736B2E636F6D2F64657369676E2D7061636B6167652F323030393C2F666F726D61743E3C2F666F726D6174733E504B0304140006080800CC70623BD486FD9CA0000000F4000000130000005B436F6E74656E745F54797065735D2E786D6C7D8EC10E82300C865F65E91D8A1E8C310C0EEA1BF002731658846E
310
D98AC1B77784ABF1D8FE5FBFBF75BBCE937A534CCEB38643598122B6FEE978D0B0485F9C41B54DDD7D022595594E1A469170414C76A4D9A4D207E29CF43ECE46F218070CC6BECC4078ACAA135ACF422C856C0E68EA1BF5669944DDD7BCDE7B1F8E415D77AECB980613C2E4AC91FC167A2B244592486606FC29C8FD7F045B9A
310
EF7053A7E60B504B0304140006080800CC70623BD9DDAED0EC0000007C01000008000000636F72652E786D6C8D90416EC3201045AF82665B61836D9CD8C2444DD39CA01740405C94182C03558F5F9C3852BBEB6A467FFE9B197D7EF89E6EE8CB2CC17A37002D0820E394D7D68D03A478C17B4007C117EFE32F1B20272733C0
310
2A83E0E3E2D3BC49CABB685CCCAAF3DA6CA20CC14440EA969B0182FA34932C648AD911AEC52CD5558EA6A0CF2EC329598D1E47ACCEFBECC59A050463A7EA5833865FEBDD0E37353BE3EE8DBDE3F6786A48D375FBF6CC78B9C282473B3DEFABC5C86834888A900E538A49F5419B9EB47DD5BC907D4F082F57FB1F28CDFA9F50
310
B22ED6D5F6EE030B20687EE43E10BC5CB3C8E51E54AE6B6EE207504B0304140006080800CC70623B55019EA25F0000007C00000007000000636E782E786D6C4DCB3B0E80201045D1AD90E915ED2CF8AC45050C11660C8261F98AB1B07AC9C97D42D718D865D3E909258CFD00CCE24AC6E326A164D74DC0B4128928FF326038
310
472BA13128B1252AC747C6BAB984FC68F0B87FE8960A5C09FE86CFB69FBA01504B0304140006080800CC70623BA24EB22D72010000D40300000C0000006662782F636F72652E786D6CC5535B6E833010BC8AE5DF0A6C5E49888CA3A6694ED00B38E05014B091B1518EDFE511A5A9D228FD2A1F60CDEC7A67C6986DCE4D8D7A
310
69BA4AAB0C073EC548AA5C17952A33ECECD15B61B4E1CC686DBF9561A44423333CC098B3D268D7CE50AE9595CA02AA74216750749DB418E5352C32DCE59FB211BE70162ABA93DF8AFC244AE9073ED050C759670D0840D390E18DF9F1706664C23973AE2A66B62A605A75ACA4C13C4976E1364A12EF355A2EBD384AF65EFA96
310
BC7B8BED2EA6719AAE16FB8491A199335B351775B991C2CA02F390D2D40B028F861F41BCA68B7518BFD0D59A524686F29B26D7164F36B94AD9289CE54E6D1DE6010819891F6E21228B3AD1831EC219194284CF98F06DD01008846CC5A1BEF83801D4CBDC6A1303536877A57A513B0953A94FC707FDBE6064EA84A9E3E6E0FA
310
EE8CF0E9198F7784A316AA0413C2C2F2E0ECA0934D1AE6D05A69BCDE9E91D2A611F573361E38FC1375157F5752AE6B6DFE4B11990F88CCBF0719EE23FF02504B0304140006080800CC70623B408A7D3B7C0000009D0000000B0000006662782F636E782E786D6C4DCCD10A83201886E15B91FFDC552A92A0064DBC8F581632
310
D3703A76F9ABD1C18E3E78F878E5F0D9027ABBFCF2292AE86E2D20171F69F6715550CB827B40839639A5F2770314A7CD293819B45C73AAFB45B35BA61ACAA1C1C7E7855C58C15BC331339661262CC762340413D68D77DA5B42298546CBE6573AF60CEB2F504B0304140006080800CC70623B449FB9BD290100001202000031
310
0000006662782F36394639363044362D344446342D343946362D394244322D3234314243333846323333332F636F72652E786D6C8D515B6EC32010BC0AE22B55850D98B871848994463E412FE002495162B07854397EA176A4F62F3F2C9A9D991D587EB84F37F0AD7D30CEF6905418026DA553C65E7A98E219ED203808EE9D
310
8B7F6810D871D23D2C3014FCE25D9A57483A1BB58D19B54EE9151C43D0110279CB971E06F9A5A7B11A53CC8C70ADE6515EC78BAE4895DB992778883E0700CB907242D17643D7E2538BD869608875438BBAE38922CAC8F1BDD90DB4691A5E2F42C153326A951B95E398B3D1FE599322163C9AE9115F7A3D46ADA0A018778810
310
84E907617BDCEE297BC5BB3DC6BC2EF47FA234AB2745C9D8D8D035EE220B50105E2F0DC1954B9FB747187D9F9D8FA0CCDB042D5FA0C015C65B42DF78BD10F3F3B363CB56C7109DCFDFBBB97E662ED92EB62D13BC2E1BCAE5777DB9966D8A1F504B0304140006080800CC70623BAD7543B64E01000033030000300000006662
310
782F36394639363044362D344446342D343946362D394244322D3234314243333846323333332F636E782E786D6CD593CD6EC32010845F0571AD6CE3D48AD20813A9873E410FBD12D82434182C7EAAE6EDBB2424CD25871E7B41D6EC30B3FA84F9E67BB2E40B4234DE8DB46F1925E094D7C6ED479AD3AE5951B2113C789FEE
310
6C943839C1488B4C05DF079FE72A69D8C96C13AAD6B8631503449F83828872B949AC57D26200B826A308D316B4064D6E46FCDA41C05550DC9E483A00797BFD207EFB092A45DE9514C1BBD22178396BD39D891265658C238DEA00936C654E5E433CB65A26D9F6EDB5EBC14EBF49A45CB856E66048291F6939A9A81BB5C89177
310
38143CA680F4AA299D66A042CEB3354A2684DC9D8D178FE0D9B8B41CAAD720F880EE7EF93C0C18769E099ECC04D5A102C8049A8A05632F4DDF376CF1DE0F6BB65C2F8627B65A33C6BB62177CEBBDAD973006829F89F22E814B54F4BC2BE347F8AA8F681390B50FA73F804400B5F542E796F19FF974E7F78DB802FE05E20750
310
4B0304140006080800CC70623B8D05915C650500003B100000340000006662782F36394639363044362D344446342D343946362D394244322D3234314243333846323333332F6F626A656374732E786D6CAD575B6FA33814FE2B887D06429276DA1565D4266D158D3A339A6846FB502932E050B66023DB74D2FDF5FB190C01
310
9276B2973C046C8ECFF53B17071F77456EBD502133CEAE6CDF9DD81665314F32965ED995DA3A17B6F5310C04E7AA47665B8C14F4CAD6DB7618A48257A5D94AE89654B91AEDDEDDFC61C998326A5B714EA4BCB265FC440BE2924AF184CA6737218AB8E976E7FA6E4338649B0A523E8D98964450A6A029F619B8588D52FE7039
310
B1BD30F0F4F730D0FF866AF6369557DB33949F31A9088B0F848DD8CCFCF9F2767A76E99CCDE733677E3EF59D9BBB9BA5E37F984D16E78BC5E5F5ED25044B25C0C96822E8D60EEFE11B91C581D77CEA34368A1F5329E68CD1B8B61F16D63A1B8E092D294B10C78C4A48EB593D192E7DED9BDEE7995E1B91FDEDD3ACEA9FE831
310
6A756F9F7D4D79F4274C90A7A04248AA51D5F8C718DAE06FB2F75AC4796EBE65D22A88A22223B995679120E2D50E41AA49C260C046A35368846B0BECD0DFF3EBEB8AD4F835768F69B9ADF25C43D30E6B646F807FAA64AD59F61715C7A54127C4AACA98BA3006A9D792DAE165E0D59B61A01FB3A9F9D838D2DAE62445C86166
310
F37564E842E7DE6A69879FEEA2DD5AE7E371E1A5E025154AC307D06A03D73EB5978C58FFA4C8E9033066E0F3BD53BEC1F39F91BE7B55103791EDE6BBB991A2046172CB4581D8B893FA674DDA17A77B3B7C413D1B511FD2743BFF8A38F03A658705E3ADF8015C3A3417FF3D7E439FF591DA0B5F18BC20C1B8981957AE6392A3
310
F43C640C01D1A0B4728E2DD4F26DB4B3C3152A252A3B4E913CEC1C72F012782FF88EFF8637AA552DBEF76408E8A8DE9E50F9E1CB3A2DA0DB1B6039A893B56063DC5B3E3FFB5F72E67AB9FEB4AEC496C4F4C1149625DD662C53E89D7BF0F6151A046260D1337DFDC94502430F83B0EE07A130A224BCAD7DAE1D9FB6CD422FF6
310
920702629C4BB9AE79C12F243C6432A6794E18E5552BA56B431AAB5D91317302B2B071E86C3A42B1A02F999E24061403B5D0EB639195DA655DD3EBEAB4FB862DDF579F014AD0E73C22F99E28DA57FB98E75C6CA2D74D53086D600F4786E0FE3144B771A8A7B900F03594DB8A633CBC49B2EDB69228BB479CF863B5E807AAAB
310
23872F6DFEB4129B949CA33823F58830E86D65621E10047D9DB34D862E8EAC3C2ABC2F7B2C40D67CDFE01F5545B92105AF983AC54D93D69E56FB8E797F88913F898A9FEC705D3F9D1B54EC8426FB500D40A03BD0119B06E1B95DDC7EB8F6975367793EBD70E66733DFB9BC982F9CE564727731999F5D4ECFCE3B8D6A4DC2A0
310
6D50FD148437D110834A64C6CDDF57FBACB5C307A2A477DFE4939736CFEF2B175371E0E10CF0DD1D5C15654E0BCA14D1E87DD02FF93782A162C0A3D95F1524A52770F972BF1EE9809D13CE7DD599467F8ECE9ADD85CE85A34CD45355448C64F9E8A031DC2D596ACC6E5DD93D9B82DE2EF5CAF81363A8E47996A0DE24564A79
310
4115AACE09C55E14540231FDA13C319787134EBF34E3A022514E5B4D9E0826E25C02D5805B15ABE1BEF51B26383D445DD9E875EE33FE4C22DA16427D65A3BCA92CA6D28DD01DF5DC53330704308475351050232CCD31583787BA75774AFB06E5070DD0C8EF484E19968C5D83BA5B90B244D31E54D55A372320FE4786B7EA58
310
44E135AA5467CB7EA333A61683CC6A8C3257034C10CF46F40EF9F5BE59BE5BD30C3C72D235E95D10345C1D45445A5F0BB47E46A5EBE5570F9380B5FA629579952296A773720405982B9DE04011506178964401AA8BDF1FBF0A8EAB6861DD6580C0E38217056766716DAEB2D6FA0917D3E4116581EADB879C4E7CFFB11EFACD
310
3D641311495D92C8676CB409A72D18610D803CE8A626049E8EC1887CB5B44CC39883690DDA8399B4B9855B481E7D71D4A9D22F96E5BB73BF5793020C02137BF837504B0304140006080000CC70623B000000000000000000000000350000006662782F36394639363044362D344446342D343946362D394244322D32343142
310
43333846323333332F76657274696365732E62696E504B0304140006080800CC70623BF270F1330600000004000000360000006662782F36394639363044362D344446342D343946362D394244322D3234314243333846323333332F747269616E676C65732E62696E636660600000504B0304140006080000CC70623B0000
310
00000000000000000000370000006662782F36394639363044362D344446342D343946362D394244322D3234314243333846323333332F617474726962757465732E62696E504B0304140006080800CC70623B08DA0BD19000000041010000360000006662782F36394639363044362D344446342D343946362D394244322D
310
3234314243333846323333332F6469726563746F72792E786D6C858F410AC3201045AF22B36F53E9A60B35CBEEBAE80D244E44489C6234F4F835464A48035D0DF398FF9F8AF63D0E6CC63039F212F8F9020C7D47C6792B21C5FE7403D62A1188E2E60C98D7234A5830286103A55745067B9D86B8A3CF9C7F90C11DE607FB14
310
4396D7B6A82D282E9A152AD114D5EF2CB866EEE831B8EEA07A7BB5A8D7D61A2BAAEB7FD5F70921FF497D00504B0304140006080800CC70623BCA768048FE000000A00100003B0000006662782F36394639363044362D344446342D343946362D394244322D3234314243333846323333332F7265736F75726365732F636F72
310
652E786D6C8D50596E833010BD0A9ADFCA60D600328E9AA639412F609909B1126CE4A5EAF16B0295DABFFECC8CDEA2797AECF8353F924FB44E193D409E5248504B332A3D0D10FC95B4901C39B3C6F85F3248B49871801506CE266BC2B243D2688FDA47549B11775038871E12F988C7004EDE7016A9083E2ADC3D5D84BC8B09
310
D33C8D74D471E6BC8D0192EDC93A815B742658898E651BCB59086ADC356A8C3FD555A1055ED7E7E254D615792D0F075295F585746FF53B694EE78A565DD736979A65AB9933AFE69F8CD2A2F038022F28ED489E135A7CE4554F9BBEA85E68DB53CAB255FEC71496F19FA6A0B42F8B3DEE6673C0F318E4497096AD7DC5F52C33
310
EEB55BFE0D504B010214000A0000080000CC70623B3DEE336E79000000790000001B00000000000000000000000000000000006175746F6465736B2D64657369676E2D7061636B6167652E786D6C504B01021400140006080800CC70623BD486FD9CA0000000F40000001300000000000000000000000000B20000005B436F
310
6E74656E745F54797065735D2E786D6C504B01021400140006080800CC70623BD9DDAED0EC0000007C010000080000000000000000000000000083010000636F72652E786D6C504B01021400140006080800CC70623B55019EA25F0000007C000000070000000000000000000000000095020000636E782E786D6C504B0102
310
1400140006080800CC70623BA24EB22D72010000D40300000C00000000000000000000000000190300006662782F636F72652E786D6C504B01021400140006080800CC70623B408A7D3B7C0000009D0000000B00000000000000000000000000B50400006662782F636E782E786D6C504B01021400140006080800CC70623B
310
449FB9BD290100001202000031000000000000000000000000005A0500006662782F36394639363044362D344446342D343946362D394244322D3234314243333846323333332F636F72652E786D6C504B01021400140006080800CC70623BAD7543B64E010000330300003000000000000000000000000000D20600006662
310
782F36394639363044362D344446342D343946362D394244322D3234314243333846323333332F636E782E786D6C504B01021400140006080800CC70623B8D05915C650500003B10000034000000000000000000000000006E0800006662782F36394639363044362D344446342D343946362D394244322D32343142433338
310
46323333332F6F626A656374732E786D6C504B01021400140006080000CC70623B0000000000000000000000003500000000000000000000000000250E00006662782F36394639363044362D344446342D343946362D394244322D3234314243333846323333332F76657274696365732E62696E504B010214001400060808
310
00CC70623BF270F13306000000040000003600000000000000000000000000780E00006662782F36394639363044362D344446342D343946362D394244322D3234314243333846323333332F747269616E676C65732E62696E504B01021400140006080000CC70623B00000000000000000000000037000000000000000000
310
00000000D20E00006662782F36394639363044362D344446342D343946362D394244322D3234314243333846323333332F617474726962757465732E62696E504B01021400140006080800CC70623B08DA0BD190000000410100003600000000000000000000000000270F00006662782F36394639363044362D344446342D
310
343946362D394244322D3234314243333846323333332F6469726563746F72792E786D6C504B01021400140006080800CC70623BCA768048FE000000A00100003B000000000000000000000000000B1000006662782F36394639363044362D344446342D343946362D394244322D3234314243333846323333332F7265736F
310
75726365732F636F72652E786D6C504B0506000000000E000E0080040000621100000000
  0
XRECORD
  5
176
102
{ACAD_REACTORS
330
173
102
}
330
173
100
AcDbXrecord
280
     1
270
     1
271
     1
  0
XRECORD
  5
177
102
{ACAD_REACTORS
330
173
102
}
330
173
100
AcDbXrecord
280
     1
270
     1
271
     1
  0
XRECORD
  5
C463
102
{ACAD_REACTORS
330
C462
102
}
330
C462
100
AcDbXrecord
280
     1
102
ACAD_ROUNDTRIP_2012_MLEADER_STYLE
298
     1
  0
XRECORD
  5
C475
102
{ACAD_REACTORS
330
C474
102
}
330
C474
100
AcDbXrecord
280
     1
102
DISPLAYNAME
  1
Metric50
102
FLAGS
 90
        0
  0
CELLSTYLEMAP
  5
C435
102
{ACAD_REACTORS
330
162
102
}
330
162
100
AcDbCellStyleMap
 90
        3
300
CELLSTYLE
  1
TABLEFORMAT_BEGIN
 90
        5
170
     1
 91
        0
 92
    32768
 62
   257
 93
        1
300
CONTENTFORMAT
  1
CONTENTFORMAT_BEGIN
 90
        0
 91
        0
 92
      512
 93
        0
300

 40
0.0
140
1.0
 94
        5
 62
     0
340
11
144
6.0
309
CONTENTFORMAT_END
171
     1
301
MARGIN
  1
CELLMARGIN_BEGIN
 40
1.5
 40
1.5
 40
1.5
 40
1.5
 40
4.5
 40
4.5
309
CELLMARGIN_END
 94
        6
 95
        1
302
GRIDFORMAT
  1
GRIDFORMAT_BEGIN
 90
        0
 91
        1
 62
     0
 92
       -2
340
14
 93
        0
 40
1.125
309
GRIDFORMAT_END
 95
        2
302
GRIDFORMAT
  1
GRIDFORMAT_BEGIN
 90
        0
 91
        1
 62
     0
 92
       -2
340
14
 93
        0
 40
1.125
309
GRIDFORMAT_END
 95
        4
302
GRIDFORMAT
  1
GRIDFORMAT_BEGIN
 90
        0
 91
        1
 62
     0
 92
       -2
340
14
 93
        0
 40
1.125
309
GRIDFORMAT_END
 95
        8
302
GRIDFORMAT
  1
GRIDFORMAT_BEGIN
 90
        0
 91
        1
 62
     0
 92
       -2
340
14
 93
        0
 40
1.125
309
GRIDFORMAT_END
 95
       16
302
GRIDFORMAT
  1
GRIDFORMAT_BEGIN
 90
        0
 91
        1
 62
     0
 92
       -2
340
14
 93
        0
 40
1.125
309
GRIDFORMAT_END
 95
       32
302
GRIDFORMAT
  1
GRIDFORMAT_BEGIN
 90
        0
 91
        1
 62
     0
 92
       -2
340
14
 93
        0
 40
1.125
309
GRIDFORMAT_END
309
TABLEFORMAT_END
  1
CELLSTYLE_BEGIN
 90
        1
 91
        1
300
_TITLE
309
CELLSTYLE_END
300
CELLSTYLE
  1
TABLEFORMAT_BEGIN
 90
        5
170
     1
 91
        0
 92
        0
 62
   257
 93
        1
300
CONTENTFORMAT
  1
CONTENTFORMAT_BEGIN
 90
        0
 91
        0
 92
      512
 93
        0
300

 40
0.0
140
1.0
 94
        5
 62
     0
340
11
144
4.5
309
CONTENTFORMAT_END
171
     1
301
MARGIN
  1
CELLMARGIN_BEGIN
 40
1.5
 40
1.5
 40
1.5
 40
1.5
 40
4.5
 40
4.5
309
CELLMARGIN_END
 94
        6
 95
        1
302
GRIDFORMAT
  1
GRIDFORMAT_BEGIN
 90
        0
 91
        1
 62
     0
 92
       -2
340
14
 93
        0
 40
1.125
309
GRIDFORMAT_END
 95
        2
302
GRIDFORMAT
  1
GRIDFORMAT_BEGIN
 90
        0
 91
        1
 62
     0
 92
       -2
340
14
 93
        0
 40
1.125
309
GRIDFORMAT_END
 95
        4
302
GRIDFORMAT
  1
GRIDFORMAT_BEGIN
 90
        0
 91
        1
 62
     0
 92
       -2
340
14
 93
        0
 40
1.125
309
GRIDFORMAT_END
 95
        8
302
GRIDFORMAT
  1
GRIDFORMAT_BEGIN
 90
        0
 91
        1
 62
     0
 92
       -2
340
14
 93
        0
 40
1.125
309
GRIDFORMAT_END
 95
       16
302
GRIDFORMAT
  1
GRIDFORMAT_BEGIN
 90
        0
 91
        1
 62
     0
 92
       -2
340
14
 93
        0
 40
1.125
309
GRIDFORMAT_END
 95
       32
302
GRIDFORMAT
  1
GRIDFORMAT_BEGIN
 90
        0
 91
        1
 62
     0
 92
       -2
340
14
 93
        0
 40
1.125
309
GRIDFORMAT_END
309
TABLEFORMAT_END
  1
CELLSTYLE_BEGIN
 90
        2
 91
        1
300
_HEADER
309
CELLSTYLE_END
300
CELLSTYLE
  1
TABLEFORMAT_BEGIN
 90
        5
170
     1
 91
        0
 92
        0
 62
   257
 93
        1
300
CONTENTFORMAT
  1
CONTENTFORMAT_BEGIN
 90
        0
 91
        0
 92
      512
 93
        0
300

 40
0.0
140
1.0
 94
        2
 62
     0
340
11
144
4.5
309
CONTENTFORMAT_END
171
     1
301
MARGIN
  1
CELLMARGIN_BEGIN
 40
1.5
 40
1.5
 40
1.5
 40
1.5
 40
4.5
 40
4.5
309
CELLMARGIN_END
 94
        6
 95
        1
302
GRIDFORMAT
  1
GRIDFORMAT_BEGIN
 90
        0
 91
        1
 62
     0
 92
       -2
340
14
 93
        0
 40
1.125
309
GRIDFORMAT_END
 95
        2
302
GRIDFORMAT
  1
GRIDFORMAT_BEGIN
 90
        0
 91
        1
 62
     0
 92
       -2
340
14
 93
        0
 40
1.125
309
GRIDFORMAT_END
 95
        4
302
GRIDFORMAT
  1
GRIDFORMAT_BEGIN
 90
        0
 91
        1
 62
     0
 92
       -2
340
14
 93
        0
 40
1.125
309
GRIDFORMAT_END
 95
        8
302
GRIDFORMAT
  1
GRIDFORMAT_BEGIN
 90
        0
 91
        1
 62
     0
 92
       -2
340
14
 93
        0
 40
1.125
309
GRIDFORMAT_END
 95
       16
302
GRIDFORMAT
  1
GRIDFORMAT_BEGIN
 90
        0
 91
        1
 62
     0
 92
       -2
340
14
 93
        0
 40
1.125
309
GRIDFORMAT_END
 95
       32
302
GRIDFORMAT
  1
GRIDFORMAT_BEGIN
 90
        0
 91
        1
 62
     0
 92
       -2
340
14
 93
        0
 40
1.125
309
GRIDFORMAT_END
309
TABLEFORMAT_END
  1
CELLSTYLE_BEGIN
 90
        3
 91
        2
300
_DATA
309
CELLSTYLE_END
  0
XRECORD
  5
C43A
102
{ACAD_REACTORS
330
162
102
}
330
162
100
AcDbXrecord
280
     1
102
ACAD_ROUNDTRIP_PRE2007_TABLESTYLE
 90
      512
 91
        0
  1

 92
      512
 93
        0
  2

 94
      512
 95
        0
  3

  0
XRECORD
  5
C44D
102
{ACAD_REACTORS
330
C44C
102
}
330
C44C
100
AcDbXrecord
280
     1
102
RTVSPost2010Prop28
280
     1
102
RTVSPost2010PropOp28
 70
     1
102
RTVSPost2010Prop29
280
     1
102
RTVSPost2010PropOp29
 70
     1
102
RTVSPost2010Prop30
280
     0
102
RTVSPost2010PropOp30
 70
     1
102
RTVSPost2010Prop31
280
     0
102
RTVSPost2010PropOp31
 70
     1
102
RTVSPost2010Prop32
280
     0
102
RTVSPost2010PropOp32
 70
     1
102
RTVSPost2010Prop33
280
     0
102
RTVSPost2010PropOp33
 70
     1
102
RTVSPost2010Prop34
280
     0
102
RTVSPost2010PropOp34
 70
     1
102
RTVSPost2010Prop35
280
     0
102
RTVSPost2010PropOp35
 70
     1
102
RTVSPost2010Prop36
280
     0
102
RTVSPost2010PropOp36
 70
     1
102
RTVSPost2010Prop37
 90
       50
102
RTVSPost2010PropOp37
 70
     1
102
RTVSPost2010Prop38
140
0.0
102
RTVSPost2010PropOp38
 70
     1
102
RTVSPost2010Prop39
140
1.0
102
RTVSPost2010PropOp39
 70
     1
102
RTVSPost2010Prop40
 90
        0
102
RTVSPost2010PropOp40
 70
     1
102
RTVSPost2010Prop41ColorIndex
 90
       18
102
RTVSPost2010Prop41ColorRGB
 90
        0
102
RTVSPost2010PropOp41
 70
     1
102
RTVSPost2010Prop42
 90
       50
102
RTVSPost2010PropOp42
 70
     1
102
RTVSPost2010Prop43
 90
        3
102
RTVSPost2010PropOp43
 70
     1
102
RTVSPost2010Prop44ColorIndex
 90
        5
102
RTVSPost2010Prop44ColorRGB
 90
      255
102
RTVSPost2010PropOp44
 70
     1
102
RTVSPost2010Prop45
280
     0
102
RTVSPost2010PropOp45
 70
     1
102
RTVSPost2010Prop46
 90
       50
102
RTVSPost2010PropOp46
 70
     1
102
RTVSPost2010Prop47
 90
       50
102
RTVSPost2010PropOp47
 70
     1
102
RTVSPost2010Prop48
 90
       50
102
RTVSPost2010PropOp48
 70
     1
102
RTVSPost2010Prop49
280
     0
102
RTVSPost2010PropOp49
 70
     1
102
RTVSPost2010Prop50
 90
       50
102
RTVSPost2010PropOp50
 70
     1
102
RTVSPost2010Prop51ColorIndex
 90
      256
102
RTVSPost2010Prop51ColorRGB
 90
-16777216
102
RTVSPost2010PropOp51
 70
     0
102
RTVSPost2010Prop52
140
1.0
102
RTVSPost2010PropOp52
 70
     0
102
RTVSPost2010Prop53
 90
        2
102
RTVSPost2010PropOp53
 70
     1
102
RTVSPost2010Prop54
  1
strokes_ogs.tif
102
RTVSPost2010PropOp54
 70
     1
102
RTVSPost2010Prop55
280
     0
102
RTVSPost2010PropOp55
 70
     1
102
RTVSPost2010Prop56
140
1.0
102
RTVSPost2010PropOp56
 70
     1
102
RTVSPost2010Prop57
140
1.0
102
RTVSPost2010PropOp57
 70
     1
102
RTVSPropertyOp0
 70
     1
102
RTVSPropertyOp1
 70
     1
102
RTVSPropertyOp2
 70
     1
102
RTVSPropertyOp3
 70
     1
102
RTVSPropertyOp4
 70
     1
102
RTVSPropertyOp5
 70
     1
102
RTVSPropertyOp6
 70
     1
102
RTVSPropertyOp7
 70
     1
102
RTVSPropertyOp8
 70
     1
102
RTVSPropertyOp9
 70
     1
102
RTVSPropertyOp10
 70
     1
102
RTVSPropertyOp11
 70
     1
102
RTVSPropertyOp12
 70
     1
102
RTVSPropertyOp13
 70
     1
102
RTVSPropertyOp14
 70
     1
102
RTVSPropertyOp15
 70
     1
102
RTVSPropertyOp16
 70
     1
102
RTVSPropertyOp17
 70
     1
102
RTVSPropertyOp18
 70
     1
102
RTVSPropertyOp19
 70
     1
102
RTVSPropertyOp20
 70
     1
102
RTVSPropertyOp21
 70
     1
102
RTVSPropertyOp22
 70
     1
102
RTVSPropertyOp23
 70
     1
102
RTVSPropertyOp24
 70
     1
102
RTVSPropertyOp25
 70
     1
102
RTVSPropertyOp26
 70
     1
102
RTVSPropertyOp27
 70
     1
102
RTVSPropertyOp28
 70
     1
102
RTVSPropertyOp29
 70
     1
102
RTVSPropertyOp30
 70
     1
102
RTVSPropertyOp31
 70
     1
102
RTVSPropertyOp32
 70
     1
102
RTVSPropertyOp33
 70
     1
102
RTVSPropertyOp34
 70
     1
102
RTVSPropertyOp35
 70
     1
102
RTVSPropertyOp36
 70
     1
102
RTVSPropertyOp37
 70
     1
102
RTVSPropertyOp38
 70
     1
102
RTVSPropertyOp39
 70
     1
102
RTVSPropertyOp40
 70
     1
102
RTVSPropertyOp41
 70
     1
102
RTVSPropertyOp42
 70
     1
102
RTVSPropertyOp43
 70
     1
102
RTVSPropertyOp44
 70
     1
102
RTVSPropertyOp45
 70
     1
102
RTVSPropertyOp46
 70
     1
102
RTVSPropertyOp47
 70
     1
102
RTVSPropertyOp48
 70
     1
102
RTVSPropertyOp49
 70
     1
102
RTVSPropertyOp50
 70
     1
102
RTVSPropertyOp51
 70
     0
102
RTVSPropertyOp52
 70
     0
102
RTVSPropertyOp53
 70
     1
102
RTVSPropertyOp54
 70
     1
102
RTVSPropertyOp55
 70
     1
102
RTVSPropertyOp56
 70
     1
102
RTVSPropertyOp57
 70
     1
102
RTVSPropertyOp58
 70
     1
102
RTVSPropertyOp59
 70
     1
102
RTVSPropertyOp60
 70
     1
102
RTVSPropertyOp61
 70
     1
102
RTVSPropertyOp62
 70
     1
  0
XRECORD
  5
C44B
102
{ACAD_REACTORS
330
C44A
102
}
330
C44A
100
AcDbXrecord
280
     1
102
RTVSPost2010Prop28
280
     0
102
RTVSPost2010PropOp28
 70
     1
102
RTVSPost2010Prop29
280
     1
102
RTVSPost2010PropOp29
 70
     1
102
RTVSPost2010Prop30
280
     1
102
RTVSPost2010PropOp30
 70
     1
102
RTVSPost2010Prop31
280
     0
102
RTVSPost2010PropOp31
 70
     1
102
RTVSPost2010Prop32
280
     0
102
RTVSPost2010PropOp32
 70
     1
102
RTVSPost2010Prop33
280
     0
102
RTVSPost2010PropOp33
 70
     1
102
RTVSPost2010Prop34
280
     0
102
RTVSPost2010PropOp34
 70
     1
102
RTVSPost2010Prop35
280
     0
102
RTVSPost2010PropOp35
 70
     1
102
RTVSPost2010Prop36
280
     0
102
RTVSPost2010PropOp36
 70
     1
102
RTVSPost2010Prop37
 90
       50
102
RTVSPost2010PropOp37
 70
     1
102
RTVSPost2010Prop38
140
0.0
102
RTVSPost2010PropOp38
 70
     1
102
RTVSPost2010Prop39
140
1.0
102
RTVSPost2010PropOp39
 70
     1
102
RTVSPost2010Prop40
 90
        0
102
RTVSPost2010PropOp40
 70
     1
102
RTVSPost2010Prop41ColorIndex
 90
       18
102
RTVSPost2010Prop41ColorRGB
 90
        0
102
RTVSPost2010PropOp41
 70
     1
102
RTVSPost2010Prop42
 90
       50
102
RTVSPost2010PropOp42
 70
     1
102
RTVSPost2010Prop43
 90
        3
102
RTVSPost2010PropOp43
 70
     1
102
RTVSPost2010Prop44ColorIndex
 90
        5
102
RTVSPost2010Prop44ColorRGB
 90
      255
102
RTVSPost2010PropOp44
 70
     1
102
RTVSPost2010Prop45
280
     0
102
RTVSPost2010PropOp45
 70
     1
102
RTVSPost2010Prop46
 90
       50
102
RTVSPost2010PropOp46
 70
     1
102
RTVSPost2010Prop47
 90
       50
102
RTVSPost2010PropOp47
 70
     1
102
RTVSPost2010Prop48
 90
       50
102
RTVSPost2010PropOp48
 70
     1
102
RTVSPost2010Prop49
280
     0
102
RTVSPost2010PropOp49
 70
     1
102
RTVSPost2010Prop50
 90
       50
102
RTVSPost2010PropOp50
 70
     1
102
RTVSPost2010Prop51ColorIndex
 90
      256
102
RTVSPost2010Prop51ColorRGB
 90
-16777216
102
RTVSPost2010PropOp51
 70
     0
102
RTVSPost2010Prop52
140
1.0
102
RTVSPost2010PropOp52
 70
     0
102
RTVSPost2010Prop53
 90
        2
102
RTVSPost2010PropOp53
 70
     1
102
RTVSPost2010Prop54
  1
strokes_ogs.tif
102
RTVSPost2010PropOp54
 70
     1
102
RTVSPost2010Prop55
280
     0
102
RTVSPost2010PropOp55
 70
     1
102
RTVSPost2010Prop56
140
1.0
102
RTVSPost2010PropOp56
 70
     1
102
RTVSPost2010Prop57
140
1.0
102
RTVSPost2010PropOp57
 70
     1
102
RTVSPropertyOp0
 70
     1
102
RTVSPropertyOp1
 70
     1
102
RTVSPropertyOp2
 70
     1
102
RTVSPropertyOp3
 70
     1
102
RTVSPropertyOp4
 70
     1
102
RTVSPropertyOp5
 70
     1
102
RTVSPropertyOp6
 70
     1
102
RTVSPropertyOp7
 70
     1
102
RTVSPropertyOp8
 70
     1
102
RTVSPropertyOp9
 70
     1
102
RTVSPropertyOp10
 70
     1
102
RTVSPropertyOp11
 70
     1
102
RTVSPropertyOp12
 70
     1
102
RTVSPropertyOp13
 70
     1
102
RTVSPropertyOp14
 70
     1
102
RTVSPropertyOp15
 70
     1
102
RTVSPropertyOp16
 70
     1
102
RTVSPropertyOp17
 70
     1
102
RTVSPropertyOp18
 70
     1
102
RTVSPropertyOp19
 70
     1
102
RTVSPropertyOp20
 70
     1
102
RTVSPropertyOp21
 70
     1
102
RTVSPropertyOp22
 70
     1
102
RTVSPropertyOp23
 70
     1
102
RTVSPropertyOp24
 70
     1
102
RTVSPropertyOp25
 70
     1
102
RTVSPropertyOp26
 70
     1
102
RTVSPropertyOp27
 70
     1
102
RTVSPropertyOp28
 70
     1
102
RTVSPropertyOp29
 70
     1
102
RTVSPropertyOp30
 70
     1
102
RTVSPropertyOp31
 70
     1
102
RTVSPropertyOp32
 70
     1
102
RTVSPropertyOp33
 70
     1
102
RTVSPropertyOp34
 70
     1
102
RTVSPropertyOp35
 70
     1
102
RTVSPropertyOp36
 70
     1
102
RTVSPropertyOp37
 70
     1
102
RTVSPropertyOp38
 70
     1
102
RTVSPropertyOp39
 70
     1
102
RTVSPropertyOp40
 70
     1
102
RTVSPropertyOp41
 70
     1
102
RTVSPropertyOp42
 70
     1
102
RTVSPropertyOp43
 70
     1
102
RTVSPropertyOp44
 70
     1
102
RTVSPropertyOp45
 70
     1
102
RTVSPropertyOp46
 70
     1
102
RTVSPropertyOp47
 70
     1
102
RTVSPropertyOp48
 70
     1
102
RTVSPropertyOp49
 70
     1
102
RTVSPropertyOp50
 70
     1
102
RTVSPropertyOp51
 70
     0
102
RTVSPropertyOp52
 70
     0
102
RTVSPropertyOp53
 70
     1
102
RTVSPropertyOp54
 70
     1
102
RTVSPropertyOp55
 70
     1
102
RTVSPropertyOp56
 70
     1
102
RTVSPropertyOp57
 70
     1
102
RTVSPropertyOp58
 70
     1
102
RTVSPropertyOp59
 70
     1
102
RTVSPropertyOp60
 70
     1
102
RTVSPropertyOp61
 70
     1
102
RTVSPropertyOp62
 70
     1
  0
XRECORD
  5
C459
102
{ACAD_REACTORS
330
C458
102
}
330
C458
100
AcDbXrecord
280
     1
102
RTVSPost2010Prop28
280
     0
102
RTVSPost2010PropOp28
 70
     1
102
RTVSPost2010Prop29
280
     1
102
RTVSPost2010PropOp29
 70
     1
102
RTVSPost2010Prop30
280
     1
102
RTVSPost2010PropOp30
 70
     1
102
RTVSPost2010Prop31
280
     0
102
RTVSPost2010PropOp31
 70
     1
102
RTVSPost2010Prop32
280
     0
102
RTVSPost2010PropOp32
 70
     1
102
RTVSPost2010Prop33
280
     0
102
RTVSPost2010PropOp33
 70
     1
102
RTVSPost2010Prop34
280
     0
102
RTVSPost2010PropOp34
 70
     1
102
RTVSPost2010Prop35
280
     0
102
RTVSPost2010PropOp35
 70
     1
102
RTVSPost2010Prop36
280
     0
102
RTVSPost2010PropOp36
 70
     1
102
RTVSPost2010Prop37
 90
       50
102
RTVSPost2010PropOp37
 70
     1
102
RTVSPost2010Prop38
140
0.0
102
RTVSPost2010PropOp38
 70
     1
102
RTVSPost2010Prop39
140
1.0
102
RTVSPost2010PropOp39
 70
     1
102
RTVSPost2010Prop40
 90
        0
102
RTVSPost2010PropOp40
 70
     1
102
RTVSPost2010Prop41ColorIndex
 90
       18
102
RTVSPost2010Prop41ColorRGB
 90
        0
102
RTVSPost2010PropOp41
 70
     1
102
RTVSPost2010Prop42
 90
       50
102
RTVSPost2010PropOp42
 70
     1
102
RTVSPost2010Prop43
 90
        3
102
RTVSPost2010PropOp43
 70
     1
102
RTVSPost2010Prop44ColorIndex
 90
        5
102
RTVSPost2010Prop44ColorRGB
 90
      255
102
RTVSPost2010PropOp44
 70
     1
102
RTVSPost2010Prop45
280
     0
102
RTVSPost2010PropOp45
 70
     1
102
RTVSPost2010Prop46
 90
       50
102
RTVSPost2010PropOp46
 70
     1
102
RTVSPost2010Prop47
 90
       50
102
RTVSPost2010PropOp47
 70
     1
102
RTVSPost2010Prop48
 90
       50
102
RTVSPost2010PropOp48
 70
     1
102
RTVSPost2010Prop49
280
     0
102
RTVSPost2010PropOp49
 70
     1
102
RTVSPost2010Prop50
 90
       50
102
RTVSPost2010PropOp50
 70
     1
102
RTVSPost2010Prop51ColorIndex
 90
      256
102
RTVSPost2010Prop51ColorRGB
 90
-16777216
102
RTVSPost2010PropOp51
 70
     0
102
RTVSPost2010Prop52
140
1.0
102
RTVSPost2010PropOp52
 70
     0
102
RTVSPost2010Prop53
 90
        2
102
RTVSPost2010PropOp53
 70
     1
102
RTVSPost2010Prop54
  1
strokes_ogs.tif
102
RTVSPost2010PropOp54
 70
     1
102
RTVSPost2010Prop55
280
     0
102
RTVSPost2010PropOp55
 70
     1
102
RTVSPost2010Prop56
140
1.0
102
RTVSPost2010PropOp56
 70
     1
102
RTVSPost2010Prop57
140
1.0
102
RTVSPost2010PropOp57
 70
     1
102
RTVSPropertyOp0
 70
     1
102
RTVSPropertyOp1
 70
     1
102
RTVSPropertyOp2
 70
     1
102
RTVSPropertyOp3
 70
     1
102
RTVSPropertyOp4
 70
     1
102
RTVSPropertyOp5
 70
     1
102
RTVSPropertyOp6
 70
     1
102
RTVSPropertyOp7
 70
     1
102
RTVSPropertyOp8
 70
     1
102
RTVSPropertyOp9
 70
     1
102
RTVSPropertyOp10
 70
     1
102
RTVSPropertyOp11
 70
     1
102
RTVSPropertyOp12
 70
     1
102
RTVSPropertyOp13
 70
     1
102
RTVSPropertyOp14
 70
     1
102
RTVSPropertyOp15
 70
     1
102
RTVSPropertyOp16
 70
     1
102
RTVSPropertyOp17
 70
     1
102
RTVSPropertyOp18
 70
     1
102
RTVSPropertyOp19
 70
     1
102
RTVSPropertyOp20
 70
     1
102
RTVSPropertyOp21
 70
     1
102
RTVSPropertyOp22
 70
     1
102
RTVSPropertyOp23
 70
     1
102
RTVSPropertyOp24
 70
     1
102
RTVSPropertyOp25
 70
     1
102
RTVSPropertyOp26
 70
     1
102
RTVSPropertyOp27
 70
     1
102
RTVSPropertyOp28
 70
     1
102
RTVSPropertyOp29
 70
     1
102
RTVSPropertyOp30
 70
     1
102
RTVSPropertyOp31
 70
     1
102
RTVSPropertyOp32
 70
     1
102
RTVSPropertyOp33
 70
     1
102
RTVSPropertyOp34
 70
     1
102
RTVSPropertyOp35
 70
     1
102
RTVSPropertyOp36
 70
     1
102
RTVSPropertyOp37
 70
     1
102
RTVSPropertyOp38
 70
     1
102
RTVSPropertyOp39
 70
     1
102
RTVSPropertyOp40
 70
     1
102
RTVSPropertyOp41
 70
     1
102
RTVSPropertyOp42
 70
     1
102
RTVSPropertyOp43
 70
     1
102
RTVSPropertyOp44
 70
     1
102
RTVSPropertyOp45
 70
     1
102
RTVSPropertyOp46
 70
     1
102
RTVSPropertyOp47
 70
     1
102
RTVSPropertyOp48
 70
     1
102
RTVSPropertyOp49
 70
     1
102
RTVSPropertyOp50
 70
     1
102
RTVSPropertyOp51
 70
     0
102
RTVSPropertyOp52
 70
     0
102
RTVSPropertyOp53
 70
     1
102
RTVSPropertyOp54
 70
     1
102
RTVSPropertyOp55
 70
     1
102
RTVSPropertyOp56
 70
     1
102
RTVSPropertyOp57
 70
     1
102
RTVSPropertyOp58
 70
     1
102
RTVSPropertyOp59
 70
     1
102
RTVSPropertyOp60
 70
     1
102
RTVSPropertyOp61
 70
     1
102
RTVSPropertyOp62
 70
     1
  0
XRECORD
  5
C461
102
{ACAD_REACTORS
330
C460
102
}
330
C460
100
AcDbXrecord
280
     1
102
RTVSPost2010Prop28
280
     0
102
RTVSPost2010PropOp28
 70
     1
102
RTVSPost2010Prop29
280
     1
102
RTVSPost2010PropOp29
 70
     1
102
RTVSPost2010Prop30
280
     1
102
RTVSPost2010PropOp30
 70
     1
102
RTVSPost2010Prop31
280
     0
102
RTVSPost2010PropOp31
 70
     1
102
RTVSPost2010Prop32
280
     0
102
RTVSPost2010PropOp32
 70
     1
102
RTVSPost2010Prop33
280
     0
102
RTVSPost2010PropOp33
 70
     1
102
RTVSPost2010Prop34
280
     0
102
RTVSPost2010PropOp34
 70
     1
102
RTVSPost2010Prop35
280
     0
102
RTVSPost2010PropOp35
 70
     1
102
RTVSPost2010Prop36
280
     0
102
RTVSPost2010PropOp36
 70
     1
102
RTVSPost2010Prop37
 90
       50
102
RTVSPost2010PropOp37
 70
     1
102
RTVSPost2010Prop38
140
0.0
102
RTVSPost2010PropOp38
 70
     1
102
RTVSPost2010Prop39
140
1.0
102
RTVSPost2010PropOp39
 70
     1
102
RTVSPost2010Prop40
 90
        0
102
RTVSPost2010PropOp40
 70
     1
102
RTVSPost2010Prop41ColorIndex
 90
       18
102
RTVSPost2010Prop41ColorRGB
 90
        0
102
RTVSPost2010PropOp41
 70
     1
102
RTVSPost2010Prop42
 90
       50
102
RTVSPost2010PropOp42
 70
     1
102
RTVSPost2010Prop43
 90
        3
102
RTVSPost2010PropOp43
 70
     1
102
RTVSPost2010Prop44ColorIndex
 90
        5
102
RTVSPost2010Prop44ColorRGB
 90
      255
102
RTVSPost2010PropOp44
 70
     1
102
RTVSPost2010Prop45
280
     0
102
RTVSPost2010PropOp45
 70
     1
102
RTVSPost2010Prop46
 90
       50
102
RTVSPost2010PropOp46
 70
     1
102
RTVSPost2010Prop47
 90
       50
102
RTVSPost2010PropOp47
 70
     1
102
RTVSPost2010Prop48
 90
       50
102
RTVSPost2010PropOp48
 70
     1
102
RTVSPost2010Prop49
280
     0
102
RTVSPost2010PropOp49
 70
     1
102
RTVSPost2010Prop50
 90
       50
102
RTVSPost2010PropOp50
 70
     1
102
RTVSPost2010Prop51ColorIndex
 90
      256
102
RTVSPost2010Prop51ColorRGB
 90
-16777216
102
RTVSPost2010PropOp51
 70
     0
102
RTVSPost2010Prop52
140
1.0
102
RTVSPost2010PropOp52
 70
     0
102
RTVSPost2010Prop53
 90
        2
102
RTVSPost2010PropOp53
 70
     1
102
RTVSPost2010Prop54
  1
strokes_ogs.tif
102
RTVSPost2010PropOp54
 70
     1
102
RTVSPost2010Prop55
280
     0
102
RTVSPost2010PropOp55
 70
     1
102
RTVSPost2010Prop56
140
1.0
102
RTVSPost2010PropOp56
 70
     1
102
RTVSPost2010Prop57
140
1.0
102
RTVSPost2010PropOp57
 70
     1
102
RTVSPropertyOp0
 70
     1
102
RTVSPropertyOp1
 70
     1
102
RTVSPropertyOp2
 70
     1
102
RTVSPropertyOp3
 70
     1
102
RTVSPropertyOp4
 70
     1
102
RTVSPropertyOp5
 70
     1
102
RTVSPropertyOp6
 70
     1
102
RTVSPropertyOp7
 70
     1
102
RTVSPropertyOp8
 70
     1
102
RTVSPropertyOp9
 70
     1
102
RTVSPropertyOp10
 70
     1
102
RTVSPropertyOp11
 70
     1
102
RTVSPropertyOp12
 70
     1
102
RTVSPropertyOp13
 70
     1
102
RTVSPropertyOp14
 70
     1
102
RTVSPropertyOp15
 70
     1
102
RTVSPropertyOp16
 70
     1
102
RTVSPropertyOp17
 70
     1
102
RTVSPropertyOp18
 70
     1
102
RTVSPropertyOp19
 70
     1
102
RTVSPropertyOp20
 70
     1
102
RTVSPropertyOp21
 70
     1
102
RTVSPropertyOp22
 70
     1
102
RTVSPropertyOp23
 70
     1
102
RTVSPropertyOp24
 70
     1
102
RTVSPropertyOp25
 70
     1
102
RTVSPropertyOp26
 70
     1
102
RTVSPropertyOp27
 70
     1
102
RTVSPropertyOp28
 70
     1
102
RTVSPropertyOp29
 70
     1
102
RTVSPropertyOp30
 70
     1
102
RTVSPropertyOp31
 70
     1
102
RTVSPropertyOp32
 70
     1
102
RTVSPropertyOp33
 70
     1
102
RTVSPropertyOp34
 70
     1
102
RTVSPropertyOp35
 70
     1
102
RTVSPropertyOp36
 70
     1
102
RTVSPropertyOp37
 70
     1
102
RTVSPropertyOp38
 70
     1
102
RTVSPropertyOp39
 70
     1
102
RTVSPropertyOp40
 70
     1
102
RTVSPropertyOp41
 70
     1
102
RTVSPropertyOp42
 70
     1
102
RTVSPropertyOp43
 70
     1
102
RTVSPropertyOp44
 70
     1
102
RTVSPropertyOp45
 70
     1
102
RTVSPropertyOp46
 70
     1
102
RTVSPropertyOp47
 70
     1
102
RTVSPropertyOp48
 70
     1
102
RTVSPropertyOp49
 70
     1
102
RTVSPropertyOp50
 70
     1
102
RTVSPropertyOp51
 70
     0
102
RTVSPropertyOp52
 70
     0
102
RTVSPropertyOp53
 70
     1
102
RTVSPropertyOp54
 70
     1
102
RTVSPropertyOp55
 70
     1
102
RTVSPropertyOp56
 70
     1
102
RTVSPropertyOp57
 70
     1
102
RTVSPropertyOp58
 70
     1
102
RTVSPropertyOp59
 70
     1
102
RTVSPropertyOp60
 70
     1
102
RTVSPropertyOp61
 70
     1
102
RTVSPropertyOp62
 70
     1
  0
XRECORD
  5
C453
102
{ACAD_REACTORS
330
C452
102
}
330
C452
100
AcDbXrecord
280
     1
102
RTVSPost2010Prop28
280
     0
102
RTVSPost2010PropOp28
 70
     1
102
RTVSPost2010Prop29
280
     1
102
RTVSPost2010PropOp29
 70
     1
102
RTVSPost2010Prop30
280
     1
102
RTVSPost2010PropOp30
 70
     1
102
RTVSPost2010Prop31
280
     0
102
RTVSPost2010PropOp31
 70
     1
102
RTVSPost2010Prop32
280
     0
102
RTVSPost2010PropOp32
 70
     1
102
RTVSPost2010Prop33
280
     0
102
RTVSPost2010PropOp33
 70
     1
102
RTVSPost2010Prop34
280
     0
102
RTVSPost2010PropOp34
 70
     1
102
RTVSPost2010Prop35
280
     0
102
RTVSPost2010PropOp35
 70
     1
102
RTVSPost2010Prop36
280
     0
102
RTVSPost2010PropOp36
 70
     1
102
RTVSPost2010Prop37
 90
       50
102
RTVSPost2010PropOp37
 70
     1
102
RTVSPost2010Prop38
140
0.0
102
RTVSPost2010PropOp38
 70
     1
102
RTVSPost2010Prop39
140
1.0
102
RTVSPost2010PropOp39
 70
     1
102
RTVSPost2010Prop40
 90
        0
102
RTVSPost2010PropOp40
 70
     1
102
RTVSPost2010Prop41ColorIndex
 90
       18
102
RTVSPost2010Prop41ColorRGB
 90
        0
102
RTVSPost2010PropOp41
 70
     1
102
RTVSPost2010Prop42
 90
       50
102
RTVSPost2010PropOp42
 70
     1
102
RTVSPost2010Prop43
 90
        3
102
RTVSPost2010PropOp43
 70
     1
102
RTVSPost2010Prop44ColorIndex
 90
        5
102
RTVSPost2010Prop44ColorRGB
 90
      255
102
RTVSPost2010PropOp44
 70
     1
102
RTVSPost2010Prop45
280
     0
102
RTVSPost2010PropOp45
 70
     1
102
RTVSPost2010Prop46
 90
       50
102
RTVSPost2010PropOp46
 70
     1
102
RTVSPost2010Prop47
 90
       50
102
RTVSPost2010PropOp47
 70
     1
102
RTVSPost2010Prop48
 90
       50
102
RTVSPost2010PropOp48
 70
     1
102
RTVSPost2010Prop49
280
     0
102
RTVSPost2010PropOp49
 70
     1
102
RTVSPost2010Prop50
 90
       50
102
RTVSPost2010PropOp50
 70
     1
102
RTVSPost2010Prop51ColorIndex
 90
      256
102
RTVSPost2010Prop51ColorRGB
 90
-16777216
102
RTVSPost2010PropOp51
 70
     0
102
RTVSPost2010Prop52
140
1.0
102
RTVSPost2010PropOp52
 70
     0
102
RTVSPost2010Prop53
 90
        2
102
RTVSPost2010PropOp53
 70
     1
102
RTVSPost2010Prop54
  1
strokes_ogs.tif
102
RTVSPost2010PropOp54
 70
     1
102
RTVSPost2010Prop55
280
     0
102
RTVSPost2010PropOp55
 70
     1
102
RTVSPost2010Prop56
140
1.0
102
RTVSPost2010PropOp56
 70
     1
102
RTVSPost2010Prop57
140
1.0
102
RTVSPost2010PropOp57
 70
     1
102
RTVSPropertyOp0
 70
     1
102
RTVSPropertyOp1
 70
     1
102
RTVSPropertyOp2
 70
     1
102
RTVSPropertyOp3
 70
     1
102
RTVSPropertyOp4
 70
     1
102
RTVSPropertyOp5
 70
     1
102
RTVSPropertyOp6
 70
     1
102
RTVSPropertyOp7
 70
     1
102
RTVSPropertyOp8
 70
     1
102
RTVSPropertyOp9
 70
     1
102
RTVSPropertyOp10
 70
     1
102
RTVSPropertyOp11
 70
     1
102
RTVSPropertyOp12
 70
     1
102
RTVSPropertyOp13
 70
     1
102
RTVSPropertyOp14
 70
     1
102
RTVSPropertyOp15
 70
     1
102
RTVSPropertyOp16
 70
     1
102
RTVSPropertyOp17
 70
     1
102
RTVSPropertyOp18
 70
     1
102
RTVSPropertyOp19
 70
     1
102
RTVSPropertyOp20
 70
     1
102
RTVSPropertyOp21
 70
     1
102
RTVSPropertyOp22
 70
     1
102
RTVSPropertyOp23
 70
     1
102
RTVSPropertyOp24
 70
     1
102
RTVSPropertyOp25
 70
     1
102
RTVSPropertyOp26
 70
     1
102
RTVSPropertyOp27
 70
     1
102
RTVSPropertyOp28
 70
     1
102
RTVSPropertyOp29
 70
     1
102
RTVSPropertyOp30
 70
     1
102
RTVSPropertyOp31
 70
     1
102
RTVSPropertyOp32
 70
     1
102
RTVSPropertyOp33
 70
     1
102
RTVSPropertyOp34
 70
     1
102
RTVSPropertyOp35
 70
     1
102
RTVSPropertyOp36
 70
     1
102
RTVSPropertyOp37
 70
     1
102
RTVSPropertyOp38
 70
     1
102
RTVSPropertyOp39
 70
     1
102
RTVSPropertyOp40
 70
     1
102
RTVSPropertyOp41
 70
     1
102
RTVSPropertyOp42
 70
     1
102
RTVSPropertyOp43
 70
     1
102
RTVSPropertyOp44
 70
     1
102
RTVSPropertyOp45
 70
     1
102
RTVSPropertyOp46
 70
     1
102
RTVSPropertyOp47
 70
     1
102
RTVSPropertyOp48
 70
     1
102
RTVSPropertyOp49
 70
     1
102
RTVSPropertyOp50
 70
     1
102
RTVSPropertyOp51
 70
     0
102
RTVSPropertyOp52
 70
     0
102
RTVSPropertyOp53
 70
     1
102
RTVSPropertyOp54
 70
     1
102
RTVSPropertyOp55
 70
     1
102
RTVSPropertyOp56
 70
     1
102
RTVSPropertyOp57
 70
     1
102
RTVSPropertyOp58
 70
     1
102
RTVSPropertyOp59
 70
     1
102
RTVSPropertyOp60
 70
     1
102
RTVSPropertyOp61
 70
     1
102
RTVSPropertyOp62
 70
     1
  0
XRECORD
  5
C457
102
{ACAD_REACTORS
330
C456
102
}
330
C456
100
AcDbXrecord
280
     1
102
RTVSPost2010Prop28
280
     0
102
RTVSPost2010PropOp28
 70
     1
102
RTVSPost2010Prop29
280
     1
102
RTVSPost2010PropOp29
 70
     1
102
RTVSPost2010Prop30
280
     1
102
RTVSPost2010PropOp30
 70
     1
102
RTVSPost2010Prop31
280
     0
102
RTVSPost2010PropOp31
 70
     1
102
RTVSPost2010Prop32
280
     0
102
RTVSPost2010PropOp32
 70
     1
102
RTVSPost2010Prop33
280
     0
102
RTVSPost2010PropOp33
 70
     1
102
RTVSPost2010Prop34
280
     0
102
RTVSPost2010PropOp34
 70
     1
102
RTVSPost2010Prop35
280
     0
102
RTVSPost2010PropOp35
 70
     1
102
RTVSPost2010Prop36
280
     0
102
RTVSPost2010PropOp36
 70
     1
102
RTVSPost2010Prop37
 90
       50
102
RTVSPost2010PropOp37
 70
     1
102
RTVSPost2010Prop38
140
0.0
102
RTVSPost2010PropOp38
 70
     1
102
RTVSPost2010Prop39
140
1.0
102
RTVSPost2010PropOp39
 70
     1
102
RTVSPost2010Prop40
 90
        0
102
RTVSPost2010PropOp40
 70
     1
102
RTVSPost2010Prop41ColorIndex
 90
       18
102
RTVSPost2010Prop41ColorRGB
 90
        0
102
RTVSPost2010PropOp41
 70
     1
102
RTVSPost2010Prop42
 90
       50
102
RTVSPost2010PropOp42
 70
     1
102
RTVSPost2010Prop43
 90
        3
102
RTVSPost2010PropOp43
 70
     1
102
RTVSPost2010Prop44ColorIndex
 90
        5
102
RTVSPost2010Prop44ColorRGB
 90
      255
102
RTVSPost2010PropOp44
 70
     1
102
RTVSPost2010Prop45
280
     0
102
RTVSPost2010PropOp45
 70
     1
102
RTVSPost2010Prop46
 90
       50
102
RTVSPost2010PropOp46
 70
     1
102
RTVSPost2010Prop47
 90
       50
102
RTVSPost2010PropOp47
 70
     1
102
RTVSPost2010Prop48
 90
       50
102
RTVSPost2010PropOp48
 70
     1
102
RTVSPost2010Prop49
280
     0
102
RTVSPost2010PropOp49
 70
     1
102
RTVSPost2010Prop50
 90
       50
102
RTVSPost2010PropOp50
 70
     1
102
RTVSPost2010Prop51ColorIndex
 90
      256
102
RTVSPost2010Prop51ColorRGB
 90
-16777216
102
RTVSPost2010PropOp51
 70
     0
102
RTVSPost2010Prop52
140
1.0
102
RTVSPost2010PropOp52
 70
     0
102
RTVSPost2010Prop53
 90
        2
102
RTVSPost2010PropOp53
 70
     1
102
RTVSPost2010Prop54
  1
strokes_ogs.tif
102
RTVSPost2010PropOp54
 70
     1
102
RTVSPost2010Prop55
280
     0
102
RTVSPost2010PropOp55
 70
     1
102
RTVSPost2010Prop56
140
1.0
102
RTVSPost2010PropOp56
 70
     1
102
RTVSPost2010Prop57
140
1.0
102
RTVSPost2010PropOp57
 70
     1
102
RTVSPropertyOp0
 70
     1
102
RTVSPropertyOp1
 70
     1
102
RTVSPropertyOp2
 70
     1
102
RTVSPropertyOp3
 70
     1
102
RTVSPropertyOp4
 70
     1
102
RTVSPropertyOp5
 70
     1
102
RTVSPropertyOp6
 70
     1
102
RTVSPropertyOp7
 70
     1
102
RTVSPropertyOp8
 70
     1
102
RTVSPropertyOp9
 70
     1
102
RTVSPropertyOp10
 70
     1
102
RTVSPropertyOp11
 70
     1
102
RTVSPropertyOp12
 70
     1
102
RTVSPropertyOp13
 70
     1
102
RTVSPropertyOp14
 70
     1
102
RTVSPropertyOp15
 70
     1
102
RTVSPropertyOp16
 70
     1
102
RTVSPropertyOp17
 70
     1
102
RTVSPropertyOp18
 70
     1
102
RTVSPropertyOp19
 70
     1
102
RTVSPropertyOp20
 70
     1
102
RTVSPropertyOp21
 70
     1
102
RTVSPropertyOp22
 70
     1
102
RTVSPropertyOp23
 70
     1
102
RTVSPropertyOp24
 70
     1
102
RTVSPropertyOp25
 70
     1
102
RTVSPropertyOp26
 70
     1
102
RTVSPropertyOp27
 70
     1
102
RTVSPropertyOp28
 70
     1
102
RTVSPropertyOp29
 70
     1
102
RTVSPropertyOp30
 70
     1
102
RTVSPropertyOp31
 70
     1
102
RTVSPropertyOp32
 70
     1
102
RTVSPropertyOp33
 70
     1
102
RTVSPropertyOp34
 70
     1
102
RTVSPropertyOp35
 70
     1
102
RTVSPropertyOp36
 70
     1
102
RTVSPropertyOp37
 70
     1
102
RTVSPropertyOp38
 70
     1
102
RTVSPropertyOp39
 70
     1
102
RTVSPropertyOp40
 70
     1
102
RTVSPropertyOp41
 70
     1
102
RTVSPropertyOp42
 70
     1
102
RTVSPropertyOp43
 70
     1
102
RTVSPropertyOp44
 70
     1
102
RTVSPropertyOp45
 70
     1
102
RTVSPropertyOp46
 70
     1
102
RTVSPropertyOp47
 70
     1
102
RTVSPropertyOp48
 70
     1
102
RTVSPropertyOp49
 70
     1
102
RTVSPropertyOp50
 70
     1
102
RTVSPropertyOp51
 70
     0
102
RTVSPropertyOp52
 70
     0
102
RTVSPropertyOp53
 70
     1
102
RTVSPropertyOp54
 70
     1
102
RTVSPropertyOp55
 70
     1
102
RTVSPropertyOp56
 70
     1
102
RTVSPropertyOp57
 70
     1
102
RTVSPropertyOp58
 70
     1
102
RTVSPropertyOp59
 70
     1
102
RTVSPropertyOp60
 70
     1
102
RTVSPropertyOp61
 70
     1
102
RTVSPropertyOp62
 70
     1
  0
XRECORD
  5
C469
102
{ACAD_REACTORS
330
C468
102
}
330
C468
100
AcDbXrecord
280
     1
102
RTVSPost2010Prop28
280
     0
102
RTVSPost2010PropOp28
 70
     1
102
RTVSPost2010Prop29
280
     1
102
RTVSPost2010PropOp29
 70
     1
102
RTVSPost2010Prop30
280
     1
102
RTVSPost2010PropOp30
 70
     1
102
RTVSPost2010Prop31
280
     0
102
RTVSPost2010PropOp31
 70
     1
102
RTVSPost2010Prop32
280
     0
102
RTVSPost2010PropOp32
 70
     1
102
RTVSPost2010Prop33
280
     0
102
RTVSPost2010PropOp33
 70
     1
102
RTVSPost2010Prop34
280
     0
102
RTVSPost2010PropOp34
 70
     1
102
RTVSPost2010Prop35
280
     0
102
RTVSPost2010PropOp35
 70
     1
102
RTVSPost2010Prop36
280
     0
102
RTVSPost2010PropOp36
 70
     1
102
RTVSPost2010Prop37
 90
       50
102
RTVSPost2010PropOp37
 70
     1
102
RTVSPost2010Prop38
140
0.0
102
RTVSPost2010PropOp38
 70
     1
102
RTVSPost2010Prop39
140
1.0
102
RTVSPost2010PropOp39
 70
     1
102
RTVSPost2010Prop40
 90
        0
102
RTVSPost2010PropOp40
 70
     1
102
RTVSPost2010Prop41ColorIndex
 90
       18
102
RTVSPost2010Prop41ColorRGB
 90
        0
102
RTVSPost2010PropOp41
 70
     1
102
RTVSPost2010Prop42
 90
       50
102
RTVSPost2010PropOp42
 70
     1
102
RTVSPost2010Prop43
 90
        3
102
RTVSPost2010PropOp43
 70
     1
102
RTVSPost2010Prop44ColorIndex
 90
        5
102
RTVSPost2010Prop44ColorRGB
 90
      255
102
RTVSPost2010PropOp44
 70
     1
102
RTVSPost2010Prop45
280
     0
102
RTVSPost2010PropOp45
 70
     1
102
RTVSPost2010Prop46
 90
       50
102
RTVSPost2010PropOp46
 70
     1
102
RTVSPost2010Prop47
 90
       50
102
RTVSPost2010PropOp47
 70
     1
102
RTVSPost2010Prop48
 90
       50
102
RTVSPost2010PropOp48
 70
     1
102
RTVSPost2010Prop49
280
     0
102
RTVSPost2010PropOp49
 70
     1
102
RTVSPost2010Prop50
 90
       50
102
RTVSPost2010PropOp50
 70
     1
102
RTVSPost2010Prop51ColorIndex
 90
      256
102
RTVSPost2010Prop51ColorRGB
 90
-16777216
102
RTVSPost2010PropOp51
 70
     0
102
RTVSPost2010Prop52
140
1.0
102
RTVSPost2010PropOp52
 70
     0
102
RTVSPost2010Prop53
 90
        2
102
RTVSPost2010PropOp53
 70
     1
102
RTVSPost2010Prop54
  1
strokes_ogs.tif
102
RTVSPost2010PropOp54
 70
     1
102
RTVSPost2010Prop55
280
     0
102
RTVSPost2010PropOp55
 70
     1
102
RTVSPost2010Prop56
140
1.0
102
RTVSPost2010PropOp56
 70
     1
102
RTVSPost2010Prop57
140
1.0
102
RTVSPost2010PropOp57
 70
     1
102
RTVSPropertyOp0
 70
     0
102
RTVSPropertyOp1
 70
     0
102
RTVSPropertyOp2
 70
     0
102
RTVSPropertyOp3
 70
     0
102
RTVSPropertyOp4
 70
     0
102
RTVSPropertyOp5
 70
     0
102
RTVSPropertyOp6
 70
     0
102
RTVSPropertyOp7
 70
     0
102
RTVSPropertyOp8
 70
     0
102
RTVSPropertyOp9
 70
     0
102
RTVSPropertyOp10
 70
     0
102
RTVSPropertyOp11
 70
     0
102
RTVSPropertyOp12
 70
     0
102
RTVSPropertyOp13
 70
     0
102
RTVSPropertyOp14
 70
     2
102
RTVSPropertyOp15
 70
     0
102
RTVSPropertyOp16
 70
     0
102
RTVSPropertyOp17
 70
     0
102
RTVSPropertyOp18
 70
     0
102
RTVSPropertyOp19
 70
     0
102
RTVSPropertyOp20
 70
     0
102
RTVSPropertyOp21
 70
     0
102
RTVSPropertyOp22
 70
     0
102
RTVSPropertyOp23
 70
     0
102
RTVSPropertyOp24
 70
     0
102
RTVSPropertyOp25
 70
     0
102
RTVSPropertyOp26
 70
     0
102
RTVSPropertyOp27
 70
     0
102
RTVSPropertyOp28
 70
     1
102
RTVSPropertyOp29
 70
     1
102
RTVSPropertyOp30
 70
     1
102
RTVSPropertyOp31
 70
     1
102
RTVSPropertyOp32
 70
     1
102
RTVSPropertyOp33
 70
     1
102
RTVSPropertyOp34
 70
     1
102
RTVSPropertyOp35
 70
     1
102
RTVSPropertyOp36
 70
     1
102
RTVSPropertyOp37
 70
     1
102
RTVSPropertyOp38
 70
     1
102
RTVSPropertyOp39
 70
     1
102
RTVSPropertyOp40
 70
     1
102
RTVSPropertyOp41
 70
     1
102
RTVSPropertyOp42
 70
     1
102
RTVSPropertyOp43
 70
     1
102
RTVSPropertyOp44
 70
     1
102
RTVSPropertyOp45
 70
     1
102
RTVSPropertyOp46
 70
     1
102
RTVSPropertyOp47
 70
     1
102
RTVSPropertyOp48
 70
     1
102
RTVSPropertyOp49
 70
     1
102
RTVSPropertyOp50
 70
     1
102
RTVSPropertyOp51
 70
     0
102
RTVSPropertyOp52
 70
     0
102
RTVSPropertyOp53
 70
     1
102
RTVSPropertyOp54
 70
     1
102
RTVSPropertyOp55
 70
     1
102
RTVSPropertyOp56
 70
     1
102
RTVSPropertyOp57
 70
     1
102
RTVSPropertyOp58
 70
     1
102
RTVSPropertyOp59
 70
     1
102
RTVSPropertyOp60
 70
     1
102
RTVSPropertyOp61
 70
     1
102
RTVSPropertyOp62
 70
     1
  0
XRECORD
  5
C45F
102
{ACAD_REACTORS
330
C45E
102
}
330
C45E
100
AcDbXrecord
280
     1
102
RTVSPost2010Prop28
280
     0
102
RTVSPost2010PropOp28
 70
     1
102
RTVSPost2010Prop29
280
     1
102
RTVSPost2010PropOp29
 70
     1
102
RTVSPost2010Prop30
280
     1
102
RTVSPost2010PropOp30
 70
     1
102
RTVSPost2010Prop31
280
     0
102
RTVSPost2010PropOp31
 70
     1
102
RTVSPost2010Prop32
280
     0
102
RTVSPost2010PropOp32
 70
     1
102
RTVSPost2010Prop33
280
     0
102
RTVSPost2010PropOp33
 70
     1
102
RTVSPost2010Prop34
280
     0
102
RTVSPost2010PropOp34
 70
     1
102
RTVSPost2010Prop35
280
     0
102
RTVSPost2010PropOp35
 70
     1
102
RTVSPost2010Prop36
280
     0
102
RTVSPost2010PropOp36
 70
     1
102
RTVSPost2010Prop37
 90
       50
102
RTVSPost2010PropOp37
 70
     1
102
RTVSPost2010Prop38
140
0.0
102
RTVSPost2010PropOp38
 70
     1
102
RTVSPost2010Prop39
140
1.0
102
RTVSPost2010PropOp39
 70
     1
102
RTVSPost2010Prop40
 90
        0
102
RTVSPost2010PropOp40
 70
     1
102
RTVSPost2010Prop41ColorIndex
 90
       18
102
RTVSPost2010Prop41ColorRGB
 90
        0
102
RTVSPost2010PropOp41
 70
     1
102
RTVSPost2010Prop42
 90
       50
102
RTVSPost2010PropOp42
 70
     1
102
RTVSPost2010Prop43
 90
        3
102
RTVSPost2010PropOp43
 70
     1
102
RTVSPost2010Prop44ColorIndex
 90
        5
102
RTVSPost2010Prop44ColorRGB
 90
      255
102
RTVSPost2010PropOp44
 70
     1
102
RTVSPost2010Prop45
280
     0
102
RTVSPost2010PropOp45
 70
     1
102
RTVSPost2010Prop46
 90
       50
102
RTVSPost2010PropOp46
 70
     1
102
RTVSPost2010Prop47
 90
       50
102
RTVSPost2010PropOp47
 70
     1
102
RTVSPost2010Prop48
 90
       50
102
RTVSPost2010PropOp48
 70
     1
102
RTVSPost2010Prop49
280
     0
102
RTVSPost2010PropOp49
 70
     1
102
RTVSPost2010Prop50
 90
       50
102
RTVSPost2010PropOp50
 70
     1
102
RTVSPost2010Prop51ColorIndex
 90
      256
102
RTVSPost2010Prop51ColorRGB
 90
-16777216
102
RTVSPost2010PropOp51
 70
     0
102
RTVSPost2010Prop52
140
1.0
102
RTVSPost2010PropOp52
 70
     0
102
RTVSPost2010Prop53
 90
        2
102
RTVSPost2010PropOp53
 70
     1
102
RTVSPost2010Prop54
  1
strokes_ogs.tif
102
RTVSPost2010PropOp54
 70
     1
102
RTVSPost2010Prop55
280
     0
102
RTVSPost2010PropOp55
 70
     1
102
RTVSPost2010Prop56
140
1.0
102
RTVSPost2010PropOp56
 70
     1
102
RTVSPost2010Prop57
140
1.0
102
RTVSPost2010PropOp57
 70
     1
102
RTVSPropertyOp0
 70
     1
102
RTVSPropertyOp1
 70
     1
102
RTVSPropertyOp2
 70
     1
102
RTVSPropertyOp3
 70
     1
102
RTVSPropertyOp4
 70
     1
102
RTVSPropertyOp5
 70
     1
102
RTVSPropertyOp6
 70
     1
102
RTVSPropertyOp7
 70
     1
102
RTVSPropertyOp8
 70
     1
102
RTVSPropertyOp9
 70
     1
102
RTVSPropertyOp10
 70
     1
102
RTVSPropertyOp11
 70
     1
102
RTVSPropertyOp12
 70
     1
102
RTVSPropertyOp13
 70
     1
102
RTVSPropertyOp14
 70
     1
102
RTVSPropertyOp15
 70
     1
102
RTVSPropertyOp16
 70
     1
102
RTVSPropertyOp17
 70
     1
102
RTVSPropertyOp18
 70
     1
102
RTVSPropertyOp19
 70
     1
102
RTVSPropertyOp20
 70
     1
102
RTVSPropertyOp21
 70
     1
102
RTVSPropertyOp22
 70
     1
102
RTVSPropertyOp23
 70
     1
102
RTVSPropertyOp24
 70
     1
102
RTVSPropertyOp25
 70
     1
102
RTVSPropertyOp26
 70
     1
102
RTVSPropertyOp27
 70
     1
102
RTVSPropertyOp28
 70
     1
102
RTVSPropertyOp29
 70
     1
102
RTVSPropertyOp30
 70
     1
102
RTVSPropertyOp31
 70
     1
102
RTVSPropertyOp32
 70
     1
102
RTVSPropertyOp33
 70
     1
102
RTVSPropertyOp34
 70
     1
102
RTVSPropertyOp35
 70
     1
102
RTVSPropertyOp36
 70
     1
102
RTVSPropertyOp37
 70
     1
102
RTVSPropertyOp38
 70
     1
102
RTVSPropertyOp39
 70
     1
102
RTVSPropertyOp40
 70
     1
102
RTVSPropertyOp41
 70
     1
102
RTVSPropertyOp42
 70
     1
102
RTVSPropertyOp43
 70
     1
102
RTVSPropertyOp44
 70
     1
102
RTVSPropertyOp45
 70
     1
102
RTVSPropertyOp46
 70
     1
102
RTVSPropertyOp47
 70
     1
102
RTVSPropertyOp48
 70
     1
102
RTVSPropertyOp49
 70
     1
102
RTVSPropertyOp50
 70
     1
102
RTVSPropertyOp51
 70
     0
102
RTVSPropertyOp52
 70
     0
102
RTVSPropertyOp53
 70
     1
102
RTVSPropertyOp54
 70
     1
102
RTVSPropertyOp55
 70
     1
102
RTVSPropertyOp56
 70
     1
102
RTVSPropertyOp57
 70
     1
102
RTVSPropertyOp58
 70
     1
102
RTVSPropertyOp59
 70
     1
102
RTVSPropertyOp60
 70
     1
102
RTVSPropertyOp61
 70
     1
102
RTVSPropertyOp62
 70
     1
  0
XRECORD
  5
C443
102
{ACAD_REACTORS
330
C442
102
}
330
C442
100
AcDbXrecord
280
     1
102
RTVSPost2010Prop28
280
     0
102
RTVSPost2010PropOp28
 70
     1
102
RTVSPost2010Prop29
280
     1
102
RTVSPost2010PropOp29
 70
     1
102
RTVSPost2010Prop30
280
     1
102
RTVSPost2010PropOp30
 70
     1
102
RTVSPost2010Prop31
280
     0
102
RTVSPost2010PropOp31
 70
     1
102
RTVSPost2010Prop32
280
     0
102
RTVSPost2010PropOp32
 70
     1
102
RTVSPost2010Prop33
280
     0
102
RTVSPost2010PropOp33
 70
     1
102
RTVSPost2010Prop34
280
     0
102
RTVSPost2010PropOp34
 70
     1
102
RTVSPost2010Prop35
280
     0
102
RTVSPost2010PropOp35
 70
     1
102
RTVSPost2010Prop36
280
     0
102
RTVSPost2010PropOp36
 70
     1
102
RTVSPost2010Prop37
 90
       50
102
RTVSPost2010PropOp37
 70
     1
102
RTVSPost2010Prop38
140
0.0
102
RTVSPost2010PropOp38
 70
     1
102
RTVSPost2010Prop39
140
1.0
102
RTVSPost2010PropOp39
 70
     1
102
RTVSPost2010Prop40
 90
        0
102
RTVSPost2010PropOp40
 70
     1
102
RTVSPost2010Prop41ColorIndex
 90
       18
102
RTVSPost2010Prop41ColorRGB
 90
        0
102
RTVSPost2010PropOp41
 70
     1
102
RTVSPost2010Prop42
 90
       50
102
RTVSPost2010PropOp42
 70
     1
102
RTVSPost2010Prop43
 90
        3
102
RTVSPost2010PropOp43
 70
     1
102
RTVSPost2010Prop44ColorIndex
 90
        5
102
RTVSPost2010Prop44ColorRGB
 90
      255
102
RTVSPost2010PropOp44
 70
     1
102
RTVSPost2010Prop45
280
     0
102
RTVSPost2010PropOp45
 70
     1
102
RTVSPost2010Prop46
 90
       50
102
RTVSPost2010PropOp46
 70
     1
102
RTVSPost2010Prop47
 90
       50
102
RTVSPost2010PropOp47
 70
     1
102
RTVSPost2010Prop48
 90
       50
102
RTVSPost2010PropOp48
 70
     1
102
RTVSPost2010Prop49
280
     0
102
RTVSPost2010PropOp49
 70
     1
102
RTVSPost2010Prop50
 90
       50
102
RTVSPost2010PropOp50
 70
     1
102
RTVSPost2010Prop51ColorIndex
 90
      256
102
RTVSPost2010Prop51ColorRGB
 90
-16777216
102
RTVSPost2010PropOp51
 70
     0
102
RTVSPost2010Prop52
140
1.0
102
RTVSPost2010PropOp52
 70
     0
102
RTVSPost2010Prop53
 90
        2
102
RTVSPost2010PropOp53
 70
     1
102
RTVSPost2010Prop54
  1
strokes_ogs.tif
102
RTVSPost2010PropOp54
 70
     1
102
RTVSPost2010Prop55
280
     0
102
RTVSPost2010PropOp55
 70
     1
102
RTVSPost2010Prop56
140
1.0
102
RTVSPost2010PropOp56
 70
     1
102
RTVSPost2010Prop57
140
1.0
102
RTVSPost2010PropOp57
 70
     1
102
RTVSPropertyOp0
 70
     1
102
RTVSPropertyOp1
 70
     1
102
RTVSPropertyOp2
 70
     1
102
RTVSPropertyOp3
 70
     1
102
RTVSPropertyOp4
 70
     1
102
RTVSPropertyOp5
 70
     1
102
RTVSPropertyOp6
 70
     1
102
RTVSPropertyOp7
 70
     1
102
RTVSPropertyOp8
 70
     1
102
RTVSPropertyOp9
 70
     1
102
RTVSPropertyOp10
 70
     1
102
RTVSPropertyOp11
 70
     1
102
RTVSPropertyOp12
 70
     1
102
RTVSPropertyOp13
 70
     1
102
RTVSPropertyOp14
 70
     1
102
RTVSPropertyOp15
 70
     1
102
RTVSPropertyOp16
 70
     1
102
RTVSPropertyOp17
 70
     1
102
RTVSPropertyOp18
 70
     1
102
RTVSPropertyOp19
 70
     1
102
RTVSPropertyOp20
 70
     1
102
RTVSPropertyOp21
 70
     1
102
RTVSPropertyOp22
 70
     1
102
RTVSPropertyOp23
 70
     1
102
RTVSPropertyOp24
 70
     1
102
RTVSPropertyOp25
 70
     1
102
RTVSPropertyOp26
 70
     1
102
RTVSPropertyOp27
 70
     1
102
RTVSPropertyOp28
 70
     1
102
RTVSPropertyOp29
 70
     1
102
RTVSPropertyOp30
 70
     1
102
RTVSPropertyOp31
 70
     1
102
RTVSPropertyOp32
 70
     1
102
RTVSPropertyOp33
 70
     1
102
RTVSPropertyOp34
 70
     1
102
RTVSPropertyOp35
 70
     1
102
RTVSPropertyOp36
 70
     1
102
RTVSPropertyOp37
 70
     1
102
RTVSPropertyOp38
 70
     1
102
RTVSPropertyOp39
 70
     1
102
RTVSPropertyOp40
 70
     1
102
RTVSPropertyOp41
 70
     1
102
RTVSPropertyOp42
 70
     1
102
RTVSPropertyOp43
 70
     1
102
RTVSPropertyOp44
 70
     1
102
RTVSPropertyOp45
 70
     1
102
RTVSPropertyOp46
 70
     1
102
RTVSPropertyOp47
 70
     1
102
RTVSPropertyOp48
 70
     1
102
RTVSPropertyOp49
 70
     1
102
RTVSPropertyOp50
 70
     1
102
RTVSPropertyOp51
 70
     0
102
RTVSPropertyOp52
 70
     0
102
RTVSPropertyOp53
 70
     1
102
RTVSPropertyOp54
 70
     1
102
RTVSPropertyOp55
 70
     1
102
RTVSPropertyOp56
 70
     1
102
RTVSPropertyOp57
 70
     1
102
RTVSPropertyOp58
 70
     1
102
RTVSPropertyOp59
 70
     1
102
RTVSPropertyOp60
 70
     1
102
RTVSPropertyOp61
 70
     1
102
RTVSPropertyOp62
 70
     1
  0
XRECORD
  5
C445
102
{ACAD_REACTORS
330
C444
102
}
330
C444
100
AcDbXrecord
280
     1
102
RTVSPost2010Prop28
280
     0
102
RTVSPost2010PropOp28
 70
     1
102
RTVSPost2010Prop29
280
     1
102
RTVSPost2010PropOp29
 70
     1
102
RTVSPost2010Prop30
280
     1
102
RTVSPost2010PropOp30
 70
     1
102
RTVSPost2010Prop31
280
     0
102
RTVSPost2010PropOp31
 70
     1
102
RTVSPost2010Prop32
280
     0
102
RTVSPost2010PropOp32
 70
     1
102
RTVSPost2010Prop33
280
     0
102
RTVSPost2010PropOp33
 70
     1
102
RTVSPost2010Prop34
280
     0
102
RTVSPost2010PropOp34
 70
     1
102
RTVSPost2010Prop35
280
     0
102
RTVSPost2010PropOp35
 70
     1
102
RTVSPost2010Prop36
280
     0
102
RTVSPost2010PropOp36
 70
     1
102
RTVSPost2010Prop37
 90
       50
102
RTVSPost2010PropOp37
 70
     1
102
RTVSPost2010Prop38
140
0.0
102
RTVSPost2010PropOp38
 70
     1
102
RTVSPost2010Prop39
140
1.0
102
RTVSPost2010PropOp39
 70
     1
102
RTVSPost2010Prop40
 90
        0
102
RTVSPost2010PropOp40
 70
     1
102
RTVSPost2010Prop41ColorIndex
 90
       18
102
RTVSPost2010Prop41ColorRGB
 90
        0
102
RTVSPost2010PropOp41
 70
     1
102
RTVSPost2010Prop42
 90
       50
102
RTVSPost2010PropOp42
 70
     1
102
RTVSPost2010Prop43
 90
        3
102
RTVSPost2010PropOp43
 70
     1
102
RTVSPost2010Prop44ColorIndex
 90
        5
102
RTVSPost2010Prop44ColorRGB
 90
      255
102
RTVSPost2010PropOp44
 70
     1
102
RTVSPost2010Prop45
280
     0
102
RTVSPost2010PropOp45
 70
     1
102
RTVSPost2010Prop46
 90
       50
102
RTVSPost2010PropOp46
 70
     1
102
RTVSPost2010Prop47
 90
       50
102
RTVSPost2010PropOp47
 70
     1
102
RTVSPost2010Prop48
 90
       50
102
RTVSPost2010PropOp48
 70
     1
102
RTVSPost2010Prop49
280
     0
102
RTVSPost2010PropOp49
 70
     1
102
RTVSPost2010Prop50
 90
       50
102
RTVSPost2010PropOp50
 70
     1
102
RTVSPost2010Prop51ColorIndex
 90
      256
102
RTVSPost2010Prop51ColorRGB
 90
-16777216
102
RTVSPost2010PropOp51
 70
     0
102
RTVSPost2010Prop52
140
1.0
102
RTVSPost2010PropOp52
 70
     0
102
RTVSPost2010Prop53
 90
        2
102
RTVSPost2010PropOp53
 70
     1
102
RTVSPost2010Prop54
  1
strokes_ogs.tif
102
RTVSPost2010PropOp54
 70
     1
102
RTVSPost2010Prop55
280
     0
102
RTVSPost2010PropOp55
 70
     1
102
RTVSPost2010Prop56
140
1.0
102
RTVSPost2010PropOp56
 70
     1
102
RTVSPost2010Prop57
140
1.0
102
RTVSPost2010PropOp57
 70
     1
102
RTVSPropertyOp0
 70
     1
102
RTVSPropertyOp1
 70
     1
102
RTVSPropertyOp2
 70
     1
102
RTVSPropertyOp3
 70
     1
102
RTVSPropertyOp4
 70
     1
102
RTVSPropertyOp5
 70
     1
102
RTVSPropertyOp6
 70
     1
102
RTVSPropertyOp7
 70
     1
102
RTVSPropertyOp8
 70
     1
102
RTVSPropertyOp9
 70
     1
102
RTVSPropertyOp10
 70
     1
102
RTVSPropertyOp11
 70
     1
102
RTVSPropertyOp12
 70
     1
102
RTVSPropertyOp13
 70
     1
102
RTVSPropertyOp14
 70
     1
102
RTVSPropertyOp15
 70
     1
102
RTVSPropertyOp16
 70
     1
102
RTVSPropertyOp17
 70
     1
102
RTVSPropertyOp18
 70
     1
102
RTVSPropertyOp19
 70
     1
102
RTVSPropertyOp20
 70
     1
102
RTVSPropertyOp21
 70
     1
102
RTVSPropertyOp22
 70
     1
102
RTVSPropertyOp23
 70
     1
102
RTVSPropertyOp24
 70
     1
102
RTVSPropertyOp25
 70
     1
102
RTVSPropertyOp26
 70
     1
102
RTVSPropertyOp27
 70
     1
102
RTVSPropertyOp28
 70
     1
102
RTVSPropertyOp29
 70
     1
102
RTVSPropertyOp30
 70
     1
102
RTVSPropertyOp31
 70
     1
102
RTVSPropertyOp32
 70
     1
102
RTVSPropertyOp33
 70
     1
102
RTVSPropertyOp34
 70
     1
102
RTVSPropertyOp35
 70
     1
102
RTVSPropertyOp36
 70
     1
102
RTVSPropertyOp37
 70
     1
102
RTVSPropertyOp38
 70
     1
102
RTVSPropertyOp39
 70
     1
102
RTVSPropertyOp40
 70
     1
102
RTVSPropertyOp41
 70
     1
102
RTVSPropertyOp42
 70
     1
102
RTVSPropertyOp43
 70
     1
102
RTVSPropertyOp44
 70
     1
102
RTVSPropertyOp45
 70
     1
102
RTVSPropertyOp46
 70
     1
102
RTVSPropertyOp47
 70
     1
102
RTVSPropertyOp48
 70
     1
102
RTVSPropertyOp49
 70
     1
102
RTVSPropertyOp50
 70
     1
102
RTVSPropertyOp51
 70
     0
102
RTVSPropertyOp52
 70
     0
102
RTVSPropertyOp53
 70
     1
102
RTVSPropertyOp54
 70
     1
102
RTVSPropertyOp55
 70
     1
102
RTVSPropertyOp56
 70
     1
102
RTVSPropertyOp57
 70
     1
102
RTVSPropertyOp58
 70
     1
102
RTVSPropertyOp59
 70
     1
102
RTVSPropertyOp60
 70
     1
102
RTVSPropertyOp61
 70
     1
102
RTVSPropertyOp62
 70
     1
  0
XRECORD
  5
C447
102
{ACAD_REACTORS
330
C446
102
}
330
C446
100
AcDbXrecord
280
     1
102
RTVSPost2010Prop28
280
     0
102
RTVSPost2010PropOp28
 70
     1
102
RTVSPost2010Prop29
280
     1
102
RTVSPost2010PropOp29
 70
     1
102
RTVSPost2010Prop30
280
     1
102
RTVSPost2010PropOp30
 70
     1
102
RTVSPost2010Prop31
280
     0
102
RTVSPost2010PropOp31
 70
     1
102
RTVSPost2010Prop32
280
     0
102
RTVSPost2010PropOp32
 70
     1
102
RTVSPost2010Prop33
280
     0
102
RTVSPost2010PropOp33
 70
     1
102
RTVSPost2010Prop34
280
     0
102
RTVSPost2010PropOp34
 70
     1
102
RTVSPost2010Prop35
280
     0
102
RTVSPost2010PropOp35
 70
     1
102
RTVSPost2010Prop36
280
     0
102
RTVSPost2010PropOp36
 70
     1
102
RTVSPost2010Prop37
 90
       50
102
RTVSPost2010PropOp37
 70
     1
102
RTVSPost2010Prop38
140
0.0
102
RTVSPost2010PropOp38
 70
     1
102
RTVSPost2010Prop39
140
1.0
102
RTVSPost2010PropOp39
 70
     1
102
RTVSPost2010Prop40
 90
        0
102
RTVSPost2010PropOp40
 70
     1
102
RTVSPost2010Prop41ColorIndex
 90
       18
102
RTVSPost2010Prop41ColorRGB
 90
        0
102
RTVSPost2010PropOp41
 70
     1
102
RTVSPost2010Prop42
 90
       50
102
RTVSPost2010PropOp42
 70
     1
102
RTVSPost2010Prop43
 90
        3
102
RTVSPost2010PropOp43
 70
     1
102
RTVSPost2010Prop44ColorIndex
 90
        5
102
RTVSPost2010Prop44ColorRGB
 90
      255
102
RTVSPost2010PropOp44
 70
     1
102
RTVSPost2010Prop45
280
     0
102
RTVSPost2010PropOp45
 70
     1
102
RTVSPost2010Prop46
 90
       50
102
RTVSPost2010PropOp46
 70
     1
102
RTVSPost2010Prop47
 90
       50
102
RTVSPost2010PropOp47
 70
     1
102
RTVSPost2010Prop48
 90
       50
102
RTVSPost2010PropOp48
 70
     1
102
RTVSPost2010Prop49
280
     0
102
RTVSPost2010PropOp49
 70
     1
102
RTVSPost2010Prop50
 90
       50
102
RTVSPost2010PropOp50
 70
     1
102
RTVSPost2010Prop51ColorIndex
 90
      256
102
RTVSPost2010Prop51ColorRGB
 90
-16777216
102
RTVSPost2010PropOp51
 70
     0
102
RTVSPost2010Prop52
140
1.0
102
RTVSPost2010PropOp52
 70
     0
102
RTVSPost2010Prop53
 90
        2
102
RTVSPost2010PropOp53
 70
     1
102
RTVSPost2010Prop54
  1
strokes_ogs.tif
102
RTVSPost2010PropOp54
 70
     1
102
RTVSPost2010Prop55
280
     0
102
RTVSPost2010PropOp55
 70
     1
102
RTVSPost2010Prop56
140
1.0
102
RTVSPost2010PropOp56
 70
     1
102
RTVSPost2010Prop57
140
1.0
102
RTVSPost2010PropOp57
 70
     1
102
RTVSPropertyOp0
 70
     1
102
RTVSPropertyOp1
 70
     1
102
RTVSPropertyOp2
 70
     1
102
RTVSPropertyOp3
 70
     1
102
RTVSPropertyOp4
 70
     1
102
RTVSPropertyOp5
 70
     1
102
RTVSPropertyOp6
 70
     1
102
RTVSPropertyOp7
 70
     1
102
RTVSPropertyOp8
 70
     1
102
RTVSPropertyOp9
 70
     1
102
RTVSPropertyOp10
 70
     1
102
RTVSPropertyOp11
 70
     1
102
RTVSPropertyOp12
 70
     1
102
RTVSPropertyOp13
 70
     1
102
RTVSPropertyOp14
 70
     1
102
RTVSPropertyOp15
 70
     1
102
RTVSPropertyOp16
 70
     1
102
RTVSPropertyOp17
 70
     1
102
RTVSPropertyOp18
 70
     1
102
RTVSPropertyOp19
 70
     1
102
RTVSPropertyOp20
 70
     1
102
RTVSPropertyOp21
 70
     1
102
RTVSPropertyOp22
 70
     1
102
RTVSPropertyOp23
 70
     1
102
RTVSPropertyOp24
 70
     1
102
RTVSPropertyOp25
 70
     1
102
RTVSPropertyOp26
 70
     1
102
RTVSPropertyOp27
 70
     1
102
RTVSPropertyOp28
 70
     1
102
RTVSPropertyOp29
 70
     1
102
RTVSPropertyOp30
 70
     1
102
RTVSPropertyOp31
 70
     1
102
RTVSPropertyOp32
 70
     1
102
RTVSPropertyOp33
 70
     1
102
RTVSPropertyOp34
 70
     1
102
RTVSPropertyOp35
 70
     1
102
RTVSPropertyOp36
 70
     1
102
RTVSPropertyOp37
 70
     1
102
RTVSPropertyOp38
 70
     1
102
RTVSPropertyOp39
 70
     1
102
RTVSPropertyOp40
 70
     1
102
RTVSPropertyOp41
 70
     1
102
RTVSPropertyOp42
 70
     1
102
RTVSPropertyOp43
 70
     1
102
RTVSPropertyOp44
 70
     1
102
RTVSPropertyOp45
 70
     1
102
RTVSPropertyOp46
 70
     1
102
RTVSPropertyOp47
 70
     1
102
RTVSPropertyOp48
 70
     1
102
RTVSPropertyOp49
 70
     1
102
RTVSPropertyOp50
 70
     1
102
RTVSPropertyOp51
 70
     0
102
RTVSPropertyOp52
 70
     0
102
RTVSPropertyOp53
 70
     1
102
RTVSPropertyOp54
 70
     1
102
RTVSPropertyOp55
 70
     1
102
RTVSPropertyOp56
 70
     1
102
RTVSPropertyOp57
 70
     1
102
RTVSPropertyOp58
 70
     1
102
RTVSPropertyOp59
 70
     1
102
RTVSPropertyOp60
 70
     1
102
RTVSPropertyOp61
 70
     1
102
RTVSPropertyOp62
 70
     1
  0
XRECORD
  5
C449
102
{ACAD_REACTORS
330
C448
102
}
330
C448
100
AcDbXrecord
280
     1
102
RTVSPost2010Prop28
280
     0
102
RTVSPost2010PropOp28
 70
     1
102
RTVSPost2010Prop29
280
     1
102
RTVSPost2010PropOp29
 70
     1
102
RTVSPost2010Prop30
280
     1
102
RTVSPost2010PropOp30
 70
     1
102
RTVSPost2010Prop31
280
     0
102
RTVSPost2010PropOp31
 70
     1
102
RTVSPost2010Prop32
280
     0
102
RTVSPost2010PropOp32
 70
     1
102
RTVSPost2010Prop33
280
     0
102
RTVSPost2010PropOp33
 70
     1
102
RTVSPost2010Prop34
280
     0
102
RTVSPost2010PropOp34
 70
     1
102
RTVSPost2010Prop35
280
     0
102
RTVSPost2010PropOp35
 70
     1
102
RTVSPost2010Prop36
280
     0
102
RTVSPost2010PropOp36
 70
     1
102
RTVSPost2010Prop37
 90
       50
102
RTVSPost2010PropOp37
 70
     1
102
RTVSPost2010Prop38
140
0.0
102
RTVSPost2010PropOp38
 70
     1
102
RTVSPost2010Prop39
140
1.0
102
RTVSPost2010PropOp39
 70
     1
102
RTVSPost2010Prop40
 90
        0
102
RTVSPost2010PropOp40
 70
     1
102
RTVSPost2010Prop41ColorIndex
 90
       18
102
RTVSPost2010Prop41ColorRGB
 90
        0
102
RTVSPost2010PropOp41
 70
     1
102
RTVSPost2010Prop42
 90
       50
102
RTVSPost2010PropOp42
 70
     1
102
RTVSPost2010Prop43
 90
        3
102
RTVSPost2010PropOp43
 70
     1
102
RTVSPost2010Prop44ColorIndex
 90
        5
102
RTVSPost2010Prop44ColorRGB
 90
      255
102
RTVSPost2010PropOp44
 70
     1
102
RTVSPost2010Prop45
280
     0
102
RTVSPost2010PropOp45
 70
     1
102
RTVSPost2010Prop46
 90
       50
102
RTVSPost2010PropOp46
 70
     1
102
RTVSPost2010Prop47
 90
       50
102
RTVSPost2010PropOp47
 70
     1
102
RTVSPost2010Prop48
 90
       50
102
RTVSPost2010PropOp48
 70
     1
102
RTVSPost2010Prop49
280
     0
102
RTVSPost2010PropOp49
 70
     1
102
RTVSPost2010Prop50
 90
       50
102
RTVSPost2010PropOp50
 70
     1
102
RTVSPost2010Prop51ColorIndex
 90
      256
102
RTVSPost2010Prop51ColorRGB
 90
-16777216
102
RTVSPost2010PropOp51
 70
     0
102
RTVSPost2010Prop52
140
1.0
102
RTVSPost2010PropOp52
 70
     0
102
RTVSPost2010Prop53
 90
        2
102
RTVSPost2010PropOp53
 70
     1
102
RTVSPost2010Prop54
  1
strokes_ogs.tif
102
RTVSPost2010PropOp54
 70
     1
102
RTVSPost2010Prop55
280
     0
102
RTVSPost2010PropOp55
 70
     1
102
RTVSPost2010Prop56
140
1.0
102
RTVSPost2010PropOp56
 70
     1
102
RTVSPost2010Prop57
140
1.0
102
RTVSPost2010PropOp57
 70
     1
102
RTVSPropertyOp0
 70
     1
102
RTVSPropertyOp1
 70
     1
102
RTVSPropertyOp2
 70
     1
102
RTVSPropertyOp3
 70
     1
102
RTVSPropertyOp4
 70
     1
102
RTVSPropertyOp5
 70
     1
102
RTVSPropertyOp6
 70
     1
102
RTVSPropertyOp7
 70
     1
102
RTVSPropertyOp8
 70
     1
102
RTVSPropertyOp9
 70
     1
102
RTVSPropertyOp10
 70
     1
102
RTVSPropertyOp11
 70
     1
102
RTVSPropertyOp12
 70
     1
102
RTVSPropertyOp13
 70
     1
102
RTVSPropertyOp14
 70
     1
102
RTVSPropertyOp15
 70
     1
102
RTVSPropertyOp16
 70
     1
102
RTVSPropertyOp17
 70
     1
102
RTVSPropertyOp18
 70
     1
102
RTVSPropertyOp19
 70
     1
102
RTVSPropertyOp20
 70
     1
102
RTVSPropertyOp21
 70
     1
102
RTVSPropertyOp22
 70
     1
102
RTVSPropertyOp23
 70
     1
102
RTVSPropertyOp24
 70
     1
102
RTVSPropertyOp25
 70
     1
102
RTVSPropertyOp26
 70
     1
102
RTVSPropertyOp27
 70
     1
102
RTVSPropertyOp28
 70
     1
102
RTVSPropertyOp29
 70
     1
102
RTVSPropertyOp30
 70
     1
102
RTVSPropertyOp31
 70
     1
102
RTVSPropertyOp32
 70
     1
102
RTVSPropertyOp33
 70
     1
102
RTVSPropertyOp34
 70
     1
102
RTVSPropertyOp35
 70
     1
102
RTVSPropertyOp36
 70
     1
102
RTVSPropertyOp37
 70
     1
102
RTVSPropertyOp38
 70
     1
102
RTVSPropertyOp39
 70
     1
102
RTVSPropertyOp40
 70
     1
102
RTVSPropertyOp41
 70
     1
102
RTVSPropertyOp42
 70
     1
102
RTVSPropertyOp43
 70
     1
102
RTVSPropertyOp44
 70
     1
102
RTVSPropertyOp45
 70
     1
102
RTVSPropertyOp46
 70
     1
102
RTVSPropertyOp47
 70
     1
102
RTVSPropertyOp48
 70
     1
102
RTVSPropertyOp49
 70
     1
102
RTVSPropertyOp50
 70
     1
102
RTVSPropertyOp51
 70
     0
102
RTVSPropertyOp52
 70
     0
102
RTVSPropertyOp53
 70
     1
102
RTVSPropertyOp54
 70
     1
102
RTVSPropertyOp55
 70
     1
102
RTVSPropertyOp56
 70
     1
102
RTVSPropertyOp57
 70
     1
102
RTVSPropertyOp58
 70
     1
102
RTVSPropertyOp59
 70
     1
102
RTVSPropertyOp60
 70
     1
102
RTVSPropertyOp61
 70
     1
102
RTVSPropertyOp62
 70
     1
  0
XRECORD
  5
C451
102
{ACAD_REACTORS
330
C450
102
}
330
C450
100
AcDbXrecord
280
     1
102
RTVSPost2010Prop28
280
     0
102
RTVSPost2010PropOp28
 70
     1
102
RTVSPost2010Prop29
280
     1
102
RTVSPost2010PropOp29
 70
     1
102
RTVSPost2010Prop30
280
     1
102
RTVSPost2010PropOp30
 70
     1
102
RTVSPost2010Prop31
280
     0
102
RTVSPost2010PropOp31
 70
     1
102
RTVSPost2010Prop32
280
     0
102
RTVSPost2010PropOp32
 70
     1
102
RTVSPost2010Prop33
280
     0
102
RTVSPost2010PropOp33
 70
     1
102
RTVSPost2010Prop34
280
     0
102
RTVSPost2010PropOp34
 70
     1
102
RTVSPost2010Prop35
280
     0
102
RTVSPost2010PropOp35
 70
     1
102
RTVSPost2010Prop36
280
     0
102
RTVSPost2010PropOp36
 70
     1
102
RTVSPost2010Prop37
 90
       50
102
RTVSPost2010PropOp37
 70
     1
102
RTVSPost2010Prop38
140
0.0
102
RTVSPost2010PropOp38
 70
     1
102
RTVSPost2010Prop39
140
1.0
102
RTVSPost2010PropOp39
 70
     1
102
RTVSPost2010Prop40
 90
        0
102
RTVSPost2010PropOp40
 70
     1
102
RTVSPost2010Prop41ColorIndex
 90
       18
102
RTVSPost2010Prop41ColorRGB
 90
        0
102
RTVSPost2010PropOp41
 70
     1
102
RTVSPost2010Prop42
 90
       50
102
RTVSPost2010PropOp42
 70
     1
102
RTVSPost2010Prop43
 90
        3
102
RTVSPost2010PropOp43
 70
     1
102
RTVSPost2010Prop44ColorIndex
 90
        5
102
RTVSPost2010Prop44ColorRGB
 90
      255
102
RTVSPost2010PropOp44
 70
     1
102
RTVSPost2010Prop45
280
     0
102
RTVSPost2010PropOp45
 70
     1
102
RTVSPost2010Prop46
 90
       50
102
RTVSPost2010PropOp46
 70
     1
102
RTVSPost2010Prop47
 90
       50
102
RTVSPost2010PropOp47
 70
     1
102
RTVSPost2010Prop48
 90
       50
102
RTVSPost2010PropOp48
 70
     1
102
RTVSPost2010Prop49
280
     0
102
RTVSPost2010PropOp49
 70
     1
102
RTVSPost2010Prop50
 90
       50
102
RTVSPost2010PropOp50
 70
     1
102
RTVSPost2010Prop51ColorIndex
 90
      256
102
RTVSPost2010Prop51ColorRGB
 90
-16777216
102
RTVSPost2010PropOp51
 70
     0
102
RTVSPost2010Prop52
140
1.0
102
RTVSPost2010PropOp52
 70
     0
102
RTVSPost2010Prop53
 90
        2
102
RTVSPost2010PropOp53
 70
     1
102
RTVSPost2010Prop54
  1
strokes_ogs.tif
102
RTVSPost2010PropOp54
 70
     1
102
RTVSPost2010Prop55
280
     0
102
RTVSPost2010PropOp55
 70
     1
102
RTVSPost2010Prop56
140
1.0
102
RTVSPost2010PropOp56
 70
     1
102
RTVSPost2010Prop57
140
1.0
102
RTVSPost2010PropOp57
 70
     1
102
RTVSPropertyOp0
 70
     1
102
RTVSPropertyOp1
 70
     1
102
RTVSPropertyOp2
 70
     1
102
RTVSPropertyOp3
 70
     1
102
RTVSPropertyOp4
 70
     1
102
RTVSPropertyOp5
 70
     1
102
RTVSPropertyOp6
 70
     1
102
RTVSPropertyOp7
 70
     1
102
RTVSPropertyOp8
 70
     1
102
RTVSPropertyOp9
 70
     1
102
RTVSPropertyOp10
 70
     1
102
RTVSPropertyOp11
 70
     1
102
RTVSPropertyOp12
 70
     1
102
RTVSPropertyOp13
 70
     1
102
RTVSPropertyOp14
 70
     1
102
RTVSPropertyOp15
 70
     1
102
RTVSPropertyOp16
 70
     1
102
RTVSPropertyOp17
 70
     1
102
RTVSPropertyOp18
 70
     1
102
RTVSPropertyOp19
 70
     1
102
RTVSPropertyOp20
 70
     1
102
RTVSPropertyOp21
 70
     1
102
RTVSPropertyOp22
 70
     1
102
RTVSPropertyOp23
 70
     1
102
RTVSPropertyOp24
 70
     1
102
RTVSPropertyOp25
 70
     1
102
RTVSPropertyOp26
 70
     1
102
RTVSPropertyOp27
 70
     1
102
RTVSPropertyOp28
 70
     1
102
RTVSPropertyOp29
 70
     1
102
RTVSPropertyOp30
 70
     1
102
RTVSPropertyOp31
 70
     1
102
RTVSPropertyOp32
 70
     1
102
RTVSPropertyOp33
 70
     1
102
RTVSPropertyOp34
 70
     1
102
RTVSPropertyOp35
 70
     1
102
RTVSPropertyOp36
 70
     1
102
RTVSPropertyOp37
 70
     1
102
RTVSPropertyOp38
 70
     1
102
RTVSPropertyOp39
 70
     1
102
RTVSPropertyOp40
 70
     1
102
RTVSPropertyOp41
 70
     1
102
RTVSPropertyOp42
 70
     1
102
RTVSPropertyOp43
 70
     1
102
RTVSPropertyOp44
 70
     1
102
RTVSPropertyOp45
 70
     1
102
RTVSPropertyOp46
 70
     1
102
RTVSPropertyOp47
 70
     1
102
RTVSPropertyOp48
 70
     1
102
RTVSPropertyOp49
 70
     1
102
RTVSPropertyOp50
 70
     1
102
RTVSPropertyOp51
 70
     0
102
RTVSPropertyOp52
 70
     0
102
RTVSPropertyOp53
 70
     1
102
RTVSPropertyOp54
 70
     1
102
RTVSPropertyOp55
 70
     1
102
RTVSPropertyOp56
 70
     1
102
RTVSPropertyOp57
 70
     1
102
RTVSPropertyOp58
 70
     1
102
RTVSPropertyOp59
 70
     1
102
RTVSPropertyOp60
 70
     1
102
RTVSPropertyOp61
 70
     1
102
RTVSPropertyOp62
 70
     1
  0
XRECORD
  5
C465
102
{ACAD_REACTORS
330
C464
102
}
330
C464
100
AcDbXrecord
280
     1
102
RTVSPost2010Prop28
280
     0
102
RTVSPost2010PropOp28
 70
     1
102
RTVSPost2010Prop29
280
     1
102
RTVSPost2010PropOp29
 70
     1
102
RTVSPost2010Prop30
280
     1
102
RTVSPost2010PropOp30
 70
     1
102
RTVSPost2010Prop31
280
     0
102
RTVSPost2010PropOp31
 70
     1
102
RTVSPost2010Prop32
280
     0
102
RTVSPost2010PropOp32
 70
     1
102
RTVSPost2010Prop33
280
     0
102
RTVSPost2010PropOp33
 70
     1
102
RTVSPost2010Prop34
280
     0
102
RTVSPost2010PropOp34
 70
     1
102
RTVSPost2010Prop35
280
     0
102
RTVSPost2010PropOp35
 70
     1
102
RTVSPost2010Prop36
280
     0
102
RTVSPost2010PropOp36
 70
     1
102
RTVSPost2010Prop37
 90
       50
102
RTVSPost2010PropOp37
 70
     1
102
RTVSPost2010Prop38
140
0.0
102
RTVSPost2010PropOp38
 70
     1
102
RTVSPost2010Prop39
140
1.0
102
RTVSPost2010PropOp39
 70
     1
102
RTVSPost2010Prop40
 90
        0
102
RTVSPost2010PropOp40
 70
     1
102
RTVSPost2010Prop41ColorIndex
 90
       18
102
RTVSPost2010Prop41ColorRGB
 90
        0
102
RTVSPost2010PropOp41
 70
     1
102
RTVSPost2010Prop42
 90
       50
102
RTVSPost2010PropOp42
 70
     1
102
RTVSPost2010Prop43
 90
        3
102
RTVSPost2010PropOp43
 70
     1
102
RTVSPost2010Prop44ColorIndex
 90
        5
102
RTVSPost2010Prop44ColorRGB
 90
      255
102
RTVSPost2010PropOp44
 70
     1
102
RTVSPost2010Prop45
280
     0
102
RTVSPost2010PropOp45
 70
     1
102
RTVSPost2010Prop46
 90
       50
102
RTVSPost2010PropOp46
 70
     1
102
RTVSPost2010Prop47
 90
       50
102
RTVSPost2010PropOp47
 70
     1
102
RTVSPost2010Prop48
 90
       50
102
RTVSPost2010PropOp48
 70
     1
102
RTVSPost2010Prop49
280
     0
102
RTVSPost2010PropOp49
 70
     1
102
RTVSPost2010Prop50
 90
       50
102
RTVSPost2010PropOp50
 70
     1
102
RTVSPost2010Prop51ColorIndex
 90
      256
102
RTVSPost2010Prop51ColorRGB
 90
-16777216
102
RTVSPost2010PropOp51
 70
     0
102
RTVSPost2010Prop52
140
1.0
102
RTVSPost2010PropOp52
 70
     0
102
RTVSPost2010Prop53
 90
        2
102
RTVSPost2010PropOp53
 70
     1
102
RTVSPost2010Prop54
  1
strokes_ogs.tif
102
RTVSPost2010PropOp54
 70
     1
102
RTVSPost2010Prop55
280
     0
102
RTVSPost2010PropOp55
 70
     1
102
RTVSPost2010Prop56
140
1.0
102
RTVSPost2010PropOp56
 70
     1
102
RTVSPost2010Prop57
140
1.0
102
RTVSPost2010PropOp57
 70
     1
102
RTVSPropertyOp0
 70
     0
102
RTVSPropertyOp1
 70
     0
102
RTVSPropertyOp2
 70
     0
102
RTVSPropertyOp3
 70
     0
102
RTVSPropertyOp4
 70
     0
102
RTVSPropertyOp5
 70
     0
102
RTVSPropertyOp6
 70
     0
102
RTVSPropertyOp7
 70
     0
102
RTVSPropertyOp8
 70
     0
102
RTVSPropertyOp9
 70
     0
102
RTVSPropertyOp10
 70
     0
102
RTVSPropertyOp11
 70
     0
102
RTVSPropertyOp12
 70
     0
102
RTVSPropertyOp13
 70
     0
102
RTVSPropertyOp14
 70
     2
102
RTVSPropertyOp15
 70
     0
102
RTVSPropertyOp16
 70
     0
102
RTVSPropertyOp17
 70
     0
102
RTVSPropertyOp18
 70
     0
102
RTVSPropertyOp19
 70
     0
102
RTVSPropertyOp20
 70
     0
102
RTVSPropertyOp21
 70
     0
102
RTVSPropertyOp22
 70
     0
102
RTVSPropertyOp23
 70
     0
102
RTVSPropertyOp24
 70
     0
102
RTVSPropertyOp25
 70
     0
102
RTVSPropertyOp26
 70
     0
102
RTVSPropertyOp27
 70
     0
102
RTVSPropertyOp28
 70
     1
102
RTVSPropertyOp29
 70
     1
102
RTVSPropertyOp30
 70
     1
102
RTVSPropertyOp31
 70
     1
102
RTVSPropertyOp32
 70
     1
102
RTVSPropertyOp33
 70
     1
102
RTVSPropertyOp34
 70
     1
102
RTVSPropertyOp35
 70
     1
102
RTVSPropertyOp36
 70
     1
102
RTVSPropertyOp37
 70
     1
102
RTVSPropertyOp38
 70
     1
102
RTVSPropertyOp39
 70
     1
102
RTVSPropertyOp40
 70
     1
102
RTVSPropertyOp41
 70
     1
102
RTVSPropertyOp42
 70
     1
102
RTVSPropertyOp43
 70
     1
102
RTVSPropertyOp44
 70
     1
102
RTVSPropertyOp45
 70
     1
102
RTVSPropertyOp46
 70
     1
102
RTVSPropertyOp47
 70
     1
102
RTVSPropertyOp48
 70
     1
102
RTVSPropertyOp49
 70
     1
102
RTVSPropertyOp50
 70
     1
102
RTVSPropertyOp51
 70
     0
102
RTVSPropertyOp52
 70
     0
102
RTVSPropertyOp53
 70
     1
102
RTVSPropertyOp54
 70
     1
102
RTVSPropertyOp55
 70
     1
102
RTVSPropertyOp56
 70
     1
102
RTVSPropertyOp57
 70
     1
102
RTVSPropertyOp58
 70
     1
102
RTVSPropertyOp59
 70
     1
102
RTVSPropertyOp60
 70
     1
102
RTVSPropertyOp61
 70
     1
102
RTVSPropertyOp62
 70
     1
  0
XRECORD
  5
C45D
102
{ACAD_REACTORS
330
C45C
102
}
330
C45C
100
AcDbXrecord
280
     1
102
RTVSPost2010Prop28
280
     0
102
RTVSPost2010PropOp28
 70
     1
102
RTVSPost2010Prop29
280
     1
102
RTVSPost2010PropOp29
 70
     1
102
RTVSPost2010Prop30
280
     1
102
RTVSPost2010PropOp30
 70
     1
102
RTVSPost2010Prop31
280
     0
102
RTVSPost2010PropOp31
 70
     1
102
RTVSPost2010Prop32
280
     0
102
RTVSPost2010PropOp32
 70
     1
102
RTVSPost2010Prop33
280
     0
102
RTVSPost2010PropOp33
 70
     1
102
RTVSPost2010Prop34
280
     0
102
RTVSPost2010PropOp34
 70
     1
102
RTVSPost2010Prop35
280
     0
102
RTVSPost2010PropOp35
 70
     1
102
RTVSPost2010Prop36
280
     0
102
RTVSPost2010PropOp36
 70
     1
102
RTVSPost2010Prop37
 90
       50
102
RTVSPost2010PropOp37
 70
     1
102
RTVSPost2010Prop38
140
0.0
102
RTVSPost2010PropOp38
 70
     1
102
RTVSPost2010Prop39
140
1.0
102
RTVSPost2010PropOp39
 70
     1
102
RTVSPost2010Prop40
 90
        0
102
RTVSPost2010PropOp40
 70
     1
102
RTVSPost2010Prop41ColorIndex
 90
       18
102
RTVSPost2010Prop41ColorRGB
 90
        0
102
RTVSPost2010PropOp41
 70
     1
102
RTVSPost2010Prop42
 90
       50
102
RTVSPost2010PropOp42
 70
     1
102
RTVSPost2010Prop43
 90
        3
102
RTVSPost2010PropOp43
 70
     1
102
RTVSPost2010Prop44ColorIndex
 90
        5
102
RTVSPost2010Prop44ColorRGB
 90
      255
102
RTVSPost2010PropOp44
 70
     1
102
RTVSPost2010Prop45
280
     0
102
RTVSPost2010PropOp45
 70
     1
102
RTVSPost2010Prop46
 90
       50
102
RTVSPost2010PropOp46
 70
     1
102
RTVSPost2010Prop47
 90
       50
102
RTVSPost2010PropOp47
 70
     1
102
RTVSPost2010Prop48
 90
       50
102
RTVSPost2010PropOp48
 70
     1
102
RTVSPost2010Prop49
280
     0
102
RTVSPost2010PropOp49
 70
     1
102
RTVSPost2010Prop50
 90
       50
102
RTVSPost2010PropOp50
 70
     1
102
RTVSPost2010Prop51ColorIndex
 90
      256
102
RTVSPost2010Prop51ColorRGB
 90
-16777216
102
RTVSPost2010PropOp51
 70
     0
102
RTVSPost2010Prop52
140
1.0
102
RTVSPost2010PropOp52
 70
     0
102
RTVSPost2010Prop53
 90
        2
102
RTVSPost2010PropOp53
 70
     1
102
RTVSPost2010Prop54
  1
strokes_ogs.tif
102
RTVSPost2010PropOp54
 70
     1
102
RTVSPost2010Prop55
280
     0
102
RTVSPost2010PropOp55
 70
     1
102
RTVSPost2010Prop56
140
1.0
102
RTVSPost2010PropOp56
 70
     1
102
RTVSPost2010Prop57
140
1.0
102
RTVSPost2010PropOp57
 70
     1
102
RTVSPropertyOp0
 70
     1
102
RTVSPropertyOp1
 70
     1
102
RTVSPropertyOp2
 70
     1
102
RTVSPropertyOp3
 70
     1
102
RTVSPropertyOp4
 70
     1
102
RTVSPropertyOp5
 70
     1
102
RTVSPropertyOp6
 70
     1
102
RTVSPropertyOp7
 70
     1
102
RTVSPropertyOp8
 70
     1
102
RTVSPropertyOp9
 70
     1
102
RTVSPropertyOp10
 70
     1
102
RTVSPropertyOp11
 70
     1
102
RTVSPropertyOp12
 70
     1
102
RTVSPropertyOp13
 70
     1
102
RTVSPropertyOp14
 70
     1
102
RTVSPropertyOp15
 70
     1
102
RTVSPropertyOp16
 70
     1
102
RTVSPropertyOp17
 70
     1
102
RTVSPropertyOp18
 70
     1
102
RTVSPropertyOp19
 70
     1
102
RTVSPropertyOp20
 70
     1
102
RTVSPropertyOp21
 70
     1
102
RTVSPropertyOp22
 70
     1
102
RTVSPropertyOp23
 70
     1
102
RTVSPropertyOp24
 70
     1
102
RTVSPropertyOp25
 70
     1
102
RTVSPropertyOp26
 70
     1
102
RTVSPropertyOp27
 70
     1
102
RTVSPropertyOp28
 70
     1
102
RTVSPropertyOp29
 70
     1
102
RTVSPropertyOp30
 70
     1
102
RTVSPropertyOp31
 70
     1
102
RTVSPropertyOp32
 70
     1
102
RTVSPropertyOp33
 70
     1
102
RTVSPropertyOp34
 70
     1
102
RTVSPropertyOp35
 70
     1
102
RTVSPropertyOp36
 70
     1
102
RTVSPropertyOp37
 70
     1
102
RTVSPropertyOp38
 70
     1
102
RTVSPropertyOp39
 70
     1
102
RTVSPropertyOp40
 70
     1
102
RTVSPropertyOp41
 70
     1
102
RTVSPropertyOp42
 70
     1
102
RTVSPropertyOp43
 70
     1
102
RTVSPropertyOp44
 70
     1
102
RTVSPropertyOp45
 70
     1
102
RTVSPropertyOp46
 70
     1
102
RTVSPropertyOp47
 70
     1
102
RTVSPropertyOp48
 70
     1
102
RTVSPropertyOp49
 70
     1
102
RTVSPropertyOp50
 70
     1
102
RTVSPropertyOp51
 70
     0
102
RTVSPropertyOp52
 70
     0
102
RTVSPropertyOp53
 70
     1
102
RTVSPropertyOp54
 70
     1
102
RTVSPropertyOp55
 70
     1
102
RTVSPropertyOp56
 70
     1
102
RTVSPropertyOp57
 70
     1
102
RTVSPropertyOp58
 70
     1
102
RTVSPropertyOp59
 70
     1
102
RTVSPropertyOp60
 70
     1
102
RTVSPropertyOp61
 70
     1
102
RTVSPropertyOp62
 70
     1
  0
XRECORD
  5
C467
102
{ACAD_REACTORS
330
C466
102
}
330
C466
100
AcDbXrecord
280
     1
102
RTVSPost2010Prop28
280
     0
102
RTVSPost2010PropOp28
 70
     1
102
RTVSPost2010Prop29
280
     1
102
RTVSPost2010PropOp29
 70
     1
102
RTVSPost2010Prop30
280
     1
102
RTVSPost2010PropOp30
 70
     1
102
RTVSPost2010Prop31
280
     0
102
RTVSPost2010PropOp31
 70
     1
102
RTVSPost2010Prop32
280
     0
102
RTVSPost2010PropOp32
 70
     1
102
RTVSPost2010Prop33
280
     0
102
RTVSPost2010PropOp33
 70
     1
102
RTVSPost2010Prop34
280
     0
102
RTVSPost2010PropOp34
 70
     1
102
RTVSPost2010Prop35
280
     0
102
RTVSPost2010PropOp35
 70
     1
102
RTVSPost2010Prop36
280
     0
102
RTVSPost2010PropOp36
 70
     1
102
RTVSPost2010Prop37
 90
       50
102
RTVSPost2010PropOp37
 70
     1
102
RTVSPost2010Prop38
140
0.0
102
RTVSPost2010PropOp38
 70
     1
102
RTVSPost2010Prop39
140
1.0
102
RTVSPost2010PropOp39
 70
     1
102
RTVSPost2010Prop40
 90
        0
102
RTVSPost2010PropOp40
 70
     1
102
RTVSPost2010Prop41ColorIndex
 90
       18
102
RTVSPost2010Prop41ColorRGB
 90
        0
102
RTVSPost2010PropOp41
 70
     1
102
RTVSPost2010Prop42
 90
       50
102
RTVSPost2010PropOp42
 70
     1
102
RTVSPost2010Prop43
 90
        3
102
RTVSPost2010PropOp43
 70
     1
102
RTVSPost2010Prop44ColorIndex
 90
        5
102
RTVSPost2010Prop44ColorRGB
 90
      255
102
RTVSPost2010PropOp44
 70
     1
102
RTVSPost2010Prop45
280
     0
102
RTVSPost2010PropOp45
 70
     1
102
RTVSPost2010Prop46
 90
       50
102
RTVSPost2010PropOp46
 70
     1
102
RTVSPost2010Prop47
 90
       50
102
RTVSPost2010PropOp47
 70
     1
102
RTVSPost2010Prop48
 90
       50
102
RTVSPost2010PropOp48
 70
     1
102
RTVSPost2010Prop49
280
     0
102
RTVSPost2010PropOp49
 70
     1
102
RTVSPost2010Prop50
 90
       50
102
RTVSPost2010PropOp50
 70
     1
102
RTVSPost2010Prop51ColorIndex
 90
      256
102
RTVSPost2010Prop51ColorRGB
 90
-16777216
102
RTVSPost2010PropOp51
 70
     0
102
RTVSPost2010Prop52
140
1.0
102
RTVSPost2010PropOp52
 70
     0
102
RTVSPost2010Prop53
 90
        2
102
RTVSPost2010PropOp53
 70
     1
102
RTVSPost2010Prop54
  1
strokes_ogs.tif
102
RTVSPost2010PropOp54
 70
     1
102
RTVSPost2010Prop55
280
     0
102
RTVSPost2010PropOp55
 70
     1
102
RTVSPost2010Prop56
140
1.0
102
RTVSPost2010PropOp56
 70
     1
102
RTVSPost2010Prop57
140
1.0
102
RTVSPost2010PropOp57
 70
     1
102
RTVSPropertyOp0
 70
     0
102
RTVSPropertyOp1
 70
     0
102
RTVSPropertyOp2
 70
     0
102
RTVSPropertyOp3
 70
     0
102
RTVSPropertyOp4
 70
     0
102
RTVSPropertyOp5
 70
     0
102
RTVSPropertyOp6
 70
     0
102
RTVSPropertyOp7
 70
     0
102
RTVSPropertyOp8
 70
     0
102
RTVSPropertyOp9
 70
     0
102
RTVSPropertyOp10
 70
     0
102
RTVSPropertyOp11
 70
     0
102
RTVSPropertyOp12
 70
     0
102
RTVSPropertyOp13
 70
     0
102
RTVSPropertyOp14
 70
     2
102
RTVSPropertyOp15
 70
     0
102
RTVSPropertyOp16
 70
     0
102
RTVSPropertyOp17
 70
     0
102
RTVSPropertyOp18
 70
     0
102
RTVSPropertyOp19
 70
     0
102
RTVSPropertyOp20
 70
     0
102
RTVSPropertyOp21
 70
     0
102
RTVSPropertyOp22
 70
     0
102
RTVSPropertyOp23
 70
     0
102
RTVSPropertyOp24
 70
     0
102
RTVSPropertyOp25
 70
     0
102
RTVSPropertyOp26
 70
     0
102
RTVSPropertyOp27
 70
     0
102
RTVSPropertyOp28
 70
     1
102
RTVSPropertyOp29
 70
     1
102
RTVSPropertyOp30
 70
     1
102
RTVSPropertyOp31
 70
     1
102
RTVSPropertyOp32
 70
     1
102
RTVSPropertyOp33
 70
     1
102
RTVSPropertyOp34
 70
     1
102
RTVSPropertyOp35
 70
     1
102
RTVSPropertyOp36
 70
     1
102
RTVSPropertyOp37
 70
     1
102
RTVSPropertyOp38
 70
     1
102
RTVSPropertyOp39
 70
     1
102
RTVSPropertyOp40
 70
     1
102
RTVSPropertyOp41
 70
     1
102
RTVSPropertyOp42
 70
     1
102
RTVSPropertyOp43
 70
     1
102
RTVSPropertyOp44
 70
     1
102
RTVSPropertyOp45
 70
     1
102
RTVSPropertyOp46
 70
     1
102
RTVSPropertyOp47
 70
     1
102
RTVSPropertyOp48
 70
     1
102
RTVSPropertyOp49
 70
     1
102
RTVSPropertyOp50
 70
     1
102
RTVSPropertyOp51
 70
     0
102
RTVSPropertyOp52
 70
     0
102
RTVSPropertyOp53
 70
     1
102
RTVSPropertyOp54
 70
     1
102
RTVSPropertyOp55
 70
     1
102
RTVSPropertyOp56
 70
     1
102
RTVSPropertyOp57
 70
     1
102
RTVSPropertyOp58
 70
     1
102
RTVSPropertyOp59
 70
     1
102
RTVSPropertyOp60
 70
     1
102
RTVSPropertyOp61
 70
     1
102
RTVSPropertyOp62
 70
     1
  0
XRECORD
  5
C455
102
{ACAD_REACTORS
330
C454
102
}
330
C454
100
AcDbXrecord
280
     1
102
RTVSPost2010Prop28
280
     0
102
RTVSPost2010PropOp28
 70
     1
102
RTVSPost2010Prop29
280
     1
102
RTVSPost2010PropOp29
 70
     1
102
RTVSPost2010Prop30
280
     1
102
RTVSPost2010PropOp30
 70
     1
102
RTVSPost2010Prop31
280
     0
102
RTVSPost2010PropOp31
 70
     1
102
RTVSPost2010Prop32
280
     0
102
RTVSPost2010PropOp32
 70
     1
102
RTVSPost2010Prop33
280
     0
102
RTVSPost2010PropOp33
 70
     1
102
RTVSPost2010Prop34
280
     0
102
RTVSPost2010PropOp34
 70
     1
102
RTVSPost2010Prop35
280
     0
102
RTVSPost2010PropOp35
 70
     1
102
RTVSPost2010Prop36
280
     0
102
RTVSPost2010PropOp36
 70
     1
102
RTVSPost2010Prop37
 90
       50
102
RTVSPost2010PropOp37
 70
     1
102
RTVSPost2010Prop38
140
0.0
102
RTVSPost2010PropOp38
 70
     1
102
RTVSPost2010Prop39
140
1.0
102
RTVSPost2010PropOp39
 70
     1
102
RTVSPost2010Prop40
 90
        0
102
RTVSPost2010PropOp40
 70
     1
102
RTVSPost2010Prop41ColorIndex
 90
       18
102
RTVSPost2010Prop41ColorRGB
 90
        0
102
RTVSPost2010PropOp41
 70
     1
102
RTVSPost2010Prop42
 90
       50
102
RTVSPost2010PropOp42
 70
     1
102
RTVSPost2010Prop43
 90
        3
102
RTVSPost2010PropOp43
 70
     1
102
RTVSPost2010Prop44ColorIndex
 90
        5
102
RTVSPost2010Prop44ColorRGB
 90
      255
102
RTVSPost2010PropOp44
 70
     1
102
RTVSPost2010Prop45
280
     0
102
RTVSPost2010PropOp45
 70
     1
102
RTVSPost2010Prop46
 90
       50
102
RTVSPost2010PropOp46
 70
     1
102
RTVSPost2010Prop47
 90
       50
102
RTVSPost2010PropOp47
 70
     1
102
RTVSPost2010Prop48
 90
       50
102
RTVSPost2010PropOp48
 70
     1
102
RTVSPost2010Prop49
280
     0
102
RTVSPost2010PropOp49
 70
     1
102
RTVSPost2010Prop50
 90
       50
102
RTVSPost2010PropOp50
 70
     1
102
RTVSPost2010Prop51ColorIndex
 90
      256
102
RTVSPost2010Prop51ColorRGB
 90
-16777216
102
RTVSPost2010PropOp51
 70
     0
102
RTVSPost2010Prop52
140
1.0
102
RTVSPost2010PropOp52
 70
     0
102
RTVSPost2010Prop53
 90
        2
102
RTVSPost2010PropOp53
 70
     1
102
RTVSPost2010Prop54
  1
strokes_ogs.tif
102
RTVSPost2010PropOp54
 70
     1
102
RTVSPost2010Prop55
280
     0
102
RTVSPost2010PropOp55
 70
     1
102
RTVSPost2010Prop56
140
1.0
102
RTVSPost2010PropOp56
 70
     1
102
RTVSPost2010Prop57
140
1.0
102
RTVSPost2010PropOp57
 70
     1
102
RTVSPropertyOp0
 70
     1
102
RTVSPropertyOp1
 70
     1
102
RTVSPropertyOp2
 70
     1
102
RTVSPropertyOp3
 70
     1
102
RTVSPropertyOp4
 70
     1
102
RTVSPropertyOp5
 70
     1
102
RTVSPropertyOp6
 70
     1
102
RTVSPropertyOp7
 70
     1
102
RTVSPropertyOp8
 70
     1
102
RTVSPropertyOp9
 70
     1
102
RTVSPropertyOp10
 70
     1
102
RTVSPropertyOp11
 70
     1
102
RTVSPropertyOp12
 70
     1
102
RTVSPropertyOp13
 70
     1
102
RTVSPropertyOp14
 70
     1
102
RTVSPropertyOp15
 70
     1
102
RTVSPropertyOp16
 70
     1
102
RTVSPropertyOp17
 70
     1
102
RTVSPropertyOp18
 70
     1
102
RTVSPropertyOp19
 70
     1
102
RTVSPropertyOp20
 70
     1
102
RTVSPropertyOp21
 70
     1
102
RTVSPropertyOp22
 70
     1
102
RTVSPropertyOp23
 70
     1
102
RTVSPropertyOp24
 70
     1
102
RTVSPropertyOp25
 70
     1
102
RTVSPropertyOp26
 70
     1
102
RTVSPropertyOp27
 70
     1
102
RTVSPropertyOp28
 70
     1
102
RTVSPropertyOp29
 70
     1
102
RTVSPropertyOp30
 70
     1
102
RTVSPropertyOp31
 70
     1
102
RTVSPropertyOp32
 70
     1
102
RTVSPropertyOp33
 70
     1
102
RTVSPropertyOp34
 70
     1
102
RTVSPropertyOp35
 70
     1
102
RTVSPropertyOp36
 70
     1
102
RTVSPropertyOp37
 70
     1
102
RTVSPropertyOp38
 70
     1
102
RTVSPropertyOp39
 70
     1
102
RTVSPropertyOp40
 70
     1
102
RTVSPropertyOp41
 70
     1
102
RTVSPropertyOp42
 70
     1
102
RTVSPropertyOp43
 70
     1
102
RTVSPropertyOp44
 70
     1
102
RTVSPropertyOp45
 70
     1
102
RTVSPropertyOp46
 70
     1
102
RTVSPropertyOp47
 70
     1
102
RTVSPropertyOp48
 70
     1
102
RTVSPropertyOp49
 70
     1
102
RTVSPropertyOp50
 70
     1
102
RTVSPropertyOp51
 70
     0
102
RTVSPropertyOp52
 70
     0
102
RTVSPropertyOp53
 70
     1
102
RTVSPropertyOp54
 70
     1
102
RTVSPropertyOp55
 70
     1
102
RTVSPropertyOp56
 70
     1
102
RTVSPropertyOp57
 70
     1
102
RTVSPropertyOp58
 70
     1
102
RTVSPropertyOp59
 70
     1
102
RTVSPropertyOp60
 70
     1
102
RTVSPropertyOp61
 70
     1
102
RTVSPropertyOp62
 70
     1
  0
XRECORD
  5
C473
102
{ACAD_REACTORS
330
C472
102
}
330
C472
100
AcDbXrecord
280
     1
102
RTVSPost2010Prop28
280
     0
102
RTVSPost2010PropOp28
 70
     1
102
RTVSPost2010Prop29
280
     1
102
RTVSPost2010PropOp29
 70
     1
102
RTVSPost2010Prop30
280
     1
102
RTVSPost2010PropOp30
 70
     1
102
RTVSPost2010Prop31
280
     0
102
RTVSPost2010PropOp31
 70
     1
102
RTVSPost2010Prop32
280
     0
102
RTVSPost2010PropOp32
 70
     1
102
RTVSPost2010Prop33
280
     0
102
RTVSPost2010PropOp33
 70
     1
102
RTVSPost2010Prop34
280
     0
102
RTVSPost2010PropOp34
 70
     1
102
RTVSPost2010Prop35
280
     0
102
RTVSPost2010PropOp35
 70
     1
102
RTVSPost2010Prop36
280
     0
102
RTVSPost2010PropOp36
 70
     1
102
RTVSPost2010Prop37
 90
       50
102
RTVSPost2010PropOp37
 70
     1
102
RTVSPost2010Prop38
140
0.0
102
RTVSPost2010PropOp38
 70
     1
102
RTVSPost2010Prop39
140
1.0
102
RTVSPost2010PropOp39
 70
     1
102
RTVSPost2010Prop40
 90
        0
102
RTVSPost2010PropOp40
 70
     1
102
RTVSPost2010Prop41ColorIndex
 90
       18
102
RTVSPost2010Prop41ColorRGB
 90
        0
102
RTVSPost2010PropOp41
 70
     1
102
RTVSPost2010Prop42
 90
       50
102
RTVSPost2010PropOp42
 70
     1
102
RTVSPost2010Prop43
 90
        3
102
RTVSPost2010PropOp43
 70
     1
102
RTVSPost2010Prop44ColorIndex
 90
        5
102
RTVSPost2010Prop44ColorRGB
 90
      255
102
RTVSPost2010PropOp44
 70
     1
102
RTVSPost2010Prop45
280
     0
102
RTVSPost2010PropOp45
 70
     1
102
RTVSPost2010Prop46
 90
       50
102
RTVSPost2010PropOp46
 70
     1
102
RTVSPost2010Prop47
 90
       50
102
RTVSPost2010PropOp47
 70
     1
102
RTVSPost2010Prop48
 90
       50
102
RTVSPost2010PropOp48
 70
     1
102
RTVSPost2010Prop49
280
     0
102
RTVSPost2010PropOp49
 70
     1
102
RTVSPost2010Prop50
 90
       50
102
RTVSPost2010PropOp50
 70
     1
102
RTVSPost2010Prop51ColorIndex
 90
      256
102
RTVSPost2010Prop51ColorRGB
 90
-16777216
102
RTVSPost2010PropOp51
 70
     0
102
RTVSPost2010Prop52
140
1.0
102
RTVSPost2010PropOp52
 70
     0
102
RTVSPost2010Prop53
 90
        2
102
RTVSPost2010PropOp53
 70
     1
102
RTVSPost2010Prop54
  1
strokes_ogs.tif
102
RTVSPost2010PropOp54
 70
     1
102
RTVSPost2010Prop55
280
     0
102
RTVSPost2010PropOp55
 70
     1
102
RTVSPost2010Prop56
140
1.0
102
RTVSPost2010PropOp56
 70
     1
102
RTVSPost2010Prop57
140
1.0
102
RTVSPost2010PropOp57
 70
     1
102
RTVSPropertyOp0
 70
     1
102
RTVSPropertyOp1
 70
     1
102
RTVSPropertyOp2
 70
     1
102
RTVSPropertyOp3
 70
     1
102
RTVSPropertyOp4
 70
     1
102
RTVSPropertyOp5
 70
     1
102
RTVSPropertyOp6
 70
     1
102
RTVSPropertyOp7
 70
     1
102
RTVSPropertyOp8
 70
     1
102
RTVSPropertyOp9
 70
     1
102
RTVSPropertyOp10
 70
     1
102
RTVSPropertyOp11
 70
     1
102
RTVSPropertyOp12
 70
     1
102
RTVSPropertyOp13
 70
     1
102
RTVSPropertyOp14
 70
     1
102
RTVSPropertyOp15
 70
     1
102
RTVSPropertyOp16
 70
     1
102
RTVSPropertyOp17
 70
     1
102
RTVSPropertyOp18
 70
     1
102
RTVSPropertyOp19
 70
     1
102
RTVSPropertyOp20
 70
     1
102
RTVSPropertyOp21
 70
     1
102
RTVSPropertyOp22
 70
     1
102
RTVSPropertyOp23
 70
     1
102
RTVSPropertyOp24
 70
     1
102
RTVSPropertyOp25
 70
     1
102
RTVSPropertyOp26
 70
     1
102
RTVSPropertyOp27
 70
     1
102
RTVSPropertyOp28
 70
     1
102
RTVSPropertyOp29
 70
     1
102
RTVSPropertyOp30
 70
     1
102
RTVSPropertyOp31
 70
     1
102
RTVSPropertyOp32
 70
     1
102
RTVSPropertyOp33
 70
     1
102
RTVSPropertyOp34
 70
     1
102
RTVSPropertyOp35
 70
     1
102
RTVSPropertyOp36
 70
     1
102
RTVSPropertyOp37
 70
     1
102
RTVSPropertyOp38
 70
     1
102
RTVSPropertyOp39
 70
     1
102
RTVSPropertyOp40
 70
     1
102
RTVSPropertyOp41
 70
     1
102
RTVSPropertyOp42
 70
     1
102
RTVSPropertyOp43
 70
     1
102
RTVSPropertyOp44
 70
     1
102
RTVSPropertyOp45
 70
     1
102
RTVSPropertyOp46
 70
     1
102
RTVSPropertyOp47
 70
     1
102
RTVSPropertyOp48
 70
     1
102
RTVSPropertyOp49
 70
     1
102
RTVSPropertyOp50
 70
     1
102
RTVSPropertyOp51
 70
     0
102
RTVSPropertyOp52
 70
     0
102
RTVSPropertyOp53
 70
     1
102
RTVSPropertyOp54
 70
     1
102
RTVSPropertyOp55
 70
     1
102
RTVSPropertyOp56
 70
     1
102
RTVSPropertyOp57
 70
     1
102
RTVSPropertyOp58
 70
     1
102
RTVSPropertyOp59
 70
     1
102
RTVSPropertyOp60
 70
     1
102
RTVSPropertyOp61
 70
     1
102
RTVSPropertyOp62
 70
     1
  0
XRECORD
  5
C471
102
{ACAD_REACTORS
330
C470
102
}
330
C470
100
AcDbXrecord
280
     1
102
RTVSPost2010Prop28
280
     0
102
RTVSPost2010PropOp28
 70
     1
102
RTVSPost2010Prop29
280
     1
102
RTVSPost2010PropOp29
 70
     1
102
RTVSPost2010Prop30
280
     1
102
RTVSPost2010PropOp30
 70
     1
102
RTVSPost2010Prop31
280
     0
102
RTVSPost2010PropOp31
 70
     1
102
RTVSPost2010Prop32
280
     0
102
RTVSPost2010PropOp32
 70
     1
102
RTVSPost2010Prop33
280
     0
102
RTVSPost2010PropOp33
 70
     1
102
RTVSPost2010Prop34
280
     0
102
RTVSPost2010PropOp34
 70
     1
102
RTVSPost2010Prop35
280
     0
102
RTVSPost2010PropOp35
 70
     1
102
RTVSPost2010Prop36
280
     0
102
RTVSPost2010PropOp36
 70
     1
102
RTVSPost2010Prop37
 90
       50
102
RTVSPost2010PropOp37
 70
     1
102
RTVSPost2010Prop38
140
0.0
102
RTVSPost2010PropOp38
 70
     1
102
RTVSPost2010Prop39
140
1.0
102
RTVSPost2010PropOp39
 70
     1
102
RTVSPost2010Prop40
 90
        0
102
RTVSPost2010PropOp40
 70
     1
102
RTVSPost2010Prop41ColorIndex
 90
       18
102
RTVSPost2010Prop41ColorRGB
 90
        0
102
RTVSPost2010PropOp41
 70
     1
102
RTVSPost2010Prop42
 90
       50
102
RTVSPost2010PropOp42
 70
     1
102
RTVSPost2010Prop43
 90
        3
102
RTVSPost2010PropOp43
 70
     1
102
RTVSPost2010Prop44ColorIndex
 90
        5
102
RTVSPost2010Prop44ColorRGB
 90
      255
102
RTVSPost2010PropOp44
 70
     1
102
RTVSPost2010Prop45
280
     0
102
RTVSPost2010PropOp45
 70
     1
102
RTVSPost2010Prop46
 90
       50
102
RTVSPost2010PropOp46
 70
     1
102
RTVSPost2010Prop47
 90
       50
102
RTVSPost2010PropOp47
 70
     1
102
RTVSPost2010Prop48
 90
       50
102
RTVSPost2010PropOp48
 70
     1
102
RTVSPost2010Prop49
280
     0
102
RTVSPost2010PropOp49
 70
     1
102
RTVSPost2010Prop50
 90
       50
102
RTVSPost2010PropOp50
 70
     1
102
RTVSPost2010Prop51ColorIndex
 90
      256
102
RTVSPost2010Prop51ColorRGB
 90
-16777216
102
RTVSPost2010PropOp51
 70
     0
102
RTVSPost2010Prop52
140
1.0
102
RTVSPost2010PropOp52
 70
     0
102
RTVSPost2010Prop53
 90
        2
102
RTVSPost2010PropOp53
 70
     1
102
RTVSPost2010Prop54
  1
strokes_ogs.tif
102
RTVSPost2010PropOp54
 70
     1
102
RTVSPost2010Prop55
280
     0
102
RTVSPost2010PropOp55
 70
     1
102
RTVSPost2010Prop56
140
1.0
102
RTVSPost2010PropOp56
 70
     1
102
RTVSPost2010Prop57
140
1.0
102
RTVSPost2010PropOp57
 70
     1
102
RTVSPropertyOp0
 70
     1
102
RTVSPropertyOp1
 70
     1
102
RTVSPropertyOp2
 70
     1
102
RTVSPropertyOp3
 70
     1
102
RTVSPropertyOp4
 70
     1
102
RTVSPropertyOp5
 70
     1
102
RTVSPropertyOp6
 70
     1
102
RTVSPropertyOp7
 70
     1
102
RTVSPropertyOp8
 70
     1
102
RTVSPropertyOp9
 70
     1
102
RTVSPropertyOp10
 70
     1
102
RTVSPropertyOp11
 70
     1
102
RTVSPropertyOp12
 70
     1
102
RTVSPropertyOp13
 70
     1
102
RTVSPropertyOp14
 70
     1
102
RTVSPropertyOp15
 70
     1
102
RTVSPropertyOp16
 70
     1
102
RTVSPropertyOp17
 70
     1
102
RTVSPropertyOp18
 70
     1
102
RTVSPropertyOp19
 70
     1
102
RTVSPropertyOp20
 70
     1
102
RTVSPropertyOp21
 70
     1
102
RTVSPropertyOp22
 70
     1
102
RTVSPropertyOp23
 70
     1
102
RTVSPropertyOp24
 70
     1
102
RTVSPropertyOp25
 70
     1
102
RTVSPropertyOp26
 70
     1
102
RTVSPropertyOp27
 70
     1
102
RTVSPropertyOp28
 70
     1
102
RTVSPropertyOp29
 70
     1
102
RTVSPropertyOp30
 70
     1
102
RTVSPropertyOp31
 70
     1
102
RTVSPropertyOp32
 70
     1
102
RTVSPropertyOp33
 70
     1
102
RTVSPropertyOp34
 70
     1
102
RTVSPropertyOp35
 70
     1
102
RTVSPropertyOp36
 70
     1
102
RTVSPropertyOp37
 70
     1
102
RTVSPropertyOp38
 70
     1
102
RTVSPropertyOp39
 70
     1
102
RTVSPropertyOp40
 70
     1
102
RTVSPropertyOp41
 70
     1
102
RTVSPropertyOp42
 70
     1
102
RTVSPropertyOp43
 70
     1
102
RTVSPropertyOp44
 70
     1
102
RTVSPropertyOp45
 70
     1
102
RTVSPropertyOp46
 70
     1
102
RTVSPropertyOp47
 70
     1
102
RTVSPropertyOp48
 70
     1
102
RTVSPropertyOp49
 70
     1
102
RTVSPropertyOp50
 70
     1
102
RTVSPropertyOp51
 70
     0
102
RTVSPropertyOp52
 70
     0
102
RTVSPropertyOp53
 70
     1
102
RTVSPropertyOp54
 70
     1
102
RTVSPropertyOp55
 70
     1
102
RTVSPropertyOp56
 70
     1
102
RTVSPropertyOp57
 70
     1
102
RTVSPropertyOp58
 70
     1
102
RTVSPropertyOp59
 70
     1
102
RTVSPropertyOp60
 70
     1
102
RTVSPropertyOp61
 70
     1
102
RTVSPropertyOp62
 70
     1
  0
XRECORD
  5
C46B
102
{ACAD_REACTORS
330
C46A
102
}
330
C46A
100
AcDbXrecord
280
     1
102
RTVSPost2010Prop28
280
     0
102
RTVSPost2010PropOp28
 70
     1
102
RTVSPost2010Prop29
280
     1
102
RTVSPost2010PropOp29
 70
     1
102
RTVSPost2010Prop30
280
     1
102
RTVSPost2010PropOp30
 70
     1
102
RTVSPost2010Prop31
280
     0
102
RTVSPost2010PropOp31
 70
     1
102
RTVSPost2010Prop32
280
     0
102
RTVSPost2010PropOp32
 70
     1
102
RTVSPost2010Prop33
280
     0
102
RTVSPost2010PropOp33
 70
     1
102
RTVSPost2010Prop34
280
     0
102
RTVSPost2010PropOp34
 70
     1
102
RTVSPost2010Prop35
280
     0
102
RTVSPost2010PropOp35
 70
     1
102
RTVSPost2010Prop36
280
     0
102
RTVSPost2010PropOp36
 70
     1
102
RTVSPost2010Prop37
 90
       50
102
RTVSPost2010PropOp37
 70
     1
102
RTVSPost2010Prop38
140
0.0
102
RTVSPost2010PropOp38
 70
     1
102
RTVSPost2010Prop39
140
1.0
102
RTVSPost2010PropOp39
 70
     1
102
RTVSPost2010Prop40
 90
        0
102
RTVSPost2010PropOp40
 70
     1
102
RTVSPost2010Prop41ColorIndex
 90
       18
102
RTVSPost2010Prop41ColorRGB
 90
        0
102
RTVSPost2010PropOp41
 70
     1
102
RTVSPost2010Prop42
 90
       50
102
RTVSPost2010PropOp42
 70
     1
102
RTVSPost2010Prop43
 90
        3
102
RTVSPost2010PropOp43
 70
     1
102
RTVSPost2010Prop44ColorIndex
 90
        5
102
RTVSPost2010Prop44ColorRGB
 90
      255
102
RTVSPost2010PropOp44
 70
     1
102
RTVSPost2010Prop45
280
     0
102
RTVSPost2010PropOp45
 70
     1
102
RTVSPost2010Prop46
 90
       50
102
RTVSPost2010PropOp46
 70
     1
102
RTVSPost2010Prop47
 90
       50
102
RTVSPost2010PropOp47
 70
     1
102
RTVSPost2010Prop48
 90
       50
102
RTVSPost2010PropOp48
 70
     1
102
RTVSPost2010Prop49
280
     0
102
RTVSPost2010PropOp49
 70
     1
102
RTVSPost2010Prop50
 90
       50
102
RTVSPost2010PropOp50
 70
     1
102
RTVSPost2010Prop51ColorIndex
 90
      256
102
RTVSPost2010Prop51ColorRGB
 90
-16777216
102
RTVSPost2010PropOp51
 70
     0
102
RTVSPost2010Prop52
140
1.0
102
RTVSPost2010PropOp52
 70
     0
102
RTVSPost2010Prop53
 90
        2
102
RTVSPost2010PropOp53
 70
     1
102
RTVSPost2010Prop54
  1
strokes_ogs.tif
102
RTVSPost2010PropOp54
 70
     1
102
RTVSPost2010Prop55
280
     0
102
RTVSPost2010PropOp55
 70
     1
102
RTVSPost2010Prop56
140
1.0
102
RTVSPost2010PropOp56
 70
     1
102
RTVSPost2010Prop57
140
1.0
102
RTVSPost2010PropOp57
 70
     1
102
RTVSPropertyOp0
 70
     1
102
RTVSPropertyOp1
 70
     1
102
RTVSPropertyOp2
 70
     1
102
RTVSPropertyOp3
 70
     1
102
RTVSPropertyOp4
 70
     1
102
RTVSPropertyOp5
 70
     1
102
RTVSPropertyOp6
 70
     1
102
RTVSPropertyOp7
 70
     1
102
RTVSPropertyOp8
 70
     1
102
RTVSPropertyOp9
 70
     1
102
RTVSPropertyOp10
 70
     1
102
RTVSPropertyOp11
 70
     1
102
RTVSPropertyOp12
 70
     1
102
RTVSPropertyOp13
 70
     1
102
RTVSPropertyOp14
 70
     1
102
RTVSPropertyOp15
 70
     1
102
RTVSPropertyOp16
 70
     1
102
RTVSPropertyOp17
 70
     1
102
RTVSPropertyOp18
 70
     1
102
RTVSPropertyOp19
 70
     1
102
RTVSPropertyOp20
 70
     1
102
RTVSPropertyOp21
 70
     1
102
RTVSPropertyOp22
 70
     1
102
RTVSPropertyOp23
 70
     1
102
RTVSPropertyOp24
 70
     1
102
RTVSPropertyOp25
 70
     1
102
RTVSPropertyOp26
 70
     1
102
RTVSPropertyOp27
 70
     1
102
RTVSPropertyOp28
 70
     1
102
RTVSPropertyOp29
 70
     1
102
RTVSPropertyOp30
 70
     1
102
RTVSPropertyOp31
 70
     1
102
RTVSPropertyOp32
 70
     1
102
RTVSPropertyOp33
 70
     1
102
RTVSPropertyOp34
 70
     1
102
RTVSPropertyOp35
 70
     1
102
RTVSPropertyOp36
 70
     1
102
RTVSPropertyOp37
 70
     1
102
RTVSPropertyOp38
 70
     1
102
RTVSPropertyOp39
 70
     1
102
RTVSPropertyOp40
 70
     1
102
RTVSPropertyOp41
 70
     1
102
RTVSPropertyOp42
 70
     1
102
RTVSPropertyOp43
 70
     1
102
RTVSPropertyOp44
 70
     1
102
RTVSPropertyOp45
 70
     1
102
RTVSPropertyOp46
 70
     1
102
RTVSPropertyOp47
 70
     1
102
RTVSPropertyOp48
 70
     1
102
RTVSPropertyOp49
 70
     1
102
RTVSPropertyOp50
 70
     1
102
RTVSPropertyOp51
 70
     0
102
RTVSPropertyOp52
 70
     0
102
RTVSPropertyOp53
 70
     1
102
RTVSPropertyOp54
 70
     1
102
RTVSPropertyOp55
 70
     1
102
RTVSPropertyOp56
 70
     1
102
RTVSPropertyOp57
 70
     1
102
RTVSPropertyOp58
 70
     1
102
RTVSPropertyOp59
 70
     1
102
RTVSPropertyOp60
 70
     1
102
RTVSPropertyOp61
 70
     1
102
RTVSPropertyOp62
 70
     1
  0
XRECORD
  5
C46D
102
{ACAD_REACTORS
330
C46C
102
}
330
C46C
100
AcDbXrecord
280
     1
102
RTVSPost2010Prop28
280
     0
102
RTVSPost2010PropOp28
 70
     1
102
RTVSPost2010Prop29
280
     1
102
RTVSPost2010PropOp29
 70
     1
102
RTVSPost2010Prop30
280
     1
102
RTVSPost2010PropOp30
 70
     1
102
RTVSPost2010Prop31
280
     0
102
RTVSPost2010PropOp31
 70
     1
102
RTVSPost2010Prop32
280
     0
102
RTVSPost2010PropOp32
 70
     1
102
RTVSPost2010Prop33
280
     0
102
RTVSPost2010PropOp33
 70
     1
102
RTVSPost2010Prop34
280
     0
102
RTVSPost2010PropOp34
 70
     1
102
RTVSPost2010Prop35
280
     0
102
RTVSPost2010PropOp35
 70
     1
102
RTVSPost2010Prop36
280
     0
102
RTVSPost2010PropOp36
 70
     1
102
RTVSPost2010Prop37
 90
       50
102
RTVSPost2010PropOp37
 70
     1
102
RTVSPost2010Prop38
140
0.0
102
RTVSPost2010PropOp38
 70
     1
102
RTVSPost2010Prop39
140
1.0
102
RTVSPost2010PropOp39
 70
     1
102
RTVSPost2010Prop40
 90
        0
102
RTVSPost2010PropOp40
 70
     1
102
RTVSPost2010Prop41ColorIndex
 90
       18
102
RTVSPost2010Prop41ColorRGB
 90
        0
102
RTVSPost2010PropOp41
 70
     1
102
RTVSPost2010Prop42
 90
       50
102
RTVSPost2010PropOp42
 70
     1
102
RTVSPost2010Prop43
 90
        3
102
RTVSPost2010PropOp43
 70
     1
102
RTVSPost2010Prop44ColorIndex
 90
        5
102
RTVSPost2010Prop44ColorRGB
 90
      255
102
RTVSPost2010PropOp44
 70
     1
102
RTVSPost2010Prop45
280
     0
102
RTVSPost2010PropOp45
 70
     1
102
RTVSPost2010Prop46
 90
       50
102
RTVSPost2010PropOp46
 70
     1
102
RTVSPost2010Prop47
 90
       50
102
RTVSPost2010PropOp47
 70
     1
102
RTVSPost2010Prop48
 90
       50
102
RTVSPost2010PropOp48
 70
     1
102
RTVSPost2010Prop49
280
     0
102
RTVSPost2010PropOp49
 70
     1
102
RTVSPost2010Prop50
 90
       50
102
RTVSPost2010PropOp50
 70
     1
102
RTVSPost2010Prop51ColorIndex
 90
      256
102
RTVSPost2010Prop51ColorRGB
 90
-16777216
102
RTVSPost2010PropOp51
 70
     0
102
RTVSPost2010Prop52
140
1.0
102
RTVSPost2010PropOp52
 70
     0
102
RTVSPost2010Prop53
 90
        2
102
RTVSPost2010PropOp53
 70
     1
102
RTVSPost2010Prop54
  1
strokes_ogs.tif
102
RTVSPost2010PropOp54
 70
     1
102
RTVSPost2010Prop55
280
     0
102
RTVSPost2010PropOp55
 70
     1
102
RTVSPost2010Prop56
140
1.0
102
RTVSPost2010PropOp56
 70
     1
102
RTVSPost2010Prop57
140
1.0
102
RTVSPost2010PropOp57
 70
     1
102
RTVSPropertyOp0
 70
     1
102
RTVSPropertyOp1
 70
     1
102
RTVSPropertyOp2
 70
     1
102
RTVSPropertyOp3
 70
     1
102
RTVSPropertyOp4
 70
     1
102
RTVSPropertyOp5
 70
     1
102
RTVSPropertyOp6
 70
     1
102
RTVSPropertyOp7
 70
     1
102
RTVSPropertyOp8
 70
     1
102
RTVSPropertyOp9
 70
     1
102
RTVSPropertyOp10
 70
     1
102
RTVSPropertyOp11
 70
     1
102
RTVSPropertyOp12
 70
     1
102
RTVSPropertyOp13
 70
     1
102
RTVSPropertyOp14
 70
     1
102
RTVSPropertyOp15
 70
     1
102
RTVSPropertyOp16
 70
     1
102
RTVSPropertyOp17
 70
     1
102
RTVSPropertyOp18
 70
     1
102
RTVSPropertyOp19
 70
     1
102
RTVSPropertyOp20
 70
     1
102
RTVSPropertyOp21
 70
     1
102
RTVSPropertyOp22
 70
     1
102
RTVSPropertyOp23
 70
     1
102
RTVSPropertyOp24
 70
     1
102
RTVSPropertyOp25
 70
     1
102
RTVSPropertyOp26
 70
     1
102
RTVSPropertyOp27
 70
     1
102
RTVSPropertyOp28
 70
     1
102
RTVSPropertyOp29
 70
     1
102
RTVSPropertyOp30
 70
     1
102
RTVSPropertyOp31
 70
     1
102
RTVSPropertyOp32
 70
     1
102
RTVSPropertyOp33
 70
     1
102
RTVSPropertyOp34
 70
     1
102
RTVSPropertyOp35
 70
     1
102
RTVSPropertyOp36
 70
     1
102
RTVSPropertyOp37
 70
     1
102
RTVSPropertyOp38
 70
     1
102
RTVSPropertyOp39
 70
     1
102
RTVSPropertyOp40
 70
     1
102
RTVSPropertyOp41
 70
     1
102
RTVSPropertyOp42
 70
     1
102
RTVSPropertyOp43
 70
     1
102
RTVSPropertyOp44
 70
     1
102
RTVSPropertyOp45
 70
     1
102
RTVSPropertyOp46
 70
     1
102
RTVSPropertyOp47
 70
     1
102
RTVSPropertyOp48
 70
     1
102
RTVSPropertyOp49
 70
     1
102
RTVSPropertyOp50
 70
     1
102
RTVSPropertyOp51
 70
     0
102
RTVSPropertyOp52
 70
     0
102
RTVSPropertyOp53
 70
     1
102
RTVSPropertyOp54
 70
     1
102
RTVSPropertyOp55
 70
     1
102
RTVSPropertyOp56
 70
     1
102
RTVSPropertyOp57
 70
     1
102
RTVSPropertyOp58
 70
     1
102
RTVSPropertyOp59
 70
     1
102
RTVSPropertyOp60
 70
     1
102
RTVSPropertyOp61
 70
     1
102
RTVSPropertyOp62
 70
     1
  0
XRECORD
  5
C45B
102
{ACAD_REACTORS
330
C45A
102
}
330
C45A
100
AcDbXrecord
280
     1
102
RTVSPost2010Prop28
280
     0
102
RTVSPost2010PropOp28
 70
     1
102
RTVSPost2010Prop29
280
     1
102
RTVSPost2010PropOp29
 70
     1
102
RTVSPost2010Prop30
280
     1
102
RTVSPost2010PropOp30
 70
     1
102
RTVSPost2010Prop31
280
     0
102
RTVSPost2010PropOp31
 70
     1
102
RTVSPost2010Prop32
280
     0
102
RTVSPost2010PropOp32
 70
     1
102
RTVSPost2010Prop33
280
     0
102
RTVSPost2010PropOp33
 70
     1
102
RTVSPost2010Prop34
280
     0
102
RTVSPost2010PropOp34
 70
     1
102
RTVSPost2010Prop35
280
     0
102
RTVSPost2010PropOp35
 70
     1
102
RTVSPost2010Prop36
280
     0
102
RTVSPost2010PropOp36
 70
     1
102
RTVSPost2010Prop37
 90
       50
102
RTVSPost2010PropOp37
 70
     1
102
RTVSPost2010Prop38
140
0.0
102
RTVSPost2010PropOp38
 70
     1
102
RTVSPost2010Prop39
140
1.0
102
RTVSPost2010PropOp39
 70
     1
102
RTVSPost2010Prop40
 90
        0
102
RTVSPost2010PropOp40
 70
     1
102
RTVSPost2010Prop41ColorIndex
 90
       18
102
RTVSPost2010Prop41ColorRGB
 90
        0
102
RTVSPost2010PropOp41
 70
     1
102
RTVSPost2010Prop42
 90
       50
102
RTVSPost2010PropOp42
 70
     1
102
RTVSPost2010Prop43
 90
        3
102
RTVSPost2010PropOp43
 70
     1
102
RTVSPost2010Prop44ColorIndex
 90
        5
102
RTVSPost2010Prop44ColorRGB
 90
      255
102
RTVSPost2010PropOp44
 70
     1
102
RTVSPost2010Prop45
280
     0
102
RTVSPost2010PropOp45
 70
     1
102
RTVSPost2010Prop46
 90
       50
102
RTVSPost2010PropOp46
 70
     1
102
RTVSPost2010Prop47
 90
       50
102
RTVSPost2010PropOp47
 70
     1
102
RTVSPost2010Prop48
 90
       50
102
RTVSPost2010PropOp48
 70
     1
102
RTVSPost2010Prop49
280
     0
102
RTVSPost2010PropOp49
 70
     1
102
RTVSPost2010Prop50
 90
       50
102
RTVSPost2010PropOp50
 70
     1
102
RTVSPost2010Prop51ColorIndex
 90
      256
102
RTVSPost2010Prop51ColorRGB
 90
-16777216
102
RTVSPost2010PropOp51
 70
     0
102
RTVSPost2010Prop52
140
1.0
102
RTVSPost2010PropOp52
 70
     0
102
RTVSPost2010Prop53
 90
        2
102
RTVSPost2010PropOp53
 70
     1
102
RTVSPost2010Prop54
  1
strokes_ogs.tif
102
RTVSPost2010PropOp54
 70
     1
102
RTVSPost2010Prop55
280
     0
102
RTVSPost2010PropOp55
 70
     1
102
RTVSPost2010Prop56
140
1.0
102
RTVSPost2010PropOp56
 70
     1
102
RTVSPost2010Prop57
140
1.0
102
RTVSPost2010PropOp57
 70
     1
102
RTVSPropertyOp0
 70
     1
102
RTVSPropertyOp1
 70
     1
102
RTVSPropertyOp2
 70
     1
102
RTVSPropertyOp3
 70
     1
102
RTVSPropertyOp4
 70
     1
102
RTVSPropertyOp5
 70
     1
102
RTVSPropertyOp6
 70
     1
102
RTVSPropertyOp7
 70
     1
102
RTVSPropertyOp8
 70
     1
102
RTVSPropertyOp9
 70
     1
102
RTVSPropertyOp10
 70
     1
102
RTVSPropertyOp11
 70
     1
102
RTVSPropertyOp12
 70
     1
102
RTVSPropertyOp13
 70
     1
102
RTVSPropertyOp14
 70
     1
102
RTVSPropertyOp15
 70
     1
102
RTVSPropertyOp16
 70
     1
102
RTVSPropertyOp17
 70
     1
102
RTVSPropertyOp18
 70
     1
102
RTVSPropertyOp19
 70
     1
102
RTVSPropertyOp20
 70
     1
102
RTVSPropertyOp21
 70
     1
102
RTVSPropertyOp22
 70
     1
102
RTVSPropertyOp23
 70
     1
102
RTVSPropertyOp24
 70
     1
102
RTVSPropertyOp25
 70
     1
102
RTVSPropertyOp26
 70
     1
102
RTVSPropertyOp27
 70
     1
102
RTVSPropertyOp28
 70
     1
102
RTVSPropertyOp29
 70
     1
102
RTVSPropertyOp30
 70
     1
102
RTVSPropertyOp31
 70
     1
102
RTVSPropertyOp32
 70
     1
102
RTVSPropertyOp33
 70
     1
102
RTVSPropertyOp34
 70
     1
102
RTVSPropertyOp35
 70
     1
102
RTVSPropertyOp36
 70
     1
102
RTVSPropertyOp37
 70
     1
102
RTVSPropertyOp38
 70
     1
102
RTVSPropertyOp39
 70
     1
102
RTVSPropertyOp40
 70
     1
102
RTVSPropertyOp41
 70
     1
102
RTVSPropertyOp42
 70
     1
102
RTVSPropertyOp43
 70
     1
102
RTVSPropertyOp44
 70
     1
102
RTVSPropertyOp45
 70
     1
102
RTVSPropertyOp46
 70
     1
102
RTVSPropertyOp47
 70
     1
102
RTVSPropertyOp48
 70
     1
102
RTVSPropertyOp49
 70
     1
102
RTVSPropertyOp50
 70
     1
102
RTVSPropertyOp51
 70
     0
102
RTVSPropertyOp52
 70
     0
102
RTVSPropertyOp53
 70
     1
102
RTVSPropertyOp54
 70
     1
102
RTVSPropertyOp55
 70
     1
102
RTVSPropertyOp56
 70
     1
102
RTVSPropertyOp57
 70
     1
102
RTVSPropertyOp58
 70
     1
102
RTVSPropertyOp59
 70
     1
102
RTVSPropertyOp60
 70
     1
102
RTVSPropertyOp61
 70
     1
102
RTVSPropertyOp62
 70
     1
  0
XRECORD
  5
C44F
102
{ACAD_REACTORS
330
C44E
102
}
330
C44E
100
AcDbXrecord
280
     1
102
RTVSPost2010Prop28
280
     0
102
RTVSPost2010PropOp28
 70
     1
102
RTVSPost2010Prop29
280
     1
102
RTVSPost2010PropOp29
 70
     1
102
RTVSPost2010Prop30
280
     1
102
RTVSPost2010PropOp30
 70
     1
102
RTVSPost2010Prop31
280
     0
102
RTVSPost2010PropOp31
 70
     1
102
RTVSPost2010Prop32
280
     0
102
RTVSPost2010PropOp32
 70
     1
102
RTVSPost2010Prop33
280
     0
102
RTVSPost2010PropOp33
 70
     1
102
RTVSPost2010Prop34
280
     0
102
RTVSPost2010PropOp34
 70
     1
102
RTVSPost2010Prop35
280
     0
102
RTVSPost2010PropOp35
 70
     1
102
RTVSPost2010Prop36
280
     0
102
RTVSPost2010PropOp36
 70
     1
102
RTVSPost2010Prop37
 90
       50
102
RTVSPost2010PropOp37
 70
     1
102
RTVSPost2010Prop38
140
0.0
102
RTVSPost2010PropOp38
 70
     1
102
RTVSPost2010Prop39
140
1.0
102
RTVSPost2010PropOp39
 70
     1
102
RTVSPost2010Prop40
 90
        0
102
RTVSPost2010PropOp40
 70
     1
102
RTVSPost2010Prop41ColorIndex
 90
       18
102
RTVSPost2010Prop41ColorRGB
 90
        0
102
RTVSPost2010PropOp41
 70
     1
102
RTVSPost2010Prop42
 90
       50
102
RTVSPost2010PropOp42
 70
     1
102
RTVSPost2010Prop43
 90
        3
102
RTVSPost2010PropOp43
 70
     1
102
RTVSPost2010Prop44ColorIndex
 90
        5
102
RTVSPost2010Prop44ColorRGB
 90
      255
102
RTVSPost2010PropOp44
 70
     1
102
RTVSPost2010Prop45
280
     0
102
RTVSPost2010PropOp45
 70
     1
102
RTVSPost2010Prop46
 90
       50
102
RTVSPost2010PropOp46
 70
     1
102
RTVSPost2010Prop47
 90
       50
102
RTVSPost2010PropOp47
 70
     1
102
RTVSPost2010Prop48
 90
       50
102
RTVSPost2010PropOp48
 70
     1
102
RTVSPost2010Prop49
280
     0
102
RTVSPost2010PropOp49
 70
     1
102
RTVSPost2010Prop50
 90
       50
102
RTVSPost2010PropOp50
 70
     1
102
RTVSPost2010Prop51ColorIndex
 90
      256
102
RTVSPost2010Prop51ColorRGB
 90
-16777216
102
RTVSPost2010PropOp51
 70
     0
102
RTVSPost2010Prop52
140
1.0
102
RTVSPost2010PropOp52
 70
     0
102
RTVSPost2010Prop53
 90
        2
102
RTVSPost2010PropOp53
 70
     1
102
RTVSPost2010Prop54
  1
strokes_ogs.tif
102
RTVSPost2010PropOp54
 70
     1
102
RTVSPost2010Prop55
280
     0
102
RTVSPost2010PropOp55
 70
     1
102
RTVSPost2010Prop56
140
1.0
102
RTVSPost2010PropOp56
 70
     1
102
RTVSPost2010Prop57
140
1.0
102
RTVSPost2010PropOp57
 70
     1
102
RTVSPropertyOp0
 70
     1
102
RTVSPropertyOp1
 70
     1
102
RTVSPropertyOp2
 70
     1
102
RTVSPropertyOp3
 70
     1
102
RTVSPropertyOp4
 70
     1
102
RTVSPropertyOp5
 70
     1
102
RTVSPropertyOp6
 70
     1
102
RTVSPropertyOp7
 70
     1
102
RTVSPropertyOp8
 70
     1
102
RTVSPropertyOp9
 70
     1
102
RTVSPropertyOp10
 70
     1
102
RTVSPropertyOp11
 70
     1
102
RTVSPropertyOp12
 70
     1
102
RTVSPropertyOp13
 70
     1
102
RTVSPropertyOp14
 70
     1
102
RTVSPropertyOp15
 70
     1
102
RTVSPropertyOp16
 70
     1
102
RTVSPropertyOp17
 70
     1
102
RTVSPropertyOp18
 70
     1
102
RTVSPropertyOp19
 70
     1
102
RTVSPropertyOp20
 70
     1
102
RTVSPropertyOp21
 70
     1
102
RTVSPropertyOp22
 70
     1
102
RTVSPropertyOp23
 70
     1
102
RTVSPropertyOp24
 70
     1
102
RTVSPropertyOp25
 70
     1
102
RTVSPropertyOp26
 70
     1
102
RTVSPropertyOp27
 70
     1
102
RTVSPropertyOp28
 70
     1
102
RTVSPropertyOp29
 70
     1
102
RTVSPropertyOp30
 70
     1
102
RTVSPropertyOp31
 70
     1
102
RTVSPropertyOp32
 70
     1
102
RTVSPropertyOp33
 70
     1
102
RTVSPropertyOp34
 70
     1
102
RTVSPropertyOp35
 70
     1
102
RTVSPropertyOp36
 70
     1
102
RTVSPropertyOp37
 70
     1
102
RTVSPropertyOp38
 70
     1
102
RTVSPropertyOp39
 70
     1
102
RTVSPropertyOp40
 70
     1
102
RTVSPropertyOp41
 70
     1
102
RTVSPropertyOp42
 70
     1
102
RTVSPropertyOp43
 70
     1
102
RTVSPropertyOp44
 70
     1
102
RTVSPropertyOp45
 70
     1
102
RTVSPropertyOp46
 70
     1
102
RTVSPropertyOp47
 70
     1
102
RTVSPropertyOp48
 70
     1
102
RTVSPropertyOp49
 70
     1
102
RTVSPropertyOp50
 70
     1
102
RTVSPropertyOp51
 70
     0
102
RTVSPropertyOp52
 70
     0
102
RTVSPropertyOp53
 70
     1
102
RTVSPropertyOp54
 70
     1
102
RTVSPropertyOp55
 70
     1
102
RTVSPropertyOp56
 70
     1
102
RTVSPropertyOp57
 70
     1
102
RTVSPropertyOp58
 70
     1
102
RTVSPropertyOp59
 70
     1
102
RTVSPropertyOp60
 70
     1
102
RTVSPropertyOp61
 70
     1
102
RTVSPropertyOp62
 70
     1
  0
XRECORD
  5
C46F
102
{ACAD_REACTORS
330
C46E
102
}
330
C46E
100
AcDbXrecord
280
     1
102
RTVSPost2010Prop28
280
     0
102
RTVSPost2010PropOp28
 70
     1
102
RTVSPost2010Prop29
280
     1
102
RTVSPost2010PropOp29
 70
     1
102
RTVSPost2010Prop30
280
     1
102
RTVSPost2010PropOp30
 70
     1
102
RTVSPost2010Prop31
280
     0
102
RTVSPost2010PropOp31
 70
     1
102
RTVSPost2010Prop32
280
     0
102
RTVSPost2010PropOp32
 70
     1
102
RTVSPost2010Prop33
280
     0
102
RTVSPost2010PropOp33
 70
     1
102
RTVSPost2010Prop34
280
     0
102
RTVSPost2010PropOp34
 70
     1
102
RTVSPost2010Prop35
280
     0
102
RTVSPost2010PropOp35
 70
     1
102
RTVSPost2010Prop36
280
     0
102
RTVSPost2010PropOp36
 70
     1
102
RTVSPost2010Prop37
 90
       50
102
RTVSPost2010PropOp37
 70
     1
102
RTVSPost2010Prop38
140
0.0
102
RTVSPost2010PropOp38
 70
     1
102
RTVSPost2010Prop39
140
1.0
102
RTVSPost2010PropOp39
 70
     1
102
RTVSPost2010Prop40
 90
        0
102
RTVSPost2010PropOp40
 70
     1
102
RTVSPost2010Prop41ColorIndex
 90
       18
102
RTVSPost2010Prop41ColorRGB
 90
        0
102
RTVSPost2010PropOp41
 70
     1
102
RTVSPost2010Prop42
 90
       50
102
RTVSPost2010PropOp42
 70
     1
102
RTVSPost2010Prop43
 90
        3
102
RTVSPost2010PropOp43
 70
     1
102
RTVSPost2010Prop44ColorIndex
 90
        5
102
RTVSPost2010Prop44ColorRGB
 90
      255
102
RTVSPost2010PropOp44
 70
     1
102
RTVSPost2010Prop45
280
     0
102
RTVSPost2010PropOp45
 70
     1
102
RTVSPost2010Prop46
 90
       50
102
RTVSPost2010PropOp46
 70
     1
102
RTVSPost2010Prop47
 90
       50
102
RTVSPost2010PropOp47
 70
     1
102
RTVSPost2010Prop48
 90
       50
102
RTVSPost2010PropOp48
 70
     1
102
RTVSPost2010Prop49
280
     0
102
RTVSPost2010PropOp49
 70
     1
102
RTVSPost2010Prop50
 90
       50
102
RTVSPost2010PropOp50
 70
     1
102
RTVSPost2010Prop51ColorIndex
 90
      256
102
RTVSPost2010Prop51ColorRGB
 90
-16777216
102
RTVSPost2010PropOp51
 70
     0
102
RTVSPost2010Prop52
140
1.0
102
RTVSPost2010PropOp52
 70
     0
102
RTVSPost2010Prop53
 90
        2
102
RTVSPost2010PropOp53
 70
     1
102
RTVSPost2010Prop54
  1
strokes_ogs.tif
102
RTVSPost2010PropOp54
 70
     1
102
RTVSPost2010Prop55
280
     0
102
RTVSPost2010PropOp55
 70
     1
102
RTVSPost2010Prop56
140
1.0
102
RTVSPost2010PropOp56
 70
     1
102
RTVSPost2010Prop57
140
1.0
102
RTVSPost2010PropOp57
 70
     1
102
RTVSPropertyOp0
 70
     1
102
RTVSPropertyOp1
 70
     1
102
RTVSPropertyOp2
 70
     1
102
RTVSPropertyOp3
 70
     1
102
RTVSPropertyOp4
 70
     1
102
RTVSPropertyOp5
 70
     1
102
RTVSPropertyOp6
 70
     1
102
RTVSPropertyOp7
 70
     1
102
RTVSPropertyOp8
 70
     1
102
RTVSPropertyOp9
 70
     1
102
RTVSPropertyOp10
 70
     1
102
RTVSPropertyOp11
 70
     1
102
RTVSPropertyOp12
 70
     1
102
RTVSPropertyOp13
 70
     1
102
RTVSPropertyOp14
 70
     1
102
RTVSPropertyOp15
 70
     1
102
RTVSPropertyOp16
 70
     1
102
RTVSPropertyOp17
 70
     1
102
RTVSPropertyOp18
 70
     1
102
RTVSPropertyOp19
 70
     1
102
RTVSPropertyOp20
 70
     1
102
RTVSPropertyOp21
 70
     1
102
RTVSPropertyOp22
 70
     1
102
RTVSPropertyOp23
 70
     1
102
RTVSPropertyOp24
 70
     1
102
RTVSPropertyOp25
 70
     1
102
RTVSPropertyOp26
 70
     1
102
RTVSPropertyOp27
 70
     1
102
RTVSPropertyOp28
 70
     1
102
RTVSPropertyOp29
 70
     1
102
RTVSPropertyOp30
 70
     1
102
RTVSPropertyOp31
 70
     1
102
RTVSPropertyOp32
 70
     1
102
RTVSPropertyOp33
 70
     1
102
RTVSPropertyOp34
 70
     1
102
RTVSPropertyOp35
 70
     1
102
RTVSPropertyOp36
 70
     1
102
RTVSPropertyOp37
 70
     1
102
RTVSPropertyOp38
 70
     1
102
RTVSPropertyOp39
 70
     1
102
RTVSPropertyOp40
 70
     1
102
RTVSPropertyOp41
 70
     1
102
RTVSPropertyOp42
 70
     1
102
RTVSPropertyOp43
 70
     1
102
RTVSPropertyOp44
 70
     1
102
RTVSPropertyOp45
 70
     1
102
RTVSPropertyOp46
 70
     1
102
RTVSPropertyOp47
 70
     1
102
RTVSPropertyOp48
 70
     1
102
RTVSPropertyOp49
 70
     1
102
RTVSPropertyOp50
 70
     1
102
RTVSPropertyOp51
 70
     0
102
RTVSPropertyOp52
 70
     0
102
RTVSPropertyOp53
 70
     1
102
RTVSPropertyOp54
 70
     1
102
RTVSPropertyOp55
 70
     1
102
RTVSPropertyOp56
 70
     1
102
RTVSPropertyOp57
 70
     1
102
RTVSPropertyOp58
 70
     1
102
RTVSPropertyOp59
 70
     1
102
RTVSPropertyOp60
 70
     1
102
RTVSPropertyOp61
 70
     1
102
RTVSPropertyOp62
 70
     1
  0
ENDSEC
  0
EOF
